ISO-10303-21;
HEADER;
FILE_DESCRIPTION (( 'STEP AP214' ),
    '1' );
FILE_NAME ('Micro_KC-125-190-015.STEP',
    '2021-09-03T19:05:59',
    ( '' ),
    ( '' ),
    'SwSTEP 2.0',
    'SolidWorks 2020',
    '' );
FILE_SCHEMA (( 'AUTOMOTIVE_DESIGN' ));
ENDSEC;

DATA;
#1 = DIRECTION ( 'NONE',  ( 0.0000000000000000000, 0.0000000000000000000, 1.000000000000000000 ) ) ;
#2 = VERTEX_POINT ( 'NONE', #299 ) ;
#3 = CYLINDRICAL_SURFACE ( 'NONE', #209, 0.03100000000000000672 ) ;
#4 = ORIENTED_EDGE ( 'NONE', *, *, #326, .T. ) ;
#5 = EDGE_LOOP ( 'NONE', ( #158, #224, #254, #270 ) ) ;
#6 = AXIS2_PLACEMENT_3D ( 'NONE', #92, #1, #318 ) ;
#7 = EDGE_CURVE ( 'NONE', #199, #216, #44, .T. ) ;
#8 = CYLINDRICAL_SURFACE ( 'NONE', #160, 0.03100000000000000672 ) ;
#9 = CARTESIAN_POINT ( 'NONE',  ( 0.0000000000000000000, 0.0000000000000000000, 1.500000000000000222 ) ) ;
#10 = EDGE_LOOP ( 'NONE', ( #343, #323, #231, #341 ) ) ;
#11 = CARTESIAN_POINT ( 'NONE',  ( 0.06250000000000000000, 7.654042494670956004E-18, 1.500000000000000222 ) ) ;
#12 = AXIS2_PLACEMENT_3D ( 'NONE', #161, #336, #107 ) ;
#13 = STYLED_ITEM ( 'NONE', ( #147 ), #84 ) ;
#14 = DIRECTION ( 'NONE',  ( -1.000000000000000000, 0.0000000000000000000, 0.0000000000000000000 ) ) ;
#15 = EDGE_LOOP ( 'NONE', ( #93, #214, #17, #63 ) ) ;
#16 = CARTESIAN_POINT ( 'NONE',  ( 0.0000000000000000000, 0.0000000000000000000, 0.1899999999999999745 ) ) ;
#17 = ORIENTED_EDGE ( 'NONE', *, *, #253, .T. ) ;
#18 = DIRECTION ( 'NONE',  ( -1.000000000000000000, 0.0000000000000000000, 0.0000000000000000000 ) ) ;
#19 = VECTOR ( 'NONE', #193, 39.37007874015748143 ) ;
#20 = CARTESIAN_POINT ( 'NONE',  ( 0.03100000000000001713, 0.0000000000000000000, 0.1899999999999999745 ) ) ;
#21 = VERTEX_POINT ( 'NONE', #170 ) ;
#22 = DIRECTION ( 'NONE',  ( 0.0000000000000000000, 0.0000000000000000000, 1.000000000000000000 ) ) ;
#23 = ADVANCED_FACE ( 'NONE', ( #290 ), #27, .T. ) ;
#24 =( CONVERSION_BASED_UNIT ( 'INCH', #238 ) LENGTH_UNIT ( ) NAMED_UNIT ( #169 ) );
#25 = AXIS2_PLACEMENT_3D ( 'NONE', #219, #281, #300 ) ;
#26 = CYLINDRICAL_SURFACE ( 'NONE', #50, 0.06250000000000000000 ) ;
#27 = CYLINDRICAL_SURFACE ( 'NONE', #82, 0.06250000000000000000 ) ;
#28 = EDGE_LOOP ( 'NONE', ( #42, #4 ) ) ;
#29 = AXIS2_PLACEMENT_3D ( 'NONE', #236, #347, #210 ) ;
#30 = ORIENTED_EDGE ( 'NONE', *, *, #213, .F. ) ;
#31 = ADVANCED_FACE ( 'NONE', ( #321 ), #149, .T. ) ;
#32 = AXIS2_PLACEMENT_3D ( 'NONE', #85, #232, #108 ) ;
#33 = CARTESIAN_POINT ( 'NONE',  ( -0.06250000000000000000, 0.0000000000000000000, 1.500000000000000222 ) ) ;
#34 = EDGE_CURVE ( 'NONE', #305, #164, #176, .T. ) ;
#35 = FACE_OUTER_BOUND ( 'NONE', #202, .T. ) ;
#36 = LINE ( 'NONE', #244, #185 ) ;
#37 = PRESENTATION_STYLE_ASSIGNMENT (( #306 ) ) ;
#38 = VECTOR ( 'NONE', #124, 39.37007874015748143 ) ;
#39 = CIRCLE ( 'NONE', #114, 0.06250000000000000000 ) ;
#40 = EDGE_CURVE ( 'NONE', #360, #151, #98, .T. ) ;
#41 = LINE ( 'NONE', #250, #208 ) ;
#42 = ORIENTED_EDGE ( 'NONE', *, *, #134, .T. ) ;
#43 = EDGE_CURVE ( 'NONE', #314, #164, #295, .T. ) ;
#44 = CIRCLE ( 'NONE', #196, 0.03099999999999999978 ) ;
#45 = CARTESIAN_POINT ( 'NONE',  ( 0.0000000000000000000, 0.0000000000000000000, 0.0000000000000000000 ) ) ;
#46 = ORIENTED_EDGE ( 'NONE', *, *, #166, .T. ) ;
#47 = DIRECTION ( 'NONE',  ( 0.7071067811865456854, 8.659560562354911904E-17, -0.7071067811865493491 ) ) ;
#48 = EDGE_CURVE ( 'NONE', #151, #314, #104, .T. ) ;
#49 = VECTOR ( 'NONE', #55, 39.37007874015748143 ) ;
#50 = AXIS2_PLACEMENT_3D ( 'NONE', #241, #352, #215 ) ;
#51 = DIRECTION ( 'NONE',  ( -0.0000000000000000000, -0.0000000000000000000, -1.000000000000000000 ) ) ;
#52 = CARTESIAN_POINT ( 'NONE',  ( 0.0000000000000000000, 0.0000000000000000000, 0.1899999999999999745 ) ) ;
#53 = ADVANCED_FACE ( 'NONE', ( #35 ), #223, .F. ) ;
#54 = DIRECTION ( 'NONE',  ( -1.000000000000000000, 0.0000000000000000000, 0.0000000000000000000 ) ) ;
#55 = DIRECTION ( 'NONE',  ( -0.0000000000000000000, -0.0000000000000000000, -1.000000000000000000 ) ) ;
#56 = SURFACE_STYLE_FILL_AREA ( #316 ) ;
#57 = APPLICATION_CONTEXT ( 'automotive_design' ) ;
#58 = CARTESIAN_POINT ( 'NONE',  ( 0.0000000000000000000, 0.0000000000000000000, 1.485000000000000764 ) ) ;
#59 = FACE_OUTER_BOUND ( 'NONE', #351, .T. ) ;
#60 = DIRECTION ( 'NONE',  ( -1.000000000000000000, 0.0000000000000000000, 0.0000000000000000000 ) ) ;
#61 = ORIENTED_EDGE ( 'NONE', *, *, #133, .F. ) ;
#62 = CIRCLE ( 'NONE', #32, 0.03100000000000001713 ) ;
#63 = ORIENTED_EDGE ( 'NONE', *, *, #197, .F. ) ;
#64 = CARTESIAN_POINT ( 'NONE',  ( 0.0000000000000000000, 0.0000000000000000000, 1.500000000000000222 ) ) ;
#65 = CARTESIAN_POINT ( 'NONE',  ( -0.06250000000000000000, 0.0000000000000000000, 1.485000000000000764 ) ) ;
#66 = CIRCLE ( 'NONE', #29, 0.06250000000000000000 ) ;
#67 = DIRECTION ( 'NONE',  ( -0.0000000000000000000, -0.0000000000000000000, -1.000000000000000000 ) ) ;
#68 = ORIENTED_EDGE ( 'NONE', *, *, #247, .F. ) ;
#69 = LINE ( 'NONE', #303, #38 ) ;
#70 = ORIENTED_EDGE ( 'NONE', *, *, #251, .T. ) ;
#71 = FILL_AREA_STYLE ('',( #335 ) ) ;
#72 = ORIENTED_EDGE ( 'NONE', *, *, #282, .T. ) ;
#73 = CIRCLE ( 'NONE', #106, 0.04750000000000064587 ) ;
#74 = CARTESIAN_POINT ( 'NONE',  ( -0.03100000000000000672, 0.0000000000000000000, 0.0000000000000000000 ) ) ;
#75 = EDGE_LOOP ( 'NONE', ( #294, #72, #280, #354 ) ) ;
#76 = EDGE_CURVE ( 'NONE', #258, #233, #69, .T. ) ;
#77 = LINE ( 'NONE', #201, #19 ) ;
#78 = FACE_BOUND ( 'NONE', #162, .T. ) ;
#79 = EDGE_LOOP ( 'NONE', ( #273, #181, #371, #333 ) ) ;
#80 = CARTESIAN_POINT ( 'NONE',  ( 0.0000000000000000000, 0.0000000000000000000, 1.500000000000000222 ) ) ;
#81 = ADVANCED_FACE ( 'NONE', ( #226 ), #157, .T. ) ;
#82 = AXIS2_PLACEMENT_3D ( 'NONE', #146, #211, #267 ) ;
#83 = ORIENTED_EDGE ( 'NONE', *, *, #34, .T. ) ;
#84 = ADVANCED_BREP_SHAPE_REPRESENTATION ( 'Micro_KC-125-190-015', ( #145, #142 ), #179 ) ;
#85 = CARTESIAN_POINT ( 'NONE',  ( 0.0000000000000000000, 0.0000000000000000000, 0.1899999999999999745 ) ) ;
#86 = PLANE ( 'NONE',  #6 ) ;
#87 = CARTESIAN_POINT ( 'NONE',  ( 0.0000000000000000000, 0.0000000000000000000, 0.2214999999999998359 ) ) ;
#88 = AXIS2_PLACEMENT_3D ( 'NONE', #168, #287, #370 ) ;
#89 = ORIENTED_EDGE ( 'NONE', *, *, #337, .F. ) ;
#90 = CARTESIAN_POINT ( 'NONE',  ( 0.0000000000000000000, 0.0000000000000000000, 0.0000000000000000000 ) ) ;
#91 = EDGE_LOOP ( 'NONE', ( #284, #148, #249, #325 ) ) ;
#92 = CARTESIAN_POINT ( 'NONE',  ( 0.0000000000000000000, 0.0000000000000000000, 1.500000000000000222 ) ) ;
#93 = ORIENTED_EDGE ( 'NONE', *, *, #328, .T. ) ;
#94 = AXIS2_PLACEMENT_3D ( 'NONE', #220, #130, #248 ) ;
#95 = COLOUR_RGB ( '',0.7921568627450980005, 0.8196078431372548767, 0.9333333333333333481 ) ;
#96 = DIRECTION ( 'NONE',  ( -1.000000000000000000, 0.0000000000000000000, 0.0000000000000000000 ) ) ;
#97 =( NAMED_UNIT ( * ) SI_UNIT ( $, .STERADIAN. ) SOLID_ANGLE_UNIT ( ) );
#98 = LINE ( 'NONE', #187, #128 ) ;
#99 = PRODUCT_DEFINITION ( 'UNKNOWN', '', #374, #175 ) ;
#100 = APPLICATION_PROTOCOL_DEFINITION ( 'draft international standard', 'automotive_design', 1998, #186 ) ;
#101 = AXIS2_PLACEMENT_3D ( 'NONE', #204, #345, #14 ) ;
#102 = DIRECTION ( 'NONE',  ( 0.0000000000000000000, 0.0000000000000000000, 1.000000000000000000 ) ) ;
#103 = ORIENTED_EDGE ( 'NONE', *, *, #253, .F. ) ;
#104 = LINE ( 'NONE', #33, #276 ) ;
#105 = CARTESIAN_POINT ( 'NONE',  ( 0.06250000000000000000, 7.654042494670956004E-18, 0.0000000000000000000 ) ) ;
#106 = AXIS2_PLACEMENT_3D ( 'NONE', #64, #102, #334 ) ;
#107 = DIRECTION ( 'NONE',  ( -1.000000000000000000, 0.0000000000000000000, 0.0000000000000000000 ) ) ;
#108 = DIRECTION ( 'NONE',  ( -1.000000000000000000, 0.0000000000000000000, 0.0000000000000000000 ) ) ;
#109 = DIRECTION ( 'NONE',  ( 0.0000000000000000000, 0.0000000000000000000, 1.000000000000000000 ) ) ;
#110 = ORIENTED_EDGE ( 'NONE', *, *, #361, .T. ) ;
#111 = PRODUCT_RELATED_PRODUCT_CATEGORY ( 'part', '', ( #203 ) ) ;
#112 = CARTESIAN_POINT ( 'NONE',  ( 0.03099999999999999978, 3.796405077356795010E-18, 0.01500000000000000291 ) ) ;
#113 = UNCERTAINTY_MEASURE_WITH_UNIT (LENGTH_MEASURE( 1.000000000000000082E-05 ), #327, 'distance_accuracy_value', 'NONE');
#114 = AXIS2_PLACEMENT_3D ( 'NONE', #87, #346, #319 ) ;
#115 = EDGE_CURVE ( 'NONE', #2, #164, #184, .T. ) ;
#116 = APPLICATION_PROTOCOL_DEFINITION ( 'draft international standard', 'automotive_design', 1998, #57 ) ;
#117 = CARTESIAN_POINT ( 'NONE',  ( -0.04750000000000064587, 0.0000000000000000000, 1.500000000000000222 ) ) ;
#118 = DIRECTION ( 'NONE',  ( 0.0000000000000000000, 0.0000000000000000000, -1.000000000000000000 ) ) ;
#119 = PRESENTATION_LAYER_ASSIGNMENT (  '', '', ( #286 ) ) ;
#120 = ORIENTED_EDGE ( 'NONE', *, *, #115, .F. ) ;
#121 = FACE_OUTER_BOUND ( 'NONE', #75, .T. ) ;
#122 = EDGE_LOOP ( 'NONE', ( #120, #367, #296, #363 ) ) ;
#123 = CIRCLE ( 'NONE', #173, 0.04750000000000064587 ) ;
#124 = DIRECTION ( 'NONE',  ( -0.0000000000000000000, -0.0000000000000000000, -1.000000000000000000 ) ) ;
#125 = DIRECTION ( 'NONE',  ( 1.000000000000000000, 0.0000000000000000000, 0.0000000000000000000 ) ) ;
#126 = DIRECTION ( 'NONE',  ( -0.0000000000000000000, -0.0000000000000000000, -1.000000000000000000 ) ) ;
#127 = ORIENTED_EDGE ( 'NONE', *, *, #7, .F. ) ;
#128 = VECTOR ( 'NONE', #159, 39.37007874015748143 ) ;
#129 = PRESENTATION_LAYER_ASSIGNMENT (  '', '', ( #13 ) ) ;
#130 = DIRECTION ( 'NONE',  ( 0.0000000000000000000, 0.0000000000000000000, -1.000000000000000000 ) ) ;
#131 = CARTESIAN_POINT ( 'NONE',  ( -0.06250000000000000000, 0.0000000000000000000, 0.0000000000000000000 ) ) ;
#132 = LINE ( 'NONE', #74, #49 ) ;
#133 = EDGE_CURVE ( 'NONE', #305, #216, #36, .T. ) ;
#134 = EDGE_CURVE ( 'NONE', #360, #21, #73, .T. ) ;
#135 = DIRECTION ( 'NONE',  ( -1.000000000000000000, 0.0000000000000000000, 0.0000000000000000000 ) ) ;
#136 = EDGE_LOOP ( 'NONE', ( #68, #190, #83, #110 ) ) ;
#137 = DIRECTION ( 'NONE',  ( -0.0000000000000000000, -0.0000000000000000000, -1.000000000000000000 ) ) ;
#138 = PRODUCT_DEFINITION_SHAPE ( 'NONE', 'NONE',  #99 ) ;
#139 = FILL_AREA_STYLE_COLOUR ( '', #95 ) ;
#140 = UNCERTAINTY_MEASURE_WITH_UNIT (LENGTH_MEASURE( 1.000000000000000082E-05 ), #24, 'distance_accuracy_value', 'NONE');
#141 = AXIS2_PLACEMENT_3D ( 'NONE', #45, #109, #230 ) ;
#142 = AXIS2_PLACEMENT_3D ( 'NONE', #183, #225, #125 ) ;
#143 =( LENGTH_UNIT ( ) NAMED_UNIT ( * ) SI_UNIT ( $, .METRE. ) );
#144 = EDGE_CURVE ( 'NONE', #2, #151, #332, .T. ) ;
#145 = MANIFOLD_SOLID_BREP ( 'Cut-Revolve1', #274 ) ;
#146 = CARTESIAN_POINT ( 'NONE',  ( 0.0000000000000000000, 0.0000000000000000000, 1.500000000000000222 ) ) ;
#147 = PRESENTATION_STYLE_ASSIGNMENT (( #269 ) ) ;
#148 = ORIENTED_EDGE ( 'NONE', *, *, #247, .T. ) ;
#149 = CONICAL_SURFACE ( 'NONE', #324, 0.04750000000000064587, 0.7853981633974457255 ) ;
#150 = AXIS2_PLACEMENT_3D ( 'NONE', #206, #293, #264 ) ;
#151 = VERTEX_POINT ( 'NONE', #65 ) ;
#152 = PRODUCT_CONTEXT ( 'NONE', #57, 'mechanical' ) ;
#153 = ORIENTED_EDGE ( 'NONE', *, *, #337, .T. ) ;
#154 = CONICAL_SURFACE ( 'NONE', #366, 0.03100000000000001713, 0.7853981633974502774 ) ;
#155 = DIRECTION ( 'NONE',  ( 0.0000000000000000000, 0.0000000000000000000, 1.000000000000000000 ) ) ;
#156 = ADVANCED_FACE ( 'NONE', ( #277 ), #8, .T. ) ;
#157 = CYLINDRICAL_SURFACE ( 'NONE', #200, 0.06250000000000000000 ) ;
#158 = ORIENTED_EDGE ( 'NONE', *, *, #353, .T. ) ;
#159 = DIRECTION ( 'NONE',  ( -0.7071067811865456854, 0.0000000000000000000, -0.7071067811865493491 ) ) ;
#160 = AXIS2_PLACEMENT_3D ( 'NONE', #331, #67, #18 ) ;
#161 = CARTESIAN_POINT ( 'NONE',  ( 0.0000000000000000000, 0.0000000000000000000, 1.500000000000000222 ) ) ;
#162 = EDGE_LOOP ( 'NONE', ( #349, #153 ) ) ;
#163 = CARTESIAN_POINT ( 'NONE',  ( 0.0000000000000000000, 0.0000000000000000000, 0.1899999999999999745 ) ) ;
#164 = VERTEX_POINT ( 'NONE', #338 ) ;
#165 = DIRECTION ( 'NONE',  ( 0.0000000000000000000, 0.0000000000000000000, 1.000000000000000000 ) ) ;
#166 = EDGE_CURVE ( 'NONE', #167, #305, #217, .T. ) ;
#167 = VERTEX_POINT ( 'NONE', #368 ) ;
#168 = CARTESIAN_POINT ( 'NONE',  ( 0.0000000000000000000, 0.0000000000000000000, 0.0000000000000000000 ) ) ;
#169 = DIMENSIONAL_EXPONENTS ( 1.000000000000000000, 0.0000000000000000000, 0.0000000000000000000, 0.0000000000000000000, 0.0000000000000000000, 0.0000000000000000000, 0.0000000000000000000 ) ;
#170 = CARTESIAN_POINT ( 'NONE',  ( 0.04750000000000064587, 6.735557395310482421E-18, 1.500000000000000222 ) ) ;
#171 = DIRECTION ( 'NONE',  ( -1.000000000000000000, 0.0000000000000000000, 0.0000000000000000000 ) ) ;
#172 = SURFACE_SIDE_STYLE ('',( #56 ) ) ;
#173 = AXIS2_PLACEMENT_3D ( 'NONE', #80, #313, #237 ) ;
#174 = DIRECTION ( 'NONE',  ( -0.0000000000000000000, -0.0000000000000000000, -1.000000000000000000 ) ) ;
#175 = PRODUCT_DEFINITION_CONTEXT ( 'detailed design', #186, 'design' ) ;
#176 = LINE ( 'NONE', #189, #373 ) ;
#177 = CARTESIAN_POINT ( 'NONE',  ( 0.0000000000000000000, 0.0000000000000000000, 0.01500000000000000291 ) ) ;
#178 = ADVANCED_FACE ( 'NONE', ( #372 ), #154, .T. ) ;
#179 =( GEOMETRIC_REPRESENTATION_CONTEXT ( 3 ) GLOBAL_UNCERTAINTY_ASSIGNED_CONTEXT ( ( #140 ) ) GLOBAL_UNIT_ASSIGNED_CONTEXT ( ( #24, #322, #212 ) ) REPRESENTATION_CONTEXT ( 'NONE', 'WORKASPACE' ) );
#180 =( NAMED_UNIT ( * ) PLANE_ANGLE_UNIT ( ) SI_UNIT ( $, .RADIAN. ) );
#181 = ORIENTED_EDGE ( 'NONE', *, *, #134, .F. ) ;
#182 = CARTESIAN_POINT ( 'NONE',  ( 0.0000000000000000000, 0.0000000000000000000, 0.0000000000000000000 ) ) ;
#183 = CARTESIAN_POINT ( 'NONE',  ( 0.0000000000000000000, 0.0000000000000000000, 0.0000000000000000000 ) ) ;
#184 = LINE ( 'NONE', #11, #221 ) ;
#185 = VECTOR ( 'NONE', #126, 39.37007874015748143 ) ;
#186 = APPLICATION_CONTEXT ( 'automotive_design' ) ;
#187 = CARTESIAN_POINT ( 'NONE',  ( -0.04750000000000064587, 0.0000000000000000000, 1.500000000000000222 ) ) ;
#188 = VERTEX_POINT ( 'NONE', #256 ) ;
#189 = CARTESIAN_POINT ( 'NONE',  ( 0.03100000000000001713, 0.0000000000000000000, 0.1899999999999999745 ) ) ;
#190 = ORIENTED_EDGE ( 'NONE', *, *, #251, .F. ) ;
#191 = DIRECTION ( 'NONE',  ( -0.0000000000000000000, -0.0000000000000000000, -1.000000000000000000 ) ) ;
#192 = AXIS2_PLACEMENT_3D ( 'NONE', #229, #310, #135 ) ;
#193 = DIRECTION ( 'NONE',  ( -0.7071067811865489050, 8.659560562354950115E-17, 0.7071067811865461294 ) ) ;
#194 = VERTEX_POINT ( 'NONE', #131 ) ;
#195 = DIRECTION ( 'NONE',  ( 1.000000000000000000, 0.0000000000000000000, 0.0000000000000000000 ) ) ;
#196 = AXIS2_PLACEMENT_3D ( 'NONE', #177, #51, #54 ) ;
#197 = EDGE_CURVE ( 'NONE', #188, #194, #41, .T. ) ;
#198 = CARTESIAN_POINT ( 'NONE',  ( 0.04750000000000064587, 5.817072295950006528E-18, 1.500000000000000222 ) ) ;
#199 = VERTEX_POINT ( 'NONE', #235 ) ;
#200 = AXIS2_PLACEMENT_3D ( 'NONE', #9, #362, #96 ) ;
#201 = CARTESIAN_POINT ( 'NONE',  ( -0.03100000000000001713, 3.796405077356796551E-18, 0.1899999999999999745 ) ) ;
#202 = EDGE_LOOP ( 'NONE', ( #240, #103 ) ) ;
#203 = PRODUCT ( 'Micro_KC-125-190-015', 'Micro_KC-125-190-015', '', ( #152 ) ) ;
#204 = CARTESIAN_POINT ( 'NONE',  ( 0.0000000000000000000, 0.0000000000000000000, 1.500000000000000222 ) ) ;
#205 = ADVANCED_FACE ( 'NONE', ( #364 ), #309, .T. ) ;
#206 = CARTESIAN_POINT ( 'NONE',  ( 0.0000000000000000000, 0.0000000000000000000, 0.01500000000000000291 ) ) ;
#207 = LENGTH_MEASURE_WITH_UNIT ( LENGTH_MEASURE( 0.02539999999999999897 ), #143 );
#208 = VECTOR ( 'NONE', #137, 39.37007874015748143 ) ;
#209 = AXIS2_PLACEMENT_3D ( 'NONE', #90, #174, #292 ) ;
#210 = DIRECTION ( 'NONE',  ( -1.000000000000000000, 0.0000000000000000000, 0.0000000000000000000 ) ) ;
#211 = DIRECTION ( 'NONE',  ( -0.0000000000000000000, -0.0000000000000000000, -1.000000000000000000 ) ) ;
#212 =( NAMED_UNIT ( * ) SI_UNIT ( $, .STERADIAN. ) SOLID_ANGLE_UNIT ( ) );
#213 = EDGE_CURVE ( 'NONE', #167, #199, #132, .T. ) ;
#214 = ORIENTED_EDGE ( 'NONE', *, *, #76, .T. ) ;
#215 = DIRECTION ( 'NONE',  ( -1.000000000000000000, 0.0000000000000000000, 0.0000000000000000000 ) ) ;
#216 = VERTEX_POINT ( 'NONE', #112 ) ;
#217 = CIRCLE ( 'NONE', #317, 0.03100000000000001713 ) ;
#218 =( LENGTH_UNIT ( ) NAMED_UNIT ( * ) SI_UNIT ( $, .METRE. ) );
#219 = CARTESIAN_POINT ( 'NONE',  ( 0.0000000000000000000, 0.0000000000000000000, 0.2214999999999998359 ) ) ;
#220 = CARTESIAN_POINT ( 'NONE',  ( 0.0000000000000000000, 0.0000000000000000000, 1.485000000000000764 ) ) ;
#221 = VECTOR ( 'NONE', #191, 39.37007874015748143 ) ;
#222 = MECHANICAL_DESIGN_GEOMETRIC_PRESENTATION_REPRESENTATION (  '', ( #13 ), #308 ) ;
#223 = PLANE ( 'NONE',  #301 ) ;
#224 = ORIENTED_EDGE ( 'NONE', *, *, #115, .T. ) ;
#225 = DIRECTION ( 'NONE',  ( 0.0000000000000000000, 0.0000000000000000000, 1.000000000000000000 ) ) ;
#226 = FACE_OUTER_BOUND ( 'NONE', #15, .T. ) ;
#227 = DIRECTION ( 'NONE',  ( 1.000000000000000000, 0.0000000000000000000, -0.0000000000000000000 ) ) ;
#228 = VECTOR ( 'NONE', #47, 39.37007874015748143 ) ;
#229 = CARTESIAN_POINT ( 'NONE',  ( 0.0000000000000000000, 0.0000000000000000000, 0.01499999999999999771 ) ) ;
#230 = DIRECTION ( 'NONE',  ( 1.000000000000000000, 0.0000000000000000000, 0.0000000000000000000 ) ) ;
#231 = ORIENTED_EDGE ( 'NONE', *, *, #353, .F. ) ;
#232 = DIRECTION ( 'NONE',  ( -0.0000000000000000000, -0.0000000000000000000, -1.000000000000000000 ) ) ;
#233 = VERTEX_POINT ( 'NONE', #105 ) ;
#234 = AXIS2_PLACEMENT_3D ( 'NONE', #311, #22, #227 ) ;
#235 = CARTESIAN_POINT ( 'NONE',  ( -0.03099999999999999978, 0.0000000000000000000, 0.01500000000000000291 ) ) ;
#236 = CARTESIAN_POINT ( 'NONE',  ( 0.0000000000000000000, 0.0000000000000000000, 0.01499999999999999771 ) ) ;
#237 = DIRECTION ( 'NONE',  ( 1.000000000000000000, 0.0000000000000000000, 0.0000000000000000000 ) ) ;
#238 = LENGTH_MEASURE_WITH_UNIT ( LENGTH_MEASURE( 0.02539999999999999897 ), #375 );
#239 = ORIENTED_EDGE ( 'NONE', *, *, #328, .F. ) ;
#240 = ORIENTED_EDGE ( 'NONE', *, *, #259, .F. ) ;
#241 = CARTESIAN_POINT ( 'NONE',  ( 0.0000000000000000000, 0.0000000000000000000, 1.500000000000000222 ) ) ;
#242 = SURFACE_STYLE_FILL_AREA ( #71 ) ;
#243 = SHAPE_DEFINITION_REPRESENTATION ( #138, #84 ) ;
#244 = CARTESIAN_POINT ( 'NONE',  ( 0.03100000000000000672, 3.796405077356795780E-18, 0.0000000000000000000 ) ) ;
#245 = MECHANICAL_DESIGN_GEOMETRIC_PRESENTATION_REPRESENTATION (  '', ( #286 ), #348 ) ;
#246 = ORIENTED_EDGE ( 'NONE', *, *, #133, .T. ) ;
#247 = EDGE_CURVE ( 'NONE', #167, #314, #77, .T. ) ;
#248 = DIRECTION ( 'NONE',  ( 1.000000000000000000, 0.0000000000000000000, 0.0000000000000000000 ) ) ;
#249 = ORIENTED_EDGE ( 'NONE', *, *, #43, .T. ) ;
#250 = CARTESIAN_POINT ( 'NONE',  ( -0.06250000000000000000, 0.0000000000000000000, 1.500000000000000222 ) ) ;
#251 = EDGE_CURVE ( 'NONE', #305, #167, #62, .T. ) ;
#252 = DIRECTION ( 'NONE',  ( 0.0000000000000000000, 0.0000000000000000000, 1.000000000000000000 ) ) ;
#253 = EDGE_CURVE ( 'NONE', #233, #194, #255, .T. ) ;
#254 = ORIENTED_EDGE ( 'NONE', *, *, #43, .F. ) ;
#255 = CIRCLE ( 'NONE', #88, 0.06250000000000000000 ) ;
#256 = CARTESIAN_POINT ( 'NONE',  ( -0.06250000000000000000, 0.0000000000000000000, 0.01499999999999999771 ) ) ;
#257 = DIRECTION ( 'NONE',  ( 1.000000000000000000, 0.0000000000000000000, 0.0000000000000000000 ) ) ;
#258 = VERTEX_POINT ( 'NONE', #365 ) ;
#259 = EDGE_CURVE ( 'NONE', #194, #233, #359, .T. ) ;
#260 = FACE_OUTER_BOUND ( 'NONE', #136, .T. ) ;
#261 = DIMENSIONAL_EXPONENTS ( 1.000000000000000000, 0.0000000000000000000, 0.0000000000000000000, 0.0000000000000000000, 0.0000000000000000000, 0.0000000000000000000, 0.0000000000000000000 ) ;
#262 = CONICAL_SURFACE ( 'NONE', #307, 0.03100000000000001713, 0.7853981633974502774 ) ;
#263 = ADVANCED_FACE ( 'NONE', ( #289 ), #291, .T. ) ;
#264 = DIRECTION ( 'NONE',  ( -1.000000000000000000, 0.0000000000000000000, 0.0000000000000000000 ) ) ;
#265 = AXIS2_PLACEMENT_3D ( 'NONE', #58, #266, #378 ) ;
#266 = DIRECTION ( 'NONE',  ( 0.0000000000000000000, 0.0000000000000000000, -1.000000000000000000 ) ) ;
#267 = DIRECTION ( 'NONE',  ( -1.000000000000000000, 0.0000000000000000000, 0.0000000000000000000 ) ) ;
#268 = ADVANCED_FACE ( 'NONE', ( #78, #315 ), #283, .T. ) ;
#269 = SURFACE_STYLE_USAGE ( .BOTH. , #172 ) ;
#270 = ORIENTED_EDGE ( 'NONE', *, *, #48, .F. ) ;
#271 = CIRCLE ( 'NONE', #265, 0.06250000000000000000 ) ;
#272 =( CONVERSION_BASED_UNIT ( 'INCH', #207 ) LENGTH_UNIT ( ) NAMED_UNIT ( #261 ) );
#273 = ORIENTED_EDGE ( 'NONE', *, *, #304, .F. ) ;
#274 = CLOSED_SHELL ( 'NONE', ( #81, #156, #178, #263, #23, #205, #330, #31, #278, #369, #268, #53, #377 ) ) ;
#275 = EDGE_LOOP ( 'NONE', ( #46, #246, #127, #30 ) ) ;
#276 = VECTOR ( 'NONE', #302, 39.37007874015748143 ) ;
#277 = FACE_OUTER_BOUND ( 'NONE', #275, .T. ) ;
#278 = ADVANCED_FACE ( 'NONE', ( #260 ), #262, .T. ) ;
#279 = DIRECTION ( 'NONE',  ( 1.000000000000000000, 0.0000000000000000000, -0.0000000000000000000 ) ) ;
#280 = ORIENTED_EDGE ( 'NONE', *, *, #197, .T. ) ;
#281 = DIRECTION ( 'NONE',  ( -0.0000000000000000000, -0.0000000000000000000, -1.000000000000000000 ) ) ;
#282 = EDGE_CURVE ( 'NONE', #258, #188, #355, .T. ) ;
#283 = PLANE ( 'NONE',  #234 ) ;
#284 = ORIENTED_EDGE ( 'NONE', *, *, #166, .F. ) ;
#285 = DIRECTION ( 'NONE',  ( -0.0000000000000000000, -0.0000000000000000000, -1.000000000000000000 ) ) ;
#286 = STYLED_ITEM ( 'NONE', ( #37 ), #145 ) ;
#287 = DIRECTION ( 'NONE',  ( 0.0000000000000000000, 0.0000000000000000000, 1.000000000000000000 ) ) ;
#288 = ORIENTED_EDGE ( 'NONE', *, *, #213, .T. ) ;
#289 = FACE_OUTER_BOUND ( 'NONE', #10, .T. ) ;
#290 = FACE_OUTER_BOUND ( 'NONE', #5, .T. ) ;
#291 = CONICAL_SURFACE ( 'NONE', #12, 0.04750000000000064587, 0.7853981633974457255 ) ;
#292 = DIRECTION ( 'NONE',  ( -1.000000000000000000, 0.0000000000000000000, 0.0000000000000000000 ) ) ;
#293 = DIRECTION ( 'NONE',  ( -0.0000000000000000000, -0.0000000000000000000, -1.000000000000000000 ) ) ;
#294 = ORIENTED_EDGE ( 'NONE', *, *, #76, .F. ) ;
#295 = CIRCLE ( 'NONE', #25, 0.06250000000000000000 ) ;
#296 = ORIENTED_EDGE ( 'NONE', *, *, #48, .T. ) ;
#297 = CIRCLE ( 'NONE', #150, 0.03099999999999999978 ) ;
#298 =( NAMED_UNIT ( * ) SI_UNIT ( $, .STERADIAN. ) SOLID_ANGLE_UNIT ( ) );
#299 = CARTESIAN_POINT ( 'NONE',  ( 0.06250000000000000000, 7.654042494670956004E-18, 1.485000000000000764 ) ) ;
#300 = DIRECTION ( 'NONE',  ( 1.000000000000000000, 0.0000000000000000000, 0.0000000000000000000 ) ) ;
#301 = AXIS2_PLACEMENT_3D ( 'NONE', #182, #155, #279 ) ;
#302 = DIRECTION ( 'NONE',  ( -0.0000000000000000000, -0.0000000000000000000, -1.000000000000000000 ) ) ;
#303 = CARTESIAN_POINT ( 'NONE',  ( 0.06250000000000000000, 7.654042494670956004E-18, 1.500000000000000222 ) ) ;
#304 = EDGE_CURVE ( 'NONE', #21, #2, #340, .T. ) ;
#305 = VERTEX_POINT ( 'NONE', #20 ) ;
#306 = SURFACE_STYLE_USAGE ( .BOTH. , #329 ) ;
#307 = AXIS2_PLACEMENT_3D ( 'NONE', #16, #252, #195 ) ;
#308 =( GEOMETRIC_REPRESENTATION_CONTEXT ( 3 ) GLOBAL_UNCERTAINTY_ASSIGNED_CONTEXT ( ( #320 ) ) GLOBAL_UNIT_ASSIGNED_CONTEXT ( ( #272, #180, #298 ) ) REPRESENTATION_CONTEXT ( 'NONE', 'WORKASPACE' ) );
#309 = CYLINDRICAL_SURFACE ( 'NONE', #101, 0.06250000000000000000 ) ;
#310 = DIRECTION ( 'NONE',  ( -0.0000000000000000000, -0.0000000000000000000, -1.000000000000000000 ) ) ;
#311 = CARTESIAN_POINT ( 'NONE',  ( 0.06250000000000000000, 0.0000000000000000000, 0.01499999999999999944 ) ) ;
#312 = ORIENTED_EDGE ( 'NONE', *, *, #282, .F. ) ;
#313 = DIRECTION ( 'NONE',  ( 0.0000000000000000000, 0.0000000000000000000, 1.000000000000000000 ) ) ;
#314 = VERTEX_POINT ( 'NONE', #342 ) ;
#315 = FACE_OUTER_BOUND ( 'NONE', #339, .T. ) ;
#316 = FILL_AREA_STYLE ('',( #139 ) ) ;
#317 = AXIS2_PLACEMENT_3D ( 'NONE', #163, #285, #171 ) ;
#318 = DIRECTION ( 'NONE',  ( 1.000000000000000000, 0.0000000000000000000, -0.0000000000000000000 ) ) ;
#319 = DIRECTION ( 'NONE',  ( 1.000000000000000000, 0.0000000000000000000, 0.0000000000000000000 ) ) ;
#320 = UNCERTAINTY_MEASURE_WITH_UNIT (LENGTH_MEASURE( 1.000000000000000082E-05 ), #272, 'distance_accuracy_value', 'NONE');
#321 = FACE_OUTER_BOUND ( 'NONE', #79, .T. ) ;
#322 =( NAMED_UNIT ( * ) PLANE_ANGLE_UNIT ( ) SI_UNIT ( $, .RADIAN. ) );
#323 = ORIENTED_EDGE ( 'NONE', *, *, #304, .T. ) ;
#324 = AXIS2_PLACEMENT_3D ( 'NONE', #379, #118, #60 ) ;
#325 = ORIENTED_EDGE ( 'NONE', *, *, #34, .F. ) ;
#326 = EDGE_CURVE ( 'NONE', #21, #360, #123, .T. ) ;
#327 =( CONVERSION_BASED_UNIT ( 'INCH', #356 ) LENGTH_UNIT ( ) NAMED_UNIT ( #376 ) );
#328 = EDGE_CURVE ( 'NONE', #188, #258, #66, .T. ) ;
#329 = SURFACE_SIDE_STYLE ('',( #242 ) ) ;
#330 = ADVANCED_FACE ( 'NONE', ( #350 ), #86, .T. ) ;
#331 = CARTESIAN_POINT ( 'NONE',  ( 0.0000000000000000000, 0.0000000000000000000, 0.0000000000000000000 ) ) ;
#332 = CIRCLE ( 'NONE', #94, 0.06250000000000000000 ) ;
#333 = ORIENTED_EDGE ( 'NONE', *, *, #144, .F. ) ;
#334 = DIRECTION ( 'NONE',  ( 1.000000000000000000, 0.0000000000000000000, 0.0000000000000000000 ) ) ;
#335 = FILL_AREA_STYLE_COLOUR ( '', #344 ) ;
#336 = DIRECTION ( 'NONE',  ( 0.0000000000000000000, 0.0000000000000000000, -1.000000000000000000 ) ) ;
#337 = EDGE_CURVE ( 'NONE', #216, #199, #297, .T. ) ;
#338 = CARTESIAN_POINT ( 'NONE',  ( 0.06250000000000000000, 7.654042494670956004E-18, 0.2214999999999998359 ) ) ;
#339 = EDGE_LOOP ( 'NONE', ( #239, #312 ) ) ;
#340 = LINE ( 'NONE', #198, #228 ) ;
#341 = ORIENTED_EDGE ( 'NONE', *, *, #40, .F. ) ;
#342 = CARTESIAN_POINT ( 'NONE',  ( -0.06250000000000000000, 0.0000000000000000000, 0.2214999999999998359 ) ) ;
#343 = ORIENTED_EDGE ( 'NONE', *, *, #326, .F. ) ;
#344 = COLOUR_RGB ( '',0.7921568627450980005, 0.8196078431372548767, 0.9333333333333333481 ) ;
#345 = DIRECTION ( 'NONE',  ( -0.0000000000000000000, -0.0000000000000000000, -1.000000000000000000 ) ) ;
#346 = DIRECTION ( 'NONE',  ( -0.0000000000000000000, -0.0000000000000000000, -1.000000000000000000 ) ) ;
#347 = DIRECTION ( 'NONE',  ( -0.0000000000000000000, -0.0000000000000000000, -1.000000000000000000 ) ) ;
#348 =( GEOMETRIC_REPRESENTATION_CONTEXT ( 3 ) GLOBAL_UNCERTAINTY_ASSIGNED_CONTEXT ( ( #113 ) ) GLOBAL_UNIT_ASSIGNED_CONTEXT ( ( #327, #357, #97 ) ) REPRESENTATION_CONTEXT ( 'NONE', 'WORKASPACE' ) );
#349 = ORIENTED_EDGE ( 'NONE', *, *, #7, .T. ) ;
#350 = FACE_OUTER_BOUND ( 'NONE', #28, .T. ) ;
#351 = EDGE_LOOP ( 'NONE', ( #61, #70, #288, #89 ) ) ;
#352 = DIRECTION ( 'NONE',  ( -0.0000000000000000000, -0.0000000000000000000, -1.000000000000000000 ) ) ;
#353 = EDGE_CURVE ( 'NONE', #151, #2, #271, .T. ) ;
#354 = ORIENTED_EDGE ( 'NONE', *, *, #259, .T. ) ;
#355 = CIRCLE ( 'NONE', #192, 0.06250000000000000000 ) ;
#356 = LENGTH_MEASURE_WITH_UNIT ( LENGTH_MEASURE( 0.02539999999999999897 ), #218 );
#357 =( NAMED_UNIT ( * ) PLANE_ANGLE_UNIT ( ) SI_UNIT ( $, .RADIAN. ) );
#358 = DIRECTION ( 'NONE',  ( 0.7071067811865489050, 0.0000000000000000000, 0.7071067811865461294 ) ) ;
#359 = CIRCLE ( 'NONE', #141, 0.06250000000000000000 ) ;
#360 = VERTEX_POINT ( 'NONE', #117 ) ;
#361 = EDGE_CURVE ( 'NONE', #164, #314, #39, .T. ) ;
#362 = DIRECTION ( 'NONE',  ( -0.0000000000000000000, -0.0000000000000000000, -1.000000000000000000 ) ) ;
#363 = ORIENTED_EDGE ( 'NONE', *, *, #361, .F. ) ;
#364 = FACE_OUTER_BOUND ( 'NONE', #122, .T. ) ;
#365 = CARTESIAN_POINT ( 'NONE',  ( 0.06250000000000000000, 7.654042494670956004E-18, 0.01499999999999999771 ) ) ;
#366 = AXIS2_PLACEMENT_3D ( 'NONE', #52, #165, #257 ) ;
#367 = ORIENTED_EDGE ( 'NONE', *, *, #144, .T. ) ;
#368 = CARTESIAN_POINT ( 'NONE',  ( -0.03100000000000001713, 5.725223786013877433E-18, 0.1899999999999999745 ) ) ;
#369 = ADVANCED_FACE ( 'NONE', ( #59 ), #3, .T. ) ;
#370 = DIRECTION ( 'NONE',  ( 1.000000000000000000, 0.0000000000000000000, 0.0000000000000000000 ) ) ;
#371 = ORIENTED_EDGE ( 'NONE', *, *, #40, .T. ) ;
#372 = FACE_OUTER_BOUND ( 'NONE', #91, .T. ) ;
#373 = VECTOR ( 'NONE', #358, 39.37007874015748143 ) ;
#374 = PRODUCT_DEFINITION_FORMATION_WITH_SPECIFIED_SOURCE ( 'ANY', '', #203, .NOT_KNOWN. ) ;
#375 =( LENGTH_UNIT ( ) NAMED_UNIT ( * ) SI_UNIT ( $, .METRE. ) );
#376 = DIMENSIONAL_EXPONENTS ( 1.000000000000000000, 0.0000000000000000000, 0.0000000000000000000, 0.0000000000000000000, 0.0000000000000000000, 0.0000000000000000000, 0.0000000000000000000 ) ;
#377 = ADVANCED_FACE ( 'NONE', ( #121 ), #26, .T. ) ;
#378 = DIRECTION ( 'NONE',  ( 1.000000000000000000, 0.0000000000000000000, 0.0000000000000000000 ) ) ;
#379 = CARTESIAN_POINT ( 'NONE',  ( 0.0000000000000000000, 0.0000000000000000000, 1.500000000000000222 ) ) ;
ENDSEC;
END-ISO-10303-21;
