ISO-10303-21;
HEADER;
FILE_DESCRIPTION (( 'STEP AP214' ),
    '1' );
FILE_NAME ('82466.STEP',
    '2023-06-30T22:43:54',
    ( '' ),
    ( '' ),
    'SwSTEP 2.0',
    'SolidWorks 2023',
    '' );
FILE_SCHEMA (( 'AUTOMOTIVE_DESIGN' ));
ENDSEC;

DATA;
#1 = PRESENTATION_STYLE_ASSIGNMENT (( #339 ) ) ;
#2 = DIRECTION ( 'NONE',  ( 0.000000000000000000, 0.000000000000000000, -1.000000000000000000 ) ) ;
#3 = DIRECTION ( 'NONE',  ( -0.000000000000000000, -1.000000000000000000, -0.000000000000000000 ) ) ;
#4 = SURFACE_SIDE_STYLE ('',( #202 ) ) ;
#5 = COLOUR_RGB ( '',1.000000000000000000, 0.000000000000000000, 0.000000000000000000 ) ;
#6 = AXIS2_PLACEMENT_3D ( 'NONE', #143, #63, #266 ) ;
#7 = CARTESIAN_POINT ( 'NONE',  ( -3.061616997868383018E-17, 0.2500000000000000000, 0.000000000000000000 ) ) ;
#8 = VECTOR ( 'NONE', #3, 39.37007874015748143 ) ;
#9 = SURFACE_SIDE_STYLE ('',( #13 ) ) ;
#10 = DIRECTION ( 'NONE',  ( 0.000000000000000000, 0.000000000000000000, -1.000000000000000000 ) ) ;
#11 = MANIFOLD_SOLID_BREP ( 'Revolve - Tool Body (Straight Shanked)', #22 ) ;
#12 = CIRCLE ( 'NONE', #110, 0.2500000000000000000 ) ;
#13 = SURFACE_STYLE_FILL_AREA ( #273 ) ;
#14 = AXIS2_PLACEMENT_3D ( 'NONE', #90, #197, #290 ) ;
#15 = SURFACE_STYLE_USAGE ( .BOTH. , #276 ) ;
#16 = ADVANCED_FACE ( 'NONE', ( #275 ), #154, .T. ) ;
#17 = DIMENSIONAL_EXPONENTS ( 1.000000000000000000, 0.000000000000000000, 0.000000000000000000, 0.000000000000000000, 0.000000000000000000, 0.000000000000000000, 0.000000000000000000 ) ;
#18 = VERTEX_POINT ( 'NONE', #313 ) ;
#19 = DIRECTION ( 'NONE',  ( -1.000000000000000000, 0.000000000000000000, 0.000000000000000000 ) ) ;
#20 =( GEOMETRIC_REPRESENTATION_CONTEXT ( 3 ) GLOBAL_UNCERTAINTY_ASSIGNED_CONTEXT ( ( #369 ) ) GLOBAL_UNIT_ASSIGNED_CONTEXT ( ( #127, #278, #280 ) ) REPRESENTATION_CONTEXT ( 'NONE', 'WORKASPACE' ) );
#21 = EDGE_LOOP ( 'NONE', ( #145, #207 ) ) ;
#22 = CLOSED_SHELL ( 'NONE', ( #354, #303, #226, #91 ) ) ;
#23 = FACE_OUTER_BOUND ( 'NONE', #248, .T. ) ;
#24 = CIRCLE ( 'NONE', #98, 0.2499999999999995282 ) ;
#25 = UNCERTAINTY_MEASURE_WITH_UNIT (LENGTH_MEASURE( 1.000000000000000082E-05 ), #109, 'distance_accuracy_value', 'NONE');
#26 = EDGE_CURVE ( 'NONE', #146, #289, #342, .T. ) ;
#27 = DIRECTION ( 'NONE',  ( -1.247009578300461253E-16, 1.000000000000000000, -0.000000000000000000 ) ) ;
#28 = DIRECTION ( 'NONE',  ( 1.224646799147353207E-16, -0.000000000000000000, 1.000000000000000000 ) ) ;
#29 =( NAMED_UNIT ( * ) PLANE_ANGLE_UNIT ( ) SI_UNIT ( $, .RADIAN. ) );
#30 = EDGE_LOOP ( 'NONE', ( #306, #126 ) ) ;
#31 = DIRECTION ( 'NONE',  ( -1.000000000000000000, 0.000000000000000000, 0.000000000000000000 ) ) ;
#32 = EDGE_LOOP ( 'NONE', ( #215, #319, #224, #139 ) ) ;
#33 = STYLED_ITEM ( 'NONE', ( #338 ), #270 ) ;
#34 =( LENGTH_UNIT ( ) NAMED_UNIT ( * ) SI_UNIT ( $, .METRE. ) );
#35 = DIRECTION ( 'NONE',  ( -1.247009578300461253E-16, 1.000000000000000000, -0.000000000000000000 ) ) ;
#36 = SURFACE_STYLE_FILL_AREA ( #41 ) ;
#37 = AXIS2_PLACEMENT_3D ( 'NONE', #214, #301, #355 ) ;
#38 = PRESENTATION_LAYER_ASSIGNMENT (  '', '', ( #198 ) ) ;
#39 = AXIS2_PLACEMENT_3D ( 'NONE', #58, #351, #2 ) ;
#40 = ORIENTED_EDGE ( 'NONE', *, *, #113, .F. ) ;
#41 = FILL_AREA_STYLE ('',( #327 ) ) ;
#42 = EDGE_LOOP ( 'NONE', ( #137, #331, #80, #310 ) ) ;
#43 = DIRECTION ( 'NONE',  ( -0.000000000000000000, -1.000000000000000000, -0.000000000000000000 ) ) ;
#44 = EDGE_CURVE ( 'NONE', #121, #179, #260, .T. ) ;
#45 = DIRECTION ( 'NONE',  ( -1.247009578300461253E-16, 1.000000000000000000, -0.000000000000000000 ) ) ;
#46 = EDGE_CURVE ( 'NONE', #57, #326, #12, .T. ) ;
#47 = CIRCLE ( 'NONE', #257, 0.2499999999999998335 ) ;
#48 = PRESENTATION_LAYER_ASSIGNMENT (  '', '', ( #211 ) ) ;
#49 =( NAMED_UNIT ( * ) PLANE_ANGLE_UNIT ( ) SI_UNIT ( $, .RADIAN. ) );
#50 = FACE_OUTER_BOUND ( 'NONE', #132, .T. ) ;
#51 = EDGE_CURVE ( 'NONE', #190, #62, #123, .T. ) ;
#52 = DIMENSIONAL_EXPONENTS ( 1.000000000000000000, 0.000000000000000000, 0.000000000000000000, 0.000000000000000000, 0.000000000000000000, 0.000000000000000000, 0.000000000000000000 ) ;
#53 = DIRECTION ( 'NONE',  ( -1.000000000000000000, 0.000000000000000000, 0.000000000000000000 ) ) ;
#54 = CIRCLE ( 'NONE', #148, 0.2500000000000000000 ) ;
#55 = CARTESIAN_POINT ( 'NONE',  ( -3.061616997868383018E-17, 0.2500000000000000000, 0.000000000000000000 ) ) ;
#56 = CARTESIAN_POINT ( 'NONE',  ( 3.061616997868383018E-17, 0.2500000000000000000, 0.2499999999999999722 ) ) ;
#57 = VERTEX_POINT ( 'NONE', #346 ) ;
#58 = CARTESIAN_POINT ( 'NONE',  ( 0.000000000000000000, 0.2500000000000000000, 0.000000000000000000 ) ) ;
#59 = ORIENTED_EDGE ( 'NONE', *, *, #340, .F. ) ;
#60 = PRESENTATION_LAYER_ASSIGNMENT (  '', '', ( #33 ) ) ;
#61 = PLANE ( 'NONE',  #316 ) ;
#62 = VERTEX_POINT ( 'NONE', #87 ) ;
#63 = DIRECTION ( 'NONE',  ( -0.000000000000000000, -1.000000000000000000, -0.000000000000000000 ) ) ;
#64 = EDGE_CURVE ( 'NONE', #289, #57, #361, .T. ) ;
#65 = APPLICATION_CONTEXT ( 'automotive_design' ) ;
#66 = STYLED_ITEM ( 'NONE', ( #171 ), #16 ) ;
#67 = EDGE_LOOP ( 'NONE', ( #59, #118, #264, #40, #244 ) ) ;
#68 = PLANE ( 'NONE',  #170 ) ;
#69 = AXIS2_PLACEMENT_3D ( 'NONE', #188, #133, #102 ) ;
#70 = AXIS2_PLACEMENT_3D ( 'NONE', #300, #43, #212 ) ;
#71 = ORIENTED_EDGE ( 'NONE', *, *, #217, .F. ) ;
#72 = PRESENTATION_STYLE_ASSIGNMENT (( #15 ) ) ;
#73 =( CONVERSION_BASED_UNIT ( 'INCH', #279 ) LENGTH_UNIT ( ) NAMED_UNIT ( #254 ) );
#74 = SURFACE_STYLE_FILL_AREA ( #155 ) ;
#75 = UNCERTAINTY_MEASURE_WITH_UNIT (LENGTH_MEASURE( 1.000000000000000082E-05 ), #216, 'distance_accuracy_value', 'NONE');
#76 = STYLED_ITEM ( 'NONE', ( #72 ), #282 ) ;
#77 = COLOUR_RGB ( '',0.7921568627450980005, 0.8196078431372548767, 0.9333333333333333481 ) ;
#78 = DIRECTION ( 'NONE',  ( -0.000000000000000000, -1.000000000000000000, -0.000000000000000000 ) ) ;
#79 =( NAMED_UNIT ( * ) PLANE_ANGLE_UNIT ( ) SI_UNIT ( $, .RADIAN. ) );
#80 = ORIENTED_EDGE ( 'NONE', *, *, #64, .T. ) ;
#81 = FILL_AREA_STYLE ('',( #94 ) ) ;
#82 =( CONVERSION_BASED_UNIT ( 'INCH', #341 ) LENGTH_UNIT ( ) NAMED_UNIT ( #131 ) );
#83 = AXIS2_PLACEMENT_3D ( 'NONE', #362, #162, #19 ) ;
#84 = DIRECTION ( 'NONE',  ( -1.247009578300461253E-16, 1.000000000000000000, -0.000000000000000000 ) ) ;
#85 =( GEOMETRIC_REPRESENTATION_CONTEXT ( 3 ) GLOBAL_UNCERTAINTY_ASSIGNED_CONTEXT ( ( #247 ) ) GLOBAL_UNIT_ASSIGNED_CONTEXT ( ( #293, #178, #195 ) ) REPRESENTATION_CONTEXT ( 'NONE', 'WORKASPACE' ) );
#86 = ORIENTED_EDGE ( 'NONE', *, *, #51, .T. ) ;
#87 = CARTESIAN_POINT ( 'NONE',  ( -1.530808498934191509E-17, 0.000000000000000000, 0.000000000000000000 ) ) ;
#88 = DIRECTION ( 'NONE',  ( -1.247009578300461253E-16, 1.000000000000000000, 0.000000000000000000 ) ) ;
#89 = DIRECTION ( 'NONE',  ( 1.247009578300461253E-16, -1.000000000000000000, 0.000000000000000000 ) ) ;
#90 = CARTESIAN_POINT ( 'NONE',  ( 0.000000000000000000, 0.000000000000000000, 0.000000000000000000 ) ) ;
#91 = ADVANCED_FACE ( 'NONE', ( #317 ), #231, .F. ) ;
#92 = PRODUCT_CONTEXT ( 'NONE', #65, 'mechanical' ) ;
#93 = AXIS2_PLACEMENT_3D ( 'NONE', #356, #210, #147 ) ;
#94 = FILL_AREA_STYLE_COLOUR ( '', #309 ) ;
#95 =( CONVERSION_BASED_UNIT ( 'INCH', #194 ) LENGTH_UNIT ( ) NAMED_UNIT ( #186 ) );
#96 = APPLICATION_PROTOCOL_DEFINITION ( 'draft international standard', 'automotive_design', 1998, #107 ) ;
#97 = SURFACE_STYLE_USAGE ( .BOTH. , #240 ) ;
#98 = AXIS2_PLACEMENT_3D ( 'NONE', #233, #347, #311 ) ;
#99 = ORIENTED_EDGE ( 'NONE', *, *, #191, .T. ) ;
#100 = SURFACE_STYLE_USAGE ( .BOTH. , #129 ) ;
#101 =( NAMED_UNIT ( * ) PLANE_ANGLE_UNIT ( ) SI_UNIT ( $, .RADIAN. ) );
#102 = DIRECTION ( 'NONE',  ( 0.000000000000000000, 0.000000000000000000, -1.000000000000000000 ) ) ;
#103 =( LENGTH_UNIT ( ) NAMED_UNIT ( * ) SI_UNIT ( $, .METRE. ) );
#104 = DIRECTION ( 'NONE',  ( -0.000000000000000000, -1.000000000000000000, -0.000000000000000000 ) ) ;
#105 =( NAMED_UNIT ( * ) SI_UNIT ( $, .STERADIAN. ) SOLID_ANGLE_UNIT ( ) );
#106 = CARTESIAN_POINT ( 'NONE',  ( -1.224646799147353207E-16, 5.000000000000000000, 0.000000000000000000 ) ) ;
#107 = APPLICATION_CONTEXT ( 'automotive_design' ) ;
#108 = CARTESIAN_POINT ( 'NONE',  ( 0.000000000000000000, 0.2500000000000000000, 0.000000000000000000 ) ) ;
#109 =( CONVERSION_BASED_UNIT ( 'INCH', #291 ) LENGTH_UNIT ( ) NAMED_UNIT ( #284 ) );
#110 = AXIS2_PLACEMENT_3D ( 'NONE', #108, #232, #227 ) ;
#111 = EDGE_LOOP ( 'NONE', ( #352, #236, #337, #201, #302 ) ) ;
#112 = CARTESIAN_POINT ( 'NONE',  ( 0.2499999999999997224, 2.500000000000000000, 3.061616997868380553E-17 ) ) ;
#113 = EDGE_CURVE ( 'NONE', #190, #289, #345, .T. ) ;
#114 = AXIS2_PLACEMENT_3D ( 'NONE', #348, #89, #203 ) ;
#115 = CARTESIAN_POINT ( 'NONE',  ( -3.061616997868383018E-17, 0.2500000000000000000, 0.000000000000000000 ) ) ;
#116 = CARTESIAN_POINT ( 'NONE',  ( 0.000000000000000000, 2.500000000000000000, 0.000000000000000000 ) ) ;
#117 = MECHANICAL_DESIGN_GEOMETRIC_PRESENTATION_REPRESENTATION (  '', ( #76 ), #20 ) ;
#118 = ORIENTED_EDGE ( 'NONE', *, *, #177, .T. ) ;
#119 = EDGE_CURVE ( 'NONE', #121, #344, #24, .T. ) ;
#120 =( NAMED_UNIT ( * ) PLANE_ANGLE_UNIT ( ) SI_UNIT ( $, .RADIAN. ) );
#121 = VERTEX_POINT ( 'NONE', #169 ) ;
#122 = LENGTH_MEASURE_WITH_UNIT ( LENGTH_MEASURE( 0.02539999999999999897 ), #249 );
#123 = CIRCLE ( 'NONE', #323, 0.2500000000000000000 ) ;
#124 = PRODUCT_DEFINITION_FORMATION_WITH_SPECIFIED_SOURCE ( 'ANY', '', #324, .NOT_KNOWN. ) ;
#125 = VECTOR ( 'NONE', #104, 39.37007874015748143 ) ;
#126 = ORIENTED_EDGE ( 'NONE', *, *, #177, .F. ) ;
#127 =( CONVERSION_BASED_UNIT ( 'INCH', #332 ) LENGTH_UNIT ( ) NAMED_UNIT ( #17 ) );
#128 = EDGE_LOOP ( 'NONE', ( #263, #333 ) ) ;
#129 = SURFACE_SIDE_STYLE ('',( #74 ) ) ;
#130 = FILL_AREA_STYLE_COLOUR ( '', #357 ) ;
#131 = DIMENSIONAL_EXPONENTS ( 1.000000000000000000, 0.000000000000000000, 0.000000000000000000, 0.000000000000000000, 0.000000000000000000, 0.000000000000000000, 0.000000000000000000 ) ;
#132 = EDGE_LOOP ( 'NONE', ( #187, #86, #243, #166 ) ) ;
#133 = DIRECTION ( 'NONE',  ( -0.000000000000000000, -1.000000000000000000, -0.000000000000000000 ) ) ;
#134 = FACE_OUTER_BOUND ( 'NONE', #111, .T. ) ;
#135 = SPHERICAL_SURFACE ( 'NONE', #175, 0.2500000000000000000 ) ;
#136 = ADVANCED_FACE ( 'NONE', ( #134 ), #350, .T. ) ;
#137 = ORIENTED_EDGE ( 'NONE', *, *, #51, .F. ) ;
#138 = SURFACE_STYLE_USAGE ( .BOTH. , #9 ) ;
#139 = ORIENTED_EDGE ( 'NONE', *, *, #44, .F. ) ;
#140 = CARTESIAN_POINT ( 'NONE',  ( 0.000000000000000000, 0.000000000000000000, 0.000000000000000000 ) ) ;
#141 = CYLINDRICAL_SURFACE ( 'NONE', #152, 0.2499999999999996669 ) ;
#142 =( GEOMETRIC_REPRESENTATION_CONTEXT ( 3 ) GLOBAL_UNCERTAINTY_ASSIGNED_CONTEXT ( ( #366 ) ) GLOBAL_UNIT_ASSIGNED_CONTEXT ( ( #73, #101, #329 ) ) REPRESENTATION_CONTEXT ( 'NONE', 'WORKASPACE' ) );
#143 = CARTESIAN_POINT ( 'NONE',  ( 0.000000000000000000, 0.2500000000000000000, 0.000000000000000000 ) ) ;
#144 = EDGE_CURVE ( 'NONE', #179, #161, #343, .T. ) ;
#145 = ORIENTED_EDGE ( 'NONE', *, *, #119, .F. ) ;
#146 = VERTEX_POINT ( 'NONE', #370 ) ;
#147 = DIRECTION ( 'NONE',  ( -1.000000000000000000, 0.000000000000000000, 0.000000000000000000 ) ) ;
#148 = AXIS2_PLACEMENT_3D ( 'NONE', #7, #295, #320 ) ;
#149 = PRESENTATION_STYLE_ASSIGNMENT (( #97 ) ) ;
#150 = PRODUCT_RELATED_PRODUCT_CATEGORY ( 'part', '', ( #324 ) ) ;
#151 = FACE_OUTER_BOUND ( 'NONE', #30, .T. ) ;
#152 = AXIS2_PLACEMENT_3D ( 'NONE', #294, #35, #53 ) ;
#153 = EDGE_CURVE ( 'NONE', #161, #179, #47, .T. ) ;
#154 = CYLINDRICAL_SURFACE ( 'NONE', #274, 0.2499999999999998612 ) ;
#155 = FILL_AREA_STYLE ('',( #225 ) ) ;
#156 = VECTOR ( 'NONE', #84, 39.37007874015748143 ) ;
#157 = AXIS2_PLACEMENT_3D ( 'NONE', #292, #27, #31 ) ;
#158 = SURFACE_SIDE_STYLE ('',( #336 ) ) ;
#159 =( NAMED_UNIT ( * ) SI_UNIT ( $, .STERADIAN. ) SOLID_ANGLE_UNIT ( ) );
#160 = ADVANCED_FACE ( 'NONE', ( #283 ), #349, .T. ) ;
#161 = VERTEX_POINT ( 'NONE', #174 ) ;
#162 = DIRECTION ( 'NONE',  ( -1.247009578300461253E-16, 1.000000000000000000, -0.000000000000000000 ) ) ;
#163 =( NAMED_UNIT ( * ) PLANE_ANGLE_UNIT ( ) SI_UNIT ( $, .RADIAN. ) );
#164 = DIRECTION ( 'NONE',  ( -1.000000000000000000, 0.000000000000000000, 0.000000000000000000 ) ) ;
#165 = DIMENSIONAL_EXPONENTS ( 1.000000000000000000, 0.000000000000000000, 0.000000000000000000, 0.000000000000000000, 0.000000000000000000, 0.000000000000000000, 0.000000000000000000 ) ;
#166 = ORIENTED_EDGE ( 'NONE', *, *, #46, .T. ) ;
#167 = FILL_AREA_STYLE ('',( #246 ) ) ;
#168 = AXIS2_PLACEMENT_3D ( 'NONE', #222, #78, #10 ) ;
#169 = CARTESIAN_POINT ( 'NONE',  ( -0.2499999999999993061, 2.500000000000000000, 0.000000000000000000 ) ) ;
#170 = AXIS2_PLACEMENT_3D ( 'NONE', #116, #271, #238 ) ;
#171 = PRESENTATION_STYLE_ASSIGNMENT (( #138 ) ) ;
#172 =( LENGTH_UNIT ( ) NAMED_UNIT ( * ) SI_UNIT ( $, .METRE. ) );
#173 = FACE_OUTER_BOUND ( 'NONE', #32, .T. ) ;
#174 = CARTESIAN_POINT ( 'NONE',  ( 0.2499999999999996947, 5.000000000000000000, 3.061616997868380553E-17 ) ) ;
#175 = AXIS2_PLACEMENT_3D ( 'NONE', #206, #253, #372 ) ;
#176 = CARTESIAN_POINT ( 'NONE',  ( 3.061616997868381785E-17, 0.000000000000000000, 0.2499999999999998612 ) ) ;
#177 = EDGE_CURVE ( 'NONE', #18, #146, #262, .T. ) ;
#178 =( NAMED_UNIT ( * ) PLANE_ANGLE_UNIT ( ) SI_UNIT ( $, .RADIAN. ) );
#179 = VERTEX_POINT ( 'NONE', #298 ) ;
#180 = MECHANICAL_DESIGN_GEOMETRIC_PRESENTATION_REPRESENTATION (  '', ( #66 ), #85 ) ;
#181 = ADVANCED_FACE ( 'NONE', ( #151 ), #68, .T. ) ;
#182 =( GEOMETRIC_REPRESENTATION_CONTEXT ( 3 ) GLOBAL_UNCERTAINTY_ASSIGNED_CONTEXT ( ( #25 ) ) GLOBAL_UNIT_ASSIGNED_CONTEXT ( ( #109, #29, #105 ) ) REPRESENTATION_CONTEXT ( 'NONE', 'WORKASPACE' ) );
#183 = LINE ( 'NONE', #251, #297 ) ;
#184 = DIMENSIONAL_EXPONENTS ( 1.000000000000000000, 0.000000000000000000, 0.000000000000000000, 0.000000000000000000, 0.000000000000000000, 0.000000000000000000, 0.000000000000000000 ) ;
#185 = SHAPE_DEFINITION_REPRESENTATION ( #267, #365 ) ;
#186 = DIMENSIONAL_EXPONENTS ( 1.000000000000000000, 0.000000000000000000, 0.000000000000000000, 0.000000000000000000, 0.000000000000000000, 0.000000000000000000, 0.000000000000000000 ) ;
#187 = ORIENTED_EDGE ( 'NONE', *, *, #235, .T. ) ;
#188 = CARTESIAN_POINT ( 'NONE',  ( 0.000000000000000000, 2.500000000000000000, 0.000000000000000000 ) ) ;
#189 = UNCERTAINTY_MEASURE_WITH_UNIT (LENGTH_MEASURE( 1.000000000000000082E-05 ), #95, 'distance_accuracy_value', 'NONE');
#190 = VERTEX_POINT ( 'NONE', #353 ) ;
#191 = EDGE_CURVE ( 'NONE', #344, #121, #219, .T. ) ;
#192 = AXIS2_PLACEMENT_3D ( 'NONE', #115, #237, #359 ) ;
#193 = STYLED_ITEM ( 'NONE', ( #1 ), #136 ) ;
#194 = LENGTH_MEASURE_WITH_UNIT ( LENGTH_MEASURE( 0.02539999999999999897 ), #272 );
#195 =( NAMED_UNIT ( * ) SI_UNIT ( $, .STERADIAN. ) SOLID_ANGLE_UNIT ( ) );
#196 = SURFACE_STYLE_FILL_AREA ( #81 ) ;
#197 = DIRECTION ( 'NONE',  ( -0.000000000000000000, -1.000000000000000000, -0.000000000000000000 ) ) ;
#198 = STYLED_ITEM ( 'NONE', ( #223 ), #11 ) ;
#199 = DIRECTION ( 'NONE',  ( -1.000000000000000000, -1.247009578300461253E-16, 0.000000000000000000 ) ) ;
#200 = ORIENTED_EDGE ( 'NONE', *, *, #153, .F. ) ;
#201 = ORIENTED_EDGE ( 'NONE', *, *, #64, .F. ) ;
#202 = SURFACE_STYLE_FILL_AREA ( #314 ) ;
#203 = DIRECTION ( 'NONE',  ( 1.000000000000000000, 1.247009578300461253E-16, 0.000000000000000000 ) ) ;
#204 = DIRECTION ( 'NONE',  ( -1.247009578300461253E-16, 1.000000000000000000, -0.000000000000000000 ) ) ;
#205 = CARTESIAN_POINT ( 'NONE',  ( 0.000000000000000000, 0.000000000000000000, -0.2499999999999998612 ) ) ;
#206 = CARTESIAN_POINT ( 'NONE',  ( -3.061616997868383018E-17, 0.2500000000000000000, 0.000000000000000000 ) ) ;
#207 = ORIENTED_EDGE ( 'NONE', *, *, #191, .F. ) ;
#208 = EDGE_CURVE ( 'NONE', #57, #62, #54, .T. ) ;
#209 =( GEOMETRIC_REPRESENTATION_CONTEXT ( 3 ) GLOBAL_UNCERTAINTY_ASSIGNED_CONTEXT ( ( #305 ) ) GLOBAL_UNIT_ASSIGNED_CONTEXT ( ( #82, #79, #255 ) ) REPRESENTATION_CONTEXT ( 'NONE', 'WORKASPACE' ) );
#210 = DIRECTION ( 'NONE',  ( -1.247009578300461253E-16, 1.000000000000000000, -0.000000000000000000 ) ) ;
#211 = STYLED_ITEM ( 'NONE', ( #149 ), #181 ) ;
#212 = DIRECTION ( 'NONE',  ( 0.000000000000000000, 0.000000000000000000, -1.000000000000000000 ) ) ;
#213 = SURFACE_SIDE_STYLE ('',( #196 ) ) ;
#214 = CARTESIAN_POINT ( 'NONE',  ( 0.000000000000000000, 0.000000000000000000, 0.000000000000000000 ) ) ;
#215 = ORIENTED_EDGE ( 'NONE', *, *, #119, .T. ) ;
#216 =( CONVERSION_BASED_UNIT ( 'INCH', #325 ) LENGTH_UNIT ( ) NAMED_UNIT ( #52 ) );
#217 = EDGE_CURVE ( 'NONE', #344, #161, #183, .T. ) ;
#218 = FILL_AREA_STYLE ('',( #130 ) ) ;
#219 = CIRCLE ( 'NONE', #93, 0.2499999999999995282 ) ;
#220 = PRODUCT_DEFINITION ( 'UNKNOWN', '', #124, #363 ) ;
#221 = SURFACE_STYLE_USAGE ( .BOTH. , #158 ) ;
#222 = CARTESIAN_POINT ( 'NONE',  ( 0.000000000000000000, 0.2500000000000000000, 0.000000000000000000 ) ) ;
#223 = PRESENTATION_STYLE_ASSIGNMENT (( #221 ) ) ;
#224 = ORIENTED_EDGE ( 'NONE', *, *, #144, .F. ) ;
#225 = FILL_AREA_STYLE_COLOUR ( '', #77 ) ;
#226 = ADVANCED_FACE ( 'NONE', ( #23 ), #334, .T. ) ;
#227 = DIRECTION ( 'NONE',  ( 0.000000000000000000, 0.000000000000000000, -1.000000000000000000 ) ) ;
#228 = COLOUR_RGB ( '',1.000000000000000000, 0.000000000000000000, 0.000000000000000000 ) ;
#229 = CIRCLE ( 'NONE', #168, 0.2500000000000000000 ) ;
#230 = DIRECTION ( 'NONE',  ( 1.000000000000000000, 0.000000000000000000, -1.224646799147353207E-16 ) ) ;
#231 = PLANE ( 'NONE',  #114 ) ;
#232 = DIRECTION ( 'NONE',  ( -0.000000000000000000, -1.000000000000000000, -0.000000000000000000 ) ) ;
#233 = CARTESIAN_POINT ( 'NONE',  ( 1.892877146603800049E-16, 2.500000000000000000, 0.000000000000000000 ) ) ;
#234 = STYLED_ITEM ( 'NONE', ( #360 ), #160 ) ;
#235 = EDGE_CURVE ( 'NONE', #326, #190, #229, .T. ) ;
#236 = ORIENTED_EDGE ( 'NONE', *, *, #340, .T. ) ;
#237 = DIRECTION ( 'NONE',  ( 0.000000000000000000, 0.000000000000000000, 1.000000000000000000 ) ) ;
#238 = DIRECTION ( 'NONE',  ( 0.000000000000000000, -0.000000000000000000, 1.000000000000000000 ) ) ;
#239 = PRESENTATION_LAYER_ASSIGNMENT (  '', '', ( #66 ) ) ;
#240 = SURFACE_SIDE_STYLE ('',( #36 ) ) ;
#241 = PRESENTATION_LAYER_ASSIGNMENT (  '', '', ( #76 ) ) ;
#242 = MECHANICAL_DESIGN_GEOMETRIC_PRESENTATION_REPRESENTATION (  '', ( #198 ), #142 ) ;
#243 = ORIENTED_EDGE ( 'NONE', *, *, #208, .F. ) ;
#244 = ORIENTED_EDGE ( 'NONE', *, *, #235, .F. ) ;
#245 =( LENGTH_UNIT ( ) NAMED_UNIT ( * ) SI_UNIT ( $, .METRE. ) );
#246 = FILL_AREA_STYLE_COLOUR ( '', #5 ) ;
#247 = UNCERTAINTY_MEASURE_WITH_UNIT (LENGTH_MEASURE( 1.000000000000000082E-05 ), #293, 'distance_accuracy_value', 'NONE');
#248 = EDGE_LOOP ( 'NONE', ( #71, #99, #304, #200 ) ) ;
#249 =( LENGTH_UNIT ( ) NAMED_UNIT ( * ) SI_UNIT ( $, .METRE. ) );
#250 = FILL_AREA_STYLE_COLOUR ( '', #228 ) ;
#251 = CARTESIAN_POINT ( 'NONE',  ( 0.2499999999999995282, 5.000000000000000000, 3.061616997868378704E-17 ) ) ;
#252 = DIRECTION ( 'NONE',  ( -0.000000000000000000, -1.000000000000000000, -0.000000000000000000 ) ) ;
#253 = DIRECTION ( 'NONE',  ( 0.000000000000000000, 0.000000000000000000, 1.000000000000000000 ) ) ;
#254 = DIMENSIONAL_EXPONENTS ( 1.000000000000000000, 0.000000000000000000, 0.000000000000000000, 0.000000000000000000, 0.000000000000000000, 0.000000000000000000, 0.000000000000000000 ) ;
#255 =( NAMED_UNIT ( * ) SI_UNIT ( $, .STERADIAN. ) SOLID_ANGLE_UNIT ( ) );
#256 = CARTESIAN_POINT ( 'NONE',  ( -0.2499999999999998057, 5.000000000000000000, 0.000000000000000000 ) ) ;
#257 = AXIS2_PLACEMENT_3D ( 'NONE', #106, #204, #164 ) ;
#258 = EDGE_CURVE ( 'NONE', #146, #18, #335, .T. ) ;
#259 =( GEOMETRIC_REPRESENTATION_CONTEXT ( 3 ) GLOBAL_UNCERTAINTY_ASSIGNED_CONTEXT ( ( #75 ) ) GLOBAL_UNIT_ASSIGNED_CONTEXT ( ( #216, #120, #265 ) ) REPRESENTATION_CONTEXT ( 'NONE', 'WORKASPACE' ) );
#260 = LINE ( 'NONE', #256, #156 ) ;
#261 = CARTESIAN_POINT ( 'NONE',  ( 1.892877146603800049E-16, 2.500000000000000000, 0.000000000000000000 ) ) ;
#262 = CIRCLE ( 'NONE', #70, 0.2499999999999996947 ) ;
#263 = ORIENTED_EDGE ( 'NONE', *, *, #144, .T. ) ;
#264 = ORIENTED_EDGE ( 'NONE', *, *, #26, .T. ) ;
#265 =( NAMED_UNIT ( * ) SI_UNIT ( $, .STERADIAN. ) SOLID_ANGLE_UNIT ( ) );
#266 = DIRECTION ( 'NONE',  ( 0.000000000000000000, 0.000000000000000000, -1.000000000000000000 ) ) ;
#267 = PRODUCT_DEFINITION_SHAPE ( 'NONE', 'NONE',  #220 ) ;
#268 =( LENGTH_UNIT ( ) NAMED_UNIT ( * ) SI_UNIT ( $, .METRE. ) );
#269 = UNCERTAINTY_MEASURE_WITH_UNIT (LENGTH_MEASURE( 1.000000000000000082E-05 ), #307, 'distance_accuracy_value', 'NONE');
#270 = MANIFOLD_SOLID_BREP ( 'Revolve - Cutting Edge', #285 ) ;
#271 = DIRECTION ( 'NONE',  ( 0.000000000000000000, 1.000000000000000000, 0.000000000000000000 ) ) ;
#272 =( LENGTH_UNIT ( ) NAMED_UNIT ( * ) SI_UNIT ( $, .METRE. ) );
#273 = FILL_AREA_STYLE ('',( #250 ) ) ;
#274 = AXIS2_PLACEMENT_3D ( 'NONE', #140, #252, #367 ) ;
#275 = FACE_OUTER_BOUND ( 'NONE', #67, .T. ) ;
#276 = SURFACE_SIDE_STYLE ('',( #364 ) ) ;
#277 = PRESENTATION_LAYER_ASSIGNMENT (  '', '', ( #234 ) ) ;
#278 =( NAMED_UNIT ( * ) PLANE_ANGLE_UNIT ( ) SI_UNIT ( $, .RADIAN. ) );
#279 = LENGTH_MEASURE_WITH_UNIT ( LENGTH_MEASURE( 0.02539999999999999897 ), #245 );
#280 =( NAMED_UNIT ( * ) SI_UNIT ( $, .STERADIAN. ) SOLID_ANGLE_UNIT ( ) );
#281 =( NAMED_UNIT ( * ) SI_UNIT ( $, .STERADIAN. ) SOLID_ANGLE_UNIT ( ) );
#282 = ADVANCED_FACE ( 'NONE', ( #50 ), #135, .T. ) ;
#283 = FACE_OUTER_BOUND ( 'NONE', #42, .T. ) ;
#284 = DIMENSIONAL_EXPONENTS ( 1.000000000000000000, 0.000000000000000000, 0.000000000000000000, 0.000000000000000000, 0.000000000000000000, 0.000000000000000000, 0.000000000000000000 ) ;
#285 = CLOSED_SHELL ( 'NONE', ( #282, #136, #181, #16, #160 ) ) ;
#286 = MECHANICAL_DESIGN_GEOMETRIC_PRESENTATION_REPRESENTATION (  '', ( #211 ), #259 ) ;
#287 = FILL_AREA_STYLE_COLOUR ( '', #296 ) ;
#288 = LENGTH_MEASURE_WITH_UNIT ( LENGTH_MEASURE( 0.02539999999999999897 ), #34 );
#289 = VERTEX_POINT ( 'NONE', #330 ) ;
#290 = DIRECTION ( 'NONE',  ( 0.000000000000000000, 0.000000000000000000, -1.000000000000000000 ) ) ;
#291 = LENGTH_MEASURE_WITH_UNIT ( LENGTH_MEASURE( 0.02539999999999999897 ), #368 );
#292 = CARTESIAN_POINT ( 'NONE',  ( -1.224646799147353207E-16, 5.000000000000000000, 0.000000000000000000 ) ) ;
#293 =( CONVERSION_BASED_UNIT ( 'INCH', #288 ) LENGTH_UNIT ( ) NAMED_UNIT ( #184 ) );
#294 = CARTESIAN_POINT ( 'NONE',  ( -1.224646799147353207E-16, 5.000000000000000000, 0.000000000000000000 ) ) ;
#295 = DIRECTION ( 'NONE',  ( 0.000000000000000000, 0.000000000000000000, -1.000000000000000000 ) ) ;
#296 = COLOUR_RGB ( '',1.000000000000000000, 0.000000000000000000, 0.000000000000000000 ) ;
#297 = VECTOR ( 'NONE', #45, 39.37007874015748143 ) ;
#298 = CARTESIAN_POINT ( 'NONE',  ( -0.2499999999999999722, 5.000000000000000000, 0.000000000000000000 ) ) ;
#299 = APPLICATION_PROTOCOL_DEFINITION ( 'draft international standard', 'automotive_design', 1998, #65 ) ;
#300 = CARTESIAN_POINT ( 'NONE',  ( 0.000000000000000000, 2.500000000000000000, 0.000000000000000000 ) ) ;
#301 = DIRECTION ( 'NONE',  ( 0.000000000000000000, 0.000000000000000000, 1.000000000000000000 ) ) ;
#302 = ORIENTED_EDGE ( 'NONE', *, *, #26, .F. ) ;
#303 = ADVANCED_FACE ( 'NONE', ( #318 ), #61, .F. ) ;
#304 = ORIENTED_EDGE ( 'NONE', *, *, #44, .T. ) ;
#305 = UNCERTAINTY_MEASURE_WITH_UNIT (LENGTH_MEASURE( 1.000000000000000082E-05 ), #82, 'distance_accuracy_value', 'NONE');
#306 = ORIENTED_EDGE ( 'NONE', *, *, #258, .F. ) ;
#307 =( CONVERSION_BASED_UNIT ( 'INCH', #122 ) LENGTH_UNIT ( ) NAMED_UNIT ( #165 ) );
#308 =( GEOMETRIC_REPRESENTATION_CONTEXT ( 3 ) GLOBAL_UNCERTAINTY_ASSIGNED_CONTEXT ( ( #189 ) ) GLOBAL_UNIT_ASSIGNED_CONTEXT ( ( #95, #163, #281 ) ) REPRESENTATION_CONTEXT ( 'NONE', 'WORKASPACE' ) );
#309 = COLOUR_RGB ( '',1.000000000000000000, 0.000000000000000000, 0.000000000000000000 ) ;
#310 = ORIENTED_EDGE ( 'NONE', *, *, #208, .T. ) ;
#311 = DIRECTION ( 'NONE',  ( -1.000000000000000000, 0.000000000000000000, 0.000000000000000000 ) ) ;
#312 = SURFACE_STYLE_USAGE ( .BOTH. , #213 ) ;
#313 = CARTESIAN_POINT ( 'NONE',  ( 3.061616997868379936E-17, 2.500000000000000000, 0.2499999999999996947 ) ) ;
#314 = FILL_AREA_STYLE ('',( #287 ) ) ;
#315 = LINE ( 'NONE', #176, #8 ) ;
#316 = AXIS2_PLACEMENT_3D ( 'NONE', #261, #88, #199 ) ;
#317 = FACE_OUTER_BOUND ( 'NONE', #128, .T. ) ;
#318 = FACE_OUTER_BOUND ( 'NONE', #21, .T. ) ;
#319 = ORIENTED_EDGE ( 'NONE', *, *, #217, .T. ) ;
#320 = DIRECTION ( 'NONE',  ( -1.000000000000000000, 0.000000000000000000, 0.000000000000000000 ) ) ;
#321 = PRESENTATION_LAYER_ASSIGNMENT (  '', '', ( #193 ) ) ;
#322 =( GEOMETRIC_REPRESENTATION_CONTEXT ( 3 ) GLOBAL_UNCERTAINTY_ASSIGNED_CONTEXT ( ( #269 ) ) GLOBAL_UNIT_ASSIGNED_CONTEXT ( ( #307, #49, #159 ) ) REPRESENTATION_CONTEXT ( 'NONE', 'WORKASPACE' ) );
#323 = AXIS2_PLACEMENT_3D ( 'NONE', #55, #28, #230 ) ;
#324 = PRODUCT ( '82466', '82466', '', ( #92 ) ) ;
#325 = LENGTH_MEASURE_WITH_UNIT ( LENGTH_MEASURE( 0.02539999999999999897 ), #268 );
#326 = VERTEX_POINT ( 'NONE', #56 ) ;
#327 = FILL_AREA_STYLE_COLOUR ( '', #358 ) ;
#328 = MECHANICAL_DESIGN_GEOMETRIC_PRESENTATION_REPRESENTATION (  '', ( #33 ), #322 ) ;
#329 =( NAMED_UNIT ( * ) SI_UNIT ( $, .STERADIAN. ) SOLID_ANGLE_UNIT ( ) );
#330 = CARTESIAN_POINT ( 'NONE',  ( 0.000000000000000000, 0.2500000000000000000, -0.2500000000000000000 ) ) ;
#331 = ORIENTED_EDGE ( 'NONE', *, *, #113, .T. ) ;
#332 = LENGTH_MEASURE_WITH_UNIT ( LENGTH_MEASURE( 0.02539999999999999897 ), #103 );
#333 = ORIENTED_EDGE ( 'NONE', *, *, #153, .T. ) ;
#334 = CYLINDRICAL_SURFACE ( 'NONE', #83, 0.2499999999999996669 ) ;
#335 = CIRCLE ( 'NONE', #69, 0.2499999999999996947 ) ;
#336 = SURFACE_STYLE_FILL_AREA ( #218 ) ;
#337 = ORIENTED_EDGE ( 'NONE', *, *, #46, .F. ) ;
#338 = PRESENTATION_STYLE_ASSIGNMENT (( #100 ) ) ;
#339 = SURFACE_STYLE_USAGE ( .BOTH. , #4 ) ;
#340 = EDGE_CURVE ( 'NONE', #18, #326, #315, .T. ) ;
#341 = LENGTH_MEASURE_WITH_UNIT ( LENGTH_MEASURE( 0.02539999999999999897 ), #172 );
#342 = LINE ( 'NONE', #205, #125 ) ;
#343 = CIRCLE ( 'NONE', #157, 0.2499999999999998335 ) ;
#344 = VERTEX_POINT ( 'NONE', #112 ) ;
#345 = CIRCLE ( 'NONE', #6, 0.2500000000000000000 ) ;
#346 = CARTESIAN_POINT ( 'NONE',  ( 0.2500000000000000000, 0.2500000000000000000, 0.000000000000000000 ) ) ;
#347 = DIRECTION ( 'NONE',  ( -1.247009578300461253E-16, 1.000000000000000000, -0.000000000000000000 ) ) ;
#348 = CARTESIAN_POINT ( 'NONE',  ( 0.2499999999999996947, 5.000000000000000000, 0.000000000000000000 ) ) ;
#349 = SPHERICAL_SURFACE ( 'NONE', #192, 0.2500000000000000000 ) ;
#350 = CYLINDRICAL_SURFACE ( 'NONE', #14, 0.2499999999999998612 ) ;
#351 = DIRECTION ( 'NONE',  ( -0.000000000000000000, -1.000000000000000000, -0.000000000000000000 ) ) ;
#352 = ORIENTED_EDGE ( 'NONE', *, *, #258, .T. ) ;
#353 = CARTESIAN_POINT ( 'NONE',  ( -0.2500000000000000000, 0.2500000000000000000, 3.061616997868382402E-17 ) ) ;
#354 = ADVANCED_FACE ( 'NONE', ( #173 ), #141, .T. ) ;
#355 = DIRECTION ( 'NONE',  ( 1.000000000000000000, 0.000000000000000000, 0.000000000000000000 ) ) ;
#356 = CARTESIAN_POINT ( 'NONE',  ( 1.892877146603800049E-16, 2.500000000000000000, 0.000000000000000000 ) ) ;
#357 = COLOUR_RGB ( '',0.7921568627450980005, 0.8196078431372548767, 0.9333333333333333481 ) ;
#358 = COLOUR_RGB ( '',1.000000000000000000, 0.000000000000000000, 0.000000000000000000 ) ;
#359 = DIRECTION ( 'NONE',  ( 1.000000000000000000, 0.000000000000000000, 0.000000000000000000 ) ) ;
#360 = PRESENTATION_STYLE_ASSIGNMENT (( #312 ) ) ;
#361 = CIRCLE ( 'NONE', #39, 0.2500000000000000000 ) ;
#362 = CARTESIAN_POINT ( 'NONE',  ( -1.224646799147353207E-16, 5.000000000000000000, 0.000000000000000000 ) ) ;
#363 = PRODUCT_DEFINITION_CONTEXT ( 'detailed design', #107, 'design' ) ;
#364 = SURFACE_STYLE_FILL_AREA ( #167 ) ;
#365 = ADVANCED_BREP_SHAPE_REPRESENTATION ( '82466', ( #270, #11, #37 ), #182 ) ;
#366 = UNCERTAINTY_MEASURE_WITH_UNIT (LENGTH_MEASURE( 1.000000000000000082E-05 ), #73, 'distance_accuracy_value', 'NONE');
#367 = DIRECTION ( 'NONE',  ( 0.000000000000000000, 0.000000000000000000, -1.000000000000000000 ) ) ;
#368 =( LENGTH_UNIT ( ) NAMED_UNIT ( * ) SI_UNIT ( $, .METRE. ) );
#369 = UNCERTAINTY_MEASURE_WITH_UNIT (LENGTH_MEASURE( 1.000000000000000082E-05 ), #127, 'distance_accuracy_value', 'NONE');
#370 = CARTESIAN_POINT ( 'NONE',  ( 0.000000000000000000, 2.500000000000000000, -0.2499999999999996947 ) ) ;
#371 = MECHANICAL_DESIGN_GEOMETRIC_PRESENTATION_REPRESENTATION (  '', ( #193 ), #209 ) ;
#372 = DIRECTION ( 'NONE',  ( 1.000000000000000000, 0.000000000000000000, 0.000000000000000000 ) ) ;
#373 = MECHANICAL_DESIGN_GEOMETRIC_PRESENTATION_REPRESENTATION (  '', ( #234 ), #308 ) ;
ENDSEC;
END-ISO-10303-21;
