ISO-10303-21;
HEADER;
FILE_DESCRIPTION (( 'STEP AP214' ),
    '1' );
FILE_NAME ('81639.STEP',
    '2023-06-23T02:13:46',
    ( '' ),
    ( '' ),
    'SwSTEP 2.0',
    'SolidWorks 2023',
    '' );
FILE_SCHEMA (( 'AUTOMOTIVE_DESIGN' ));
ENDSEC;

DATA;
#1 = SURFACE_SIDE_STYLE ('',( #41 ) ) ;
#2 = ORIENTED_EDGE ( 'NONE', *, *, #71, .T. ) ;
#3 = APPLICATION_PROTOCOL_DEFINITION ( 'draft international standard', 'automotive_design', 1998, #285 ) ;
#4 = EDGE_CURVE ( 'NONE', #139, #256, #239, .T. ) ;
#5 = CARTESIAN_POINT ( 'NONE',  ( 0.000000000000000000, 0.4374999999999998890, 0.000000000000000000 ) ) ;
#6 = FACE_OUTER_BOUND ( 'NONE', #305, .T. ) ;
#7 = MECHANICAL_DESIGN_GEOMETRIC_PRESENTATION_REPRESENTATION (  '', ( #156 ), #298 ) ;
#8 = DIRECTION ( 'NONE',  ( -0.000000000000000000, -1.000000000000000000, -0.000000000000000000 ) ) ;
#9 = EDGE_LOOP ( 'NONE', ( #145, #101 ) ) ;
#10 = EDGE_LOOP ( 'NONE', ( #28, #218 ) ) ;
#11 = DIRECTION ( 'NONE',  ( -0.000000000000000000, -1.000000000000000000, -0.000000000000000000 ) ) ;
#12 = UNCERTAINTY_MEASURE_WITH_UNIT (LENGTH_MEASURE( 1.000000000000000082E-05 ), #187, 'distance_accuracy_value', 'NONE');
#13 = FILL_AREA_STYLE_COLOUR ( '', #127 ) ;
#14 = AXIS2_PLACEMENT_3D ( 'NONE', #57, #210, #64 ) ;
#15 = CARTESIAN_POINT ( 'NONE',  ( 0.000000000000000000, 0.000000000000000000, 0.000000000000000000 ) ) ;
#16 = DIMENSIONAL_EXPONENTS ( 1.000000000000000000, 0.000000000000000000, 0.000000000000000000, 0.000000000000000000, 0.000000000000000000, 0.000000000000000000, 0.000000000000000000 ) ;
#17 = ADVANCED_FACE ( 'NONE', ( #6 ), #295, .T. ) ;
#18 = SURFACE_STYLE_USAGE ( .BOTH. , #1 ) ;
#19 = ORIENTED_EDGE ( 'NONE', *, *, #207, .T. ) ;
#20 = CYLINDRICAL_SURFACE ( 'NONE', #292, 0.09374999999999995837 ) ;
#21 = EDGE_LOOP ( 'NONE', ( #215, #282 ) ) ;
#22 = VECTOR ( 'NONE', #23, 39.37007874015748143 ) ;
#23 = DIRECTION ( 'NONE',  ( -0.000000000000000000, -1.000000000000000000, -0.000000000000000000 ) ) ;
#24 = DIRECTION ( 'NONE',  ( -0.000000000000000000, -1.000000000000000000, -0.000000000000000000 ) ) ;
#25 = ORIENTED_EDGE ( 'NONE', *, *, #247, .T. ) ;
#26 = VECTOR ( 'NONE', #131, 39.37007874015748143 ) ;
#27 = DIRECTION ( 'NONE',  ( 3.918869757271530214E-17, 1.000000000000000000, -0.000000000000000000 ) ) ;
#28 = ORIENTED_EDGE ( 'NONE', *, *, #53, .F. ) ;
#29 = CARTESIAN_POINT ( 'NONE',  ( 7.198846956776915697E-35, 0.4375000000000000000, 0.000000000000000000 ) ) ;
#30 = CARTESIAN_POINT ( 'NONE',  ( 1.148106374200643555E-17, 0.000000000000000000, 0.09375000000000001388 ) ) ;
#31 = FILL_AREA_STYLE ('',( #13 ) ) ;
#32 = ADVANCED_FACE ( 'NONE', ( #108 ), #265, .F. ) ;
#33 =( NAMED_UNIT ( * ) PLANE_ANGLE_UNIT ( ) SI_UNIT ( $, .RADIAN. ) );
#34 = SURFACE_SIDE_STYLE ('',( #250 ) ) ;
#35 = SURFACE_STYLE_FILL_AREA ( #86 ) ;
#36 = AXIS2_PLACEMENT_3D ( 'NONE', #39, #257, #167 ) ;
#37 = CARTESIAN_POINT ( 'NONE',  ( 0.000000000000000000, 0.4375000000000000000, 0.000000000000000000 ) ) ;
#38 = EDGE_CURVE ( 'NONE', #121, #69, #248, .T. ) ;
#39 = CARTESIAN_POINT ( 'NONE',  ( 6.123233995736766036E-17, 2.000000000000000000, 0.000000000000000000 ) ) ;
#40 = APPLICATION_CONTEXT ( 'automotive_design' ) ;
#41 = SURFACE_STYLE_FILL_AREA ( #118 ) ;
#42 = AXIS2_PLACEMENT_3D ( 'NONE', #178, #27, #155 ) ;
#43 = ORIENTED_EDGE ( 'NONE', *, *, #144, .T. ) ;
#44 = CYLINDRICAL_SURFACE ( 'NONE', #76, 0.09374999999999998612 ) ;
#45 = ORIENTED_EDGE ( 'NONE', *, *, #106, .F. ) ;
#46 = VERTEX_POINT ( 'NONE', #30 ) ;
#47 =( LENGTH_UNIT ( ) NAMED_UNIT ( * ) SI_UNIT ( $, .METRE. ) );
#48 = DIRECTION ( 'NONE',  ( -1.000000000000000000, 3.918869757271530214E-17, 0.000000000000000000 ) ) ;
#49 = PRESENTATION_LAYER_ASSIGNMENT (  '', '', ( #189 ) ) ;
#50 = PRESENTATION_STYLE_ASSIGNMENT (( #201 ) ) ;
#51 = LENGTH_MEASURE_WITH_UNIT ( LENGTH_MEASURE( 0.02539999999999999897 ), #269 );
#52 =( NAMED_UNIT ( * ) PLANE_ANGLE_UNIT ( ) SI_UNIT ( $, .RADIAN. ) );
#53 = EDGE_CURVE ( 'NONE', #261, #308, #284, .T. ) ;
#54 = ORIENTED_EDGE ( 'NONE', *, *, #144, .F. ) ;
#55 = STYLED_ITEM ( 'NONE', ( #237 ), #191 ) ;
#56 = VERTEX_POINT ( 'NONE', #289 ) ;
#57 = CARTESIAN_POINT ( 'NONE',  ( 0.000000000000000000, 0.000000000000000000, 0.000000000000000000 ) ) ;
#58 =( GEOMETRIC_REPRESENTATION_CONTEXT ( 3 ) GLOBAL_UNCERTAINTY_ASSIGNED_CONTEXT ( ( #12 ) ) GLOBAL_UNIT_ASSIGNED_CONTEXT ( ( #187, #66, #192 ) ) REPRESENTATION_CONTEXT ( 'NONE', 'WORKASPACE' ) );
#59 =( NAMED_UNIT ( * ) SI_UNIT ( $, .STERADIAN. ) SOLID_ANGLE_UNIT ( ) );
#60 = CIRCLE ( 'NONE', #42, 0.09374999999999998612 ) ;
#61 = FACE_OUTER_BOUND ( 'NONE', #242, .T. ) ;
#62 = UNCERTAINTY_MEASURE_WITH_UNIT (LENGTH_MEASURE( 1.000000000000000082E-05 ), #281, 'distance_accuracy_value', 'NONE');
#63 = PRODUCT_RELATED_PRODUCT_CATEGORY ( 'part', '', ( #110 ) ) ;
#64 = DIRECTION ( 'NONE',  ( 0.000000000000000000, 0.000000000000000000, -1.000000000000000000 ) ) ;
#65 = UNCERTAINTY_MEASURE_WITH_UNIT (LENGTH_MEASURE( 1.000000000000000082E-05 ), #203, 'distance_accuracy_value', 'NONE');
#66 =( NAMED_UNIT ( * ) PLANE_ANGLE_UNIT ( ) SI_UNIT ( $, .RADIAN. ) );
#67 = PRESENTATION_LAYER_ASSIGNMENT (  '', '', ( #200 ) ) ;
#68 = SURFACE_STYLE_USAGE ( .BOTH. , #279 ) ;
#69 = VERTEX_POINT ( 'NONE', #181 ) ;
#70 = PRODUCT_CONTEXT ( 'NONE', #40, 'mechanical' ) ;
#71 = EDGE_CURVE ( 'NONE', #308, #261, #60, .T. ) ;
#72 = ORIENTED_EDGE ( 'NONE', *, *, #222, .F. ) ;
#73 =( CONVERSION_BASED_UNIT ( 'INCH', #198 ) LENGTH_UNIT ( ) NAMED_UNIT ( #228 ) );
#74 = ORIENTED_EDGE ( 'NONE', *, *, #247, .F. ) ;
#75 = AXIS2_PLACEMENT_3D ( 'NONE', #176, #219, #290 ) ;
#76 = AXIS2_PLACEMENT_3D ( 'NONE', #212, #213, #255 ) ;
#77 = ORIENTED_EDGE ( 'NONE', *, *, #202, .F. ) ;
#78 = ADVANCED_FACE ( 'NONE', ( #158 ), #126, .T. ) ;
#79 = LENGTH_MEASURE_WITH_UNIT ( LENGTH_MEASURE( 0.02539999999999999897 ), #47 );
#80 =( NAMED_UNIT ( * ) PLANE_ANGLE_UNIT ( ) SI_UNIT ( $, .RADIAN. ) );
#81 = FILL_AREA_STYLE ('',( #245 ) ) ;
#82 = DIRECTION ( 'NONE',  ( 3.918869757271530214E-17, 1.000000000000000000, -0.000000000000000000 ) ) ;
#83 = VECTOR ( 'NONE', #233, 39.37007874015748143 ) ;
#84 =( GEOMETRIC_REPRESENTATION_CONTEXT ( 3 ) GLOBAL_UNCERTAINTY_ASSIGNED_CONTEXT ( ( #65 ) ) GLOBAL_UNIT_ASSIGNED_CONTEXT ( ( #203, #128, #148 ) ) REPRESENTATION_CONTEXT ( 'NONE', 'WORKASPACE' ) );
#85 = DIRECTION ( 'NONE',  ( 3.918869757271530214E-17, 1.000000000000000000, -0.000000000000000000 ) ) ;
#86 = FILL_AREA_STYLE ('',( #89 ) ) ;
#87 = AXIS2_PLACEMENT_3D ( 'NONE', #37, #163, #230 ) ;
#88 = DIRECTION ( 'NONE',  ( 0.000000000000000000, 0.000000000000000000, -1.000000000000000000 ) ) ;
#89 = FILL_AREA_STYLE_COLOUR ( '', #132 ) ;
#90 = CLOSED_SHELL ( 'NONE', ( #191, #92, #168, #78 ) ) ;
#91 = DIRECTION ( 'NONE',  ( 0.000000000000000000, 0.000000000000000000, -1.000000000000000000 ) ) ;
#92 = ADVANCED_FACE ( 'NONE', ( #249 ), #111, .T. ) ;
#93 = PLANE ( 'NONE',  #166 ) ;
#94 = ADVANCED_BREP_SHAPE_REPRESENTATION ( '81639', ( #301, #296, #294 ), #84 ) ;
#95 = FACE_OUTER_BOUND ( 'NONE', #9, .T. ) ;
#96 = ORIENTED_EDGE ( 'NONE', *, *, #293, .T. ) ;
#97 = FILL_AREA_STYLE_COLOUR ( '', #149 ) ;
#98 = AXIS2_PLACEMENT_3D ( 'NONE', #5, #204, #103 ) ;
#99 = PRESENTATION_LAYER_ASSIGNMENT (  '', '', ( #253 ) ) ;
#100 = DIRECTION ( 'NONE',  ( 1.000000000000000000, 0.000000000000000000, 0.000000000000000000 ) ) ;
#101 = ORIENTED_EDGE ( 'NONE', *, *, #202, .T. ) ;
#102 =( LENGTH_UNIT ( ) NAMED_UNIT ( * ) SI_UNIT ( $, .METRE. ) );
#103 = DIRECTION ( 'NONE',  ( -1.000000000000000000, 0.000000000000000000, 0.000000000000000000 ) ) ;
#104 = CARTESIAN_POINT ( 'NONE',  ( 0.000000000000000000, 0.000000000000000000, 0.000000000000000000 ) ) ;
#105 =( NAMED_UNIT ( * ) SI_UNIT ( $, .STERADIAN. ) SOLID_ANGLE_UNIT ( ) );
#106 = EDGE_CURVE ( 'NONE', #261, #121, #133, .T. ) ;
#107 = AXIS2_PLACEMENT_3D ( 'NONE', #164, #252, #88 ) ;
#108 = FACE_OUTER_BOUND ( 'NONE', #10, .T. ) ;
#109 = PRESENTATION_LAYER_ASSIGNMENT (  '', '', ( #112 ) ) ;
#110 = PRODUCT ( '81639', '81639', '', ( #70 ) ) ;
#111 = PLANE ( 'NONE',  #87 ) ;
#112 = STYLED_ITEM ( 'NONE', ( #161 ), #92 ) ;
#113 = LENGTH_MEASURE_WITH_UNIT ( LENGTH_MEASURE( 0.02539999999999999897 ), #208 );
#114 = DIMENSIONAL_EXPONENTS ( 1.000000000000000000, 0.000000000000000000, 0.000000000000000000, 0.000000000000000000, 0.000000000000000000, 0.000000000000000000, 0.000000000000000000 ) ;
#115 = CARTESIAN_POINT ( 'NONE',  ( 0.000000000000000000, 0.4375000000000000000, 0.000000000000000000 ) ) ;
#116 = AXIS2_PLACEMENT_3D ( 'NONE', #123, #85, #153 ) ;
#117 =( GEOMETRIC_REPRESENTATION_CONTEXT ( 3 ) GLOBAL_UNCERTAINTY_ASSIGNED_CONTEXT ( ( #179 ) ) GLOBAL_UNIT_ASSIGNED_CONTEXT ( ( #267, #80, #105 ) ) REPRESENTATION_CONTEXT ( 'NONE', 'WORKASPACE' ) );
#118 = FILL_AREA_STYLE ('',( #97 ) ) ;
#119 = CARTESIAN_POINT ( 'NONE',  ( 1.148106374200643401E-17, 0.4375000000000000000, 0.09374999999999998612 ) ) ;
#120 = FILL_AREA_STYLE_COLOUR ( '', #205 ) ;
#121 = VERTEX_POINT ( 'NONE', #185 ) ;
#122 = AXIS2_PLACEMENT_3D ( 'NONE', #15, #11, #160 ) ;
#123 = CARTESIAN_POINT ( 'NONE',  ( 6.123233995736766036E-17, 2.000000000000000000, 0.000000000000000000 ) ) ;
#124 = SURFACE_STYLE_USAGE ( .BOTH. , #175 ) ;
#125 =( NAMED_UNIT ( * ) SI_UNIT ( $, .STERADIAN. ) SOLID_ANGLE_UNIT ( ) );
#126 = PLANE ( 'NONE',  #243 ) ;
#127 = COLOUR_RGB ( '',1.000000000000000000, 0.000000000000000000, 0.000000000000000000 ) ;
#128 =( NAMED_UNIT ( * ) PLANE_ANGLE_UNIT ( ) SI_UNIT ( $, .RADIAN. ) );
#129 = CARTESIAN_POINT ( 'NONE',  ( 0.000000000000000000, 0.000000000000000000, 0.000000000000000000 ) ) ;
#130 = FILL_AREA_STYLE_COLOUR ( '', #303 ) ;
#131 = DIRECTION ( 'NONE',  ( 3.918869757271530214E-17, 1.000000000000000000, -0.000000000000000000 ) ) ;
#132 = COLOUR_RGB ( '',1.000000000000000000, 0.000000000000000000, 0.000000000000000000 ) ;
#133 = LINE ( 'NONE', #225, #26 ) ;
#134 = DIMENSIONAL_EXPONENTS ( 1.000000000000000000, 0.000000000000000000, 0.000000000000000000, 0.000000000000000000, 0.000000000000000000, 0.000000000000000000, 0.000000000000000000 ) ;
#135 = SURFACE_SIDE_STYLE ('',( #35 ) ) ;
#136 = AXIS2_PLACEMENT_3D ( 'NONE', #272, #8, #173 ) ;
#137 = DIMENSIONAL_EXPONENTS ( 1.000000000000000000, 0.000000000000000000, 0.000000000000000000, 0.000000000000000000, 0.000000000000000000, 0.000000000000000000, 0.000000000000000000 ) ;
#138 = DIRECTION ( 'NONE',  ( -0.000000000000000000, -1.000000000000000000, -0.000000000000000000 ) ) ;
#139 = VERTEX_POINT ( 'NONE', #300 ) ;
#140 = EDGE_CURVE ( 'NONE', #56, #46, #142, .T. ) ;
#141 = ORIENTED_EDGE ( 'NONE', *, *, #293, .F. ) ;
#142 = CIRCLE ( 'NONE', #107, 0.09375000000000001388 ) ;
#143 = LINE ( 'NONE', #190, #22 ) ;
#144 = EDGE_CURVE ( 'NONE', #46, #56, #258, .T. ) ;
#145 = ORIENTED_EDGE ( 'NONE', *, *, #38, .T. ) ;
#146 = FACE_OUTER_BOUND ( 'NONE', #263, .T. ) ;
#147 = ORIENTED_EDGE ( 'NONE', *, *, #53, .T. ) ;
#148 =( NAMED_UNIT ( * ) SI_UNIT ( $, .STERADIAN. ) SOLID_ANGLE_UNIT ( ) );
#149 = COLOUR_RGB ( '',1.000000000000000000, 0.000000000000000000, 0.000000000000000000 ) ;
#150 =( LENGTH_UNIT ( ) NAMED_UNIT ( * ) SI_UNIT ( $, .METRE. ) );
#151 = PRESENTATION_STYLE_ASSIGNMENT (( #124 ) ) ;
#152 =( NAMED_UNIT ( * ) SI_UNIT ( $, .STERADIAN. ) SOLID_ANGLE_UNIT ( ) );
#153 = DIRECTION ( 'NONE',  ( -1.000000000000000000, 0.000000000000000000, 0.000000000000000000 ) ) ;
#154 = CLOSED_SHELL ( 'NONE', ( #182, #32, #17, #266 ) ) ;
#155 = DIRECTION ( 'NONE',  ( -1.000000000000000000, 0.000000000000000000, 0.000000000000000000 ) ) ;
#156 = STYLED_ITEM ( 'NONE', ( #165 ), #168 ) ;
#157 = CARTESIAN_POINT ( 'NONE',  ( 0.09374999999999998612, 0.4374999999999998890, 1.148106374200643247E-17 ) ) ;
#158 = FACE_OUTER_BOUND ( 'NONE', #193, .T. ) ;
#159 = DIMENSIONAL_EXPONENTS ( 1.000000000000000000, 0.000000000000000000, 0.000000000000000000, 0.000000000000000000, 0.000000000000000000, 0.000000000000000000, 0.000000000000000000 ) ;
#160 = DIRECTION ( 'NONE',  ( 0.000000000000000000, 0.000000000000000000, -1.000000000000000000 ) ) ;
#161 = PRESENTATION_STYLE_ASSIGNMENT (( #297 ) ) ;
#162 = CIRCLE ( 'NONE', #216, 0.09374999999999998612 ) ;
#163 = DIRECTION ( 'NONE',  ( 0.000000000000000000, 1.000000000000000000, 0.000000000000000000 ) ) ;
#164 = CARTESIAN_POINT ( 'NONE',  ( 0.000000000000000000, 0.000000000000000000, 0.000000000000000000 ) ) ;
#165 = PRESENTATION_STYLE_ASSIGNMENT (( #183 ) ) ;
#166 = AXIS2_PLACEMENT_3D ( 'NONE', #195, #278, #277 ) ;
#167 = DIRECTION ( 'NONE',  ( -1.000000000000000000, 0.000000000000000000, 0.000000000000000000 ) ) ;
#168 = ADVANCED_FACE ( 'NONE', ( #299 ), #275, .T. ) ;
#169 = CARTESIAN_POINT ( 'NONE',  ( -0.09374999999999998612, 0.4374999999999998890, 0.000000000000000000 ) ) ;
#170 =( LENGTH_UNIT ( ) NAMED_UNIT ( * ) SI_UNIT ( $, .METRE. ) );
#171 = PRODUCT_DEFINITION_CONTEXT ( 'detailed design', #285, 'design' ) ;
#172 = PRESENTATION_STYLE_ASSIGNMENT (( #68 ) ) ;
#173 = DIRECTION ( 'NONE',  ( 0.000000000000000000, 0.000000000000000000, -1.000000000000000000 ) ) ;
#174 = PRODUCT_DEFINITION_FORMATION_WITH_SPECIFIED_SOURCE ( 'ANY', '', #110, .NOT_KNOWN. ) ;
#175 = SURFACE_SIDE_STYLE ('',( #268 ) ) ;
#176 = CARTESIAN_POINT ( 'NONE',  ( 6.123233995736766036E-17, 2.000000000000000000, 0.000000000000000000 ) ) ;
#177 = DIRECTION ( 'NONE',  ( 0.000000000000000000, 0.000000000000000000, 1.000000000000000000 ) ) ;
#178 = CARTESIAN_POINT ( 'NONE',  ( 0.000000000000000000, 0.4374999999999998890, 0.000000000000000000 ) ) ;
#179 = UNCERTAINTY_MEASURE_WITH_UNIT (LENGTH_MEASURE( 1.000000000000000082E-05 ), #267, 'distance_accuracy_value', 'NONE');
#180 = SHAPE_DEFINITION_REPRESENTATION ( #287, #94 ) ;
#181 = CARTESIAN_POINT ( 'NONE',  ( 0.09374999999999998612, 2.000000000000000000, 1.148106374200643247E-17 ) ) ;
#182 = ADVANCED_FACE ( 'NONE', ( #61 ), #20, .T. ) ;
#183 = SURFACE_STYLE_USAGE ( .BOTH. , #135 ) ;
#184 =( GEOMETRIC_REPRESENTATION_CONTEXT ( 3 ) GLOBAL_UNCERTAINTY_ASSIGNED_CONTEXT ( ( #62 ) ) GLOBAL_UNIT_ASSIGNED_CONTEXT ( ( #281, #264, #152 ) ) REPRESENTATION_CONTEXT ( 'NONE', 'WORKASPACE' ) );
#185 = CARTESIAN_POINT ( 'NONE',  ( -0.09374999999999984734, 2.000000000000000000, 0.000000000000000000 ) ) ;
#186 =( LENGTH_UNIT ( ) NAMED_UNIT ( * ) SI_UNIT ( $, .METRE. ) );
#187 =( CONVERSION_BASED_UNIT ( 'INCH', #306 ) LENGTH_UNIT ( ) NAMED_UNIT ( #159 ) );
#188 = AXIS2_PLACEMENT_3D ( 'NONE', #29, #82, #48 ) ;
#189 = STYLED_ITEM ( 'NONE', ( #172 ), #296 ) ;
#190 = CARTESIAN_POINT ( 'NONE',  ( 1.148106374200643401E-17, 0.000000000000000000, 0.09374999999999998612 ) ) ;
#191 = ADVANCED_FACE ( 'NONE', ( #146 ), #44, .T. ) ;
#192 =( NAMED_UNIT ( * ) SI_UNIT ( $, .STERADIAN. ) SOLID_ANGLE_UNIT ( ) );
#193 = EDGE_LOOP ( 'NONE', ( #288, #43 ) ) ;
#194 = PRESENTATION_LAYER_ASSIGNMENT (  '', '', ( #156 ) ) ;
#195 = CARTESIAN_POINT ( 'NONE',  ( 0.09374999999999998612, 2.000000000000000000, 0.000000000000000000 ) ) ;
#196 = APPLICATION_PROTOCOL_DEFINITION ( 'draft international standard', 'automotive_design', 1998, #40 ) ;
#197 = ORIENTED_EDGE ( 'NONE', *, *, #38, .F. ) ;
#198 = LENGTH_MEASURE_WITH_UNIT ( LENGTH_MEASURE( 0.02539999999999999897 ), #102 );
#199 = EDGE_LOOP ( 'NONE', ( #74, #19, #96, #54 ) ) ;
#200 = STYLED_ITEM ( 'NONE', ( #50 ), #78 ) ;
#201 = SURFACE_STYLE_USAGE ( .BOTH. , #224 ) ;
#202 = EDGE_CURVE ( 'NONE', #69, #121, #286, .T. ) ;
#203 =( CONVERSION_BASED_UNIT ( 'INCH', #79 ) LENGTH_UNIT ( ) NAMED_UNIT ( #254 ) );
#204 = DIRECTION ( 'NONE',  ( 3.918869757271530214E-17, 1.000000000000000000, -0.000000000000000000 ) ) ;
#205 = COLOUR_RGB ( '',0.7921568627450980005, 0.8196078431372548767, 0.9333333333333333481 ) ;
#206 =( NAMED_UNIT ( * ) SI_UNIT ( $, .STERADIAN. ) SOLID_ANGLE_UNIT ( ) );
#207 = EDGE_CURVE ( 'NONE', #256, #139, #162, .T. ) ;
#208 =( LENGTH_UNIT ( ) NAMED_UNIT ( * ) SI_UNIT ( $, .METRE. ) );
#209 = DIRECTION ( 'NONE',  ( 0.000000000000000000, 0.000000000000000000, -1.000000000000000000 ) ) ;
#210 = DIRECTION ( 'NONE',  ( -0.000000000000000000, -1.000000000000000000, -0.000000000000000000 ) ) ;
#211 = ORIENTED_EDGE ( 'NONE', *, *, #140, .F. ) ;
#212 = CARTESIAN_POINT ( 'NONE',  ( 0.000000000000000000, 0.000000000000000000, 0.000000000000000000 ) ) ;
#213 = DIRECTION ( 'NONE',  ( -0.000000000000000000, -1.000000000000000000, -0.000000000000000000 ) ) ;
#214 = DIRECTION ( 'NONE',  ( 3.918869757271530214E-17, 1.000000000000000000, -0.000000000000000000 ) ) ;
#215 = ORIENTED_EDGE ( 'NONE', *, *, #4, .F. ) ;
#216 = AXIS2_PLACEMENT_3D ( 'NONE', #115, #138, #91 ) ;
#217 = DIRECTION ( 'NONE',  ( -1.000000000000000000, 0.000000000000000000, 0.000000000000000000 ) ) ;
#218 = ORIENTED_EDGE ( 'NONE', *, *, #71, .F. ) ;
#219 = DIRECTION ( 'NONE',  ( 3.918869757271530214E-17, 1.000000000000000000, -0.000000000000000000 ) ) ;
#220 = MECHANICAL_DESIGN_GEOMETRIC_PRESENTATION_REPRESENTATION (  '', ( #112 ), #309 ) ;
#221 = ORIENTED_EDGE ( 'NONE', *, *, #4, .T. ) ;
#222 = EDGE_CURVE ( 'NONE', #308, #69, #304, .T. ) ;
#223 = DIRECTION ( 'NONE',  ( 0.000000000000000000, -1.000000000000000000, -0.000000000000000000 ) ) ;
#224 = SURFACE_SIDE_STYLE ('',( #246 ) ) ;
#225 = CARTESIAN_POINT ( 'NONE',  ( -0.09374999999999988898, 2.000000000000000000, 0.000000000000000000 ) ) ;
#226 = MECHANICAL_DESIGN_GEOMETRIC_PRESENTATION_REPRESENTATION (  '', ( #189 ), #184 ) ;
#227 = COLOUR_RGB ( '',0.7921568627450980005, 0.8196078431372548767, 0.9333333333333333481 ) ;
#228 = DIMENSIONAL_EXPONENTS ( 1.000000000000000000, 0.000000000000000000, 0.000000000000000000, 0.000000000000000000, 0.000000000000000000, 0.000000000000000000, 0.000000000000000000 ) ;
#229 =( CONVERSION_BASED_UNIT ( 'INCH', #113 ) LENGTH_UNIT ( ) NAMED_UNIT ( #114 ) );
#230 = DIRECTION ( 'NONE',  ( 0.000000000000000000, -0.000000000000000000, 1.000000000000000000 ) ) ;
#231 = MECHANICAL_DESIGN_GEOMETRIC_PRESENTATION_REPRESENTATION (  '', ( #55 ), #58 ) ;
#232 =( CONVERSION_BASED_UNIT ( 'INCH', #276 ) LENGTH_UNIT ( ) NAMED_UNIT ( #137 ) );
#233 = DIRECTION ( 'NONE',  ( 3.918869757271530214E-17, 1.000000000000000000, -0.000000000000000000 ) ) ;
#234 = VECTOR ( 'NONE', #24, 39.37007874015748143 ) ;
#235 = CARTESIAN_POINT ( 'NONE',  ( 0.09375000000000002776, 2.000000000000000000, 1.148106374200643092E-17 ) ) ;
#236 = CARTESIAN_POINT ( 'NONE',  ( 0.000000000000000000, 0.000000000000000000, -0.09374999999999998612 ) ) ;
#237 = PRESENTATION_STYLE_ASSIGNMENT (( #18 ) ) ;
#238 = ORIENTED_EDGE ( 'NONE', *, *, #222, .T. ) ;
#239 = CIRCLE ( 'NONE', #136, 0.09374999999999998612 ) ;
#240 = MECHANICAL_DESIGN_GEOMETRIC_PRESENTATION_REPRESENTATION (  '', ( #200 ), #117 ) ;
#241 = LENGTH_MEASURE_WITH_UNIT ( LENGTH_MEASURE( 0.02539999999999999897 ), #150 );
#242 = EDGE_LOOP ( 'NONE', ( #147, #238, #197, #45 ) ) ;
#243 = AXIS2_PLACEMENT_3D ( 'NONE', #129, #223, #209 ) ;
#244 = FILL_AREA_STYLE ('',( #130 ) ) ;
#245 = FILL_AREA_STYLE_COLOUR ( '', #227 ) ;
#246 = SURFACE_STYLE_FILL_AREA ( #244 ) ;
#247 = EDGE_CURVE ( 'NONE', #256, #46, #143, .T. ) ;
#248 = CIRCLE ( 'NONE', #116, 0.09374999999999991673 ) ;
#249 = FACE_OUTER_BOUND ( 'NONE', #21, .T. ) ;
#250 = SURFACE_STYLE_FILL_AREA ( #31 ) ;
#251 = UNCERTAINTY_MEASURE_WITH_UNIT (LENGTH_MEASURE( 1.000000000000000082E-05 ), #229, 'distance_accuracy_value', 'NONE');
#252 = DIRECTION ( 'NONE',  ( -0.000000000000000000, -1.000000000000000000, -0.000000000000000000 ) ) ;
#253 = STYLED_ITEM ( 'NONE', ( #151 ), #301 ) ;
#254 = DIMENSIONAL_EXPONENTS ( 1.000000000000000000, 0.000000000000000000, 0.000000000000000000, 0.000000000000000000, 0.000000000000000000, 0.000000000000000000, 0.000000000000000000 ) ;
#255 = DIRECTION ( 'NONE',  ( 0.000000000000000000, 0.000000000000000000, -1.000000000000000000 ) ) ;
#256 = VERTEX_POINT ( 'NONE', #119 ) ;
#257 = DIRECTION ( 'NONE',  ( 3.918869757271530214E-17, 1.000000000000000000, -0.000000000000000000 ) ) ;
#258 = CIRCLE ( 'NONE', #122, 0.09375000000000001388 ) ;
#259 =( GEOMETRIC_REPRESENTATION_CONTEXT ( 3 ) GLOBAL_UNCERTAINTY_ASSIGNED_CONTEXT ( ( #274 ) ) GLOBAL_UNIT_ASSIGNED_CONTEXT ( ( #73, #52, #125 ) ) REPRESENTATION_CONTEXT ( 'NONE', 'WORKASPACE' ) );
#260 = LINE ( 'NONE', #236, #234 ) ;
#261 = VERTEX_POINT ( 'NONE', #169 ) ;
#262 = FILL_AREA_STYLE ('',( #120 ) ) ;
#263 = EDGE_LOOP ( 'NONE', ( #221, #25, #211, #141 ) ) ;
#264 =( NAMED_UNIT ( * ) PLANE_ANGLE_UNIT ( ) SI_UNIT ( $, .RADIAN. ) );
#265 = PLANE ( 'NONE',  #188 ) ;
#266 = ADVANCED_FACE ( 'NONE', ( #95 ), #93, .F. ) ;
#267 =( CONVERSION_BASED_UNIT ( 'INCH', #241 ) LENGTH_UNIT ( ) NAMED_UNIT ( #16 ) );
#268 = SURFACE_STYLE_FILL_AREA ( #81 ) ;
#269 =( LENGTH_UNIT ( ) NAMED_UNIT ( * ) SI_UNIT ( $, .METRE. ) );
#270 = PRESENTATION_LAYER_ASSIGNMENT (  '', '', ( #55 ) ) ;
#271 = MECHANICAL_DESIGN_GEOMETRIC_PRESENTATION_REPRESENTATION (  '', ( #253 ), #259 ) ;
#272 = CARTESIAN_POINT ( 'NONE',  ( 0.000000000000000000, 0.4375000000000000000, 0.000000000000000000 ) ) ;
#273 =( NAMED_UNIT ( * ) PLANE_ANGLE_UNIT ( ) SI_UNIT ( $, .RADIAN. ) );
#274 = UNCERTAINTY_MEASURE_WITH_UNIT (LENGTH_MEASURE( 1.000000000000000082E-05 ), #73, 'distance_accuracy_value', 'NONE');
#275 = CYLINDRICAL_SURFACE ( 'NONE', #14, 0.09374999999999998612 ) ;
#276 = LENGTH_MEASURE_WITH_UNIT ( LENGTH_MEASURE( 0.02539999999999999897 ), #186 );
#277 = DIRECTION ( 'NONE',  ( 1.000000000000000000, -3.918869757271530214E-17, 0.000000000000000000 ) ) ;
#278 = DIRECTION ( 'NONE',  ( -3.918869757271530214E-17, -1.000000000000000000, 0.000000000000000000 ) ) ;
#279 = SURFACE_SIDE_STYLE ('',( #307 ) ) ;
#280 = ORIENTED_EDGE ( 'NONE', *, *, #106, .T. ) ;
#281 =( CONVERSION_BASED_UNIT ( 'INCH', #51 ) LENGTH_UNIT ( ) NAMED_UNIT ( #134 ) );
#282 = ORIENTED_EDGE ( 'NONE', *, *, #207, .F. ) ;
#283 = PRODUCT_DEFINITION ( 'UNKNOWN', '', #174, #171 ) ;
#284 = CIRCLE ( 'NONE', #98, 0.09374999999999998612 ) ;
#285 = APPLICATION_CONTEXT ( 'automotive_design' ) ;
#286 = CIRCLE ( 'NONE', #36, 0.09374999999999991673 ) ;
#287 = PRODUCT_DEFINITION_SHAPE ( 'NONE', 'NONE',  #283 ) ;
#288 = ORIENTED_EDGE ( 'NONE', *, *, #140, .T. ) ;
#289 = CARTESIAN_POINT ( 'NONE',  ( 0.000000000000000000, 0.000000000000000000, -0.09375000000000001388 ) ) ;
#290 = DIRECTION ( 'NONE',  ( -1.000000000000000000, 0.000000000000000000, 0.000000000000000000 ) ) ;
#291 = UNCERTAINTY_MEASURE_WITH_UNIT (LENGTH_MEASURE( 1.000000000000000082E-05 ), #232, 'distance_accuracy_value', 'NONE');
#292 = AXIS2_PLACEMENT_3D ( 'NONE', #302, #214, #217 ) ;
#293 = EDGE_CURVE ( 'NONE', #139, #56, #260, .T. ) ;
#294 = AXIS2_PLACEMENT_3D ( 'NONE', #104, #177, #100 ) ;
#295 = CYLINDRICAL_SURFACE ( 'NONE', #75, 0.09374999999999995837 ) ;
#296 = MANIFOLD_SOLID_BREP ( 'Revolve - Tool Body (Straight Shanked)', #154 ) ;
#297 = SURFACE_STYLE_USAGE ( .BOTH. , #34 ) ;
#298 =( GEOMETRIC_REPRESENTATION_CONTEXT ( 3 ) GLOBAL_UNCERTAINTY_ASSIGNED_CONTEXT ( ( #291 ) ) GLOBAL_UNIT_ASSIGNED_CONTEXT ( ( #232, #273, #206 ) ) REPRESENTATION_CONTEXT ( 'NONE', 'WORKASPACE' ) );
#299 = FACE_OUTER_BOUND ( 'NONE', #199, .T. ) ;
#300 = CARTESIAN_POINT ( 'NONE',  ( 0.000000000000000000, 0.4375000000000000000, -0.09374999999999998612 ) ) ;
#301 = MANIFOLD_SOLID_BREP ( 'Revolve - Cutting Edge', #90 ) ;
#302 = CARTESIAN_POINT ( 'NONE',  ( 6.123233995736766036E-17, 2.000000000000000000, 0.000000000000000000 ) ) ;
#303 = COLOUR_RGB ( '',1.000000000000000000, 0.000000000000000000, 0.000000000000000000 ) ;
#304 = LINE ( 'NONE', #235, #83 ) ;
#305 = EDGE_LOOP ( 'NONE', ( #72, #2, #280, #77 ) ) ;
#306 = LENGTH_MEASURE_WITH_UNIT ( LENGTH_MEASURE( 0.02539999999999999897 ), #170 );
#307 = SURFACE_STYLE_FILL_AREA ( #262 ) ;
#308 = VERTEX_POINT ( 'NONE', #157 ) ;
#309 =( GEOMETRIC_REPRESENTATION_CONTEXT ( 3 ) GLOBAL_UNCERTAINTY_ASSIGNED_CONTEXT ( ( #251 ) ) GLOBAL_UNIT_ASSIGNED_CONTEXT ( ( #229, #33, #59 ) ) REPRESENTATION_CONTEXT ( 'NONE', 'WORKASPACE' ) );
ENDSEC;
END-ISO-10303-21;
