ISO-10303-21;
HEADER;
FILE_DESCRIPTION (( 'STEP AP214' ),
    '1' );
FILE_NAME ('49211.STEP',
    '2023-06-30T21:58:35',
    ( '' ),
    ( '' ),
    'SwSTEP 2.0',
    'SolidWorks 2023',
    '' );
FILE_SCHEMA (( 'AUTOMOTIVE_DESIGN' ));
ENDSEC;

DATA;
#1 =( LENGTH_UNIT ( ) NAMED_UNIT ( * ) SI_UNIT ( $, .METRE. ) );
#2 = EDGE_LOOP ( 'NONE', ( #289, #373, #263, #316 ) ) ;
#3 = AXIS2_PLACEMENT_3D ( 'NONE', #254, #247, #76 ) ;
#4 = ORIENTED_EDGE ( 'NONE', *, *, #214, .T. ) ;
#5 = SURFACE_STYLE_USAGE ( .BOTH. , #148 ) ;
#6 = EDGE_CURVE ( 'NONE', #260, #176, #61, .T. ) ;
#7 = CARTESIAN_POINT ( 'NONE',  ( 0.000000000000000000, 0.1875000000000000833, -0.1874999999999999722 ) ) ;
#8 = CIRCLE ( 'NONE', #216, 0.1874999999999999722 ) ;
#9 = DIRECTION ( 'NONE',  ( -0.000000000000000000, -1.000000000000000000, -0.000000000000000000 ) ) ;
#10 = APPLICATION_CONTEXT ( 'automotive_design' ) ;
#11 = CARTESIAN_POINT ( 'NONE',  ( -0.1874999999999996392, 1.000000000000000000, 0.000000000000000000 ) ) ;
#12 = CLOSED_SHELL ( 'NONE', ( #138, #202, #267, #356 ) ) ;
#13 = AXIS2_PLACEMENT_3D ( 'NONE', #238, #352, #270 ) ;
#14 = UNCERTAINTY_MEASURE_WITH_UNIT (LENGTH_MEASURE( 1.000000000000000082E-05 ), #73, 'distance_accuracy_value', 'NONE');
#15 = PRODUCT_DEFINITION_CONTEXT ( 'detailed design', #33, 'design' ) ;
#16 = SURFACE_SIDE_STYLE ('',( #161 ) ) ;
#17 = VERTEX_POINT ( 'NONE', #318 ) ;
#18 =( NAMED_UNIT ( * ) PLANE_ANGLE_UNIT ( ) SI_UNIT ( $, .RADIAN. ) );
#19 = SURFACE_STYLE_USAGE ( .BOTH. , #273 ) ;
#20 =( LENGTH_UNIT ( ) NAMED_UNIT ( * ) SI_UNIT ( $, .METRE. ) );
#21 = PRESENTATION_STYLE_ASSIGNMENT (( #102 ) ) ;
#22 = DIRECTION ( 'NONE',  ( -1.224646799147353207E-16, 1.000000000000000000, -0.000000000000000000 ) ) ;
#23 =( NAMED_UNIT ( * ) PLANE_ANGLE_UNIT ( ) SI_UNIT ( $, .RADIAN. ) );
#24 = FILL_AREA_STYLE ('',( #308 ) ) ;
#25 = CIRCLE ( 'NONE', #13, 0.1875000000000000555 ) ;
#26 = ORIENTED_EDGE ( 'NONE', *, *, #233, .T. ) ;
#27 = PRESENTATION_LAYER_ASSIGNMENT (  '', '', ( #224 ) ) ;
#28 = VECTOR ( 'NONE', #306, 39.37007874015748143 ) ;
#29 = DIRECTION ( 'NONE',  ( 1.000000000000000000, 0.000000000000000000, -1.224646799147353207E-16 ) ) ;
#30 = ADVANCED_FACE ( 'NONE', ( #251 ), #110, .T. ) ;
#31 = DIRECTION ( 'NONE',  ( -0.000000000000000000, -1.000000000000000000, -0.000000000000000000 ) ) ;
#32 = SURFACE_STYLE_USAGE ( .BOTH. , #114 ) ;
#33 = APPLICATION_CONTEXT ( 'automotive_design' ) ;
#34 = ORIENTED_EDGE ( 'NONE', *, *, #44, .F. ) ;
#35 = MECHANICAL_DESIGN_GEOMETRIC_PRESENTATION_REPRESENTATION (  '', ( #95 ), #107 ) ;
#36 = AXIS2_PLACEMENT_3D ( 'NONE', #276, #222, #369 ) ;
#37 = CARTESIAN_POINT ( 'NONE',  ( 0.000000000000000000, 0.1875000000000000833, 0.000000000000000000 ) ) ;
#38 = SURFACE_STYLE_FILL_AREA ( #354 ) ;
#39 = VERTEX_POINT ( 'NONE', #257 ) ;
#40 = DIRECTION ( 'NONE',  ( 0.000000000000000000, 0.000000000000000000, -1.000000000000000000 ) ) ;
#41 = AXIS2_PLACEMENT_3D ( 'NONE', #108, #31, #143 ) ;
#42 =( NAMED_UNIT ( * ) SI_UNIT ( $, .STERADIAN. ) SOLID_ANGLE_UNIT ( ) );
#43 =( NAMED_UNIT ( * ) PLANE_ANGLE_UNIT ( ) SI_UNIT ( $, .RADIAN. ) );
#44 = EDGE_CURVE ( 'NONE', #180, #39, #282, .T. ) ;
#45 = EDGE_CURVE ( 'NONE', #172, #353, #129, .T. ) ;
#46 = CARTESIAN_POINT ( 'NONE',  ( -2.296212748401288034E-17, 0.1875000000000000555, 0.000000000000000000 ) ) ;
#47 = CARTESIAN_POINT ( 'NONE',  ( -6.123233995736766036E-17, 2.500000000000000000, 0.000000000000000000 ) ) ;
#48 = DIMENSIONAL_EXPONENTS ( 1.000000000000000000, 0.000000000000000000, 0.000000000000000000, 0.000000000000000000, 0.000000000000000000, 0.000000000000000000, 0.000000000000000000 ) ;
#49 = SPHERICAL_SURFACE ( 'NONE', #253, 0.1875000000000000555 ) ;
#50 = ORIENTED_EDGE ( 'NONE', *, *, #44, .T. ) ;
#51 = DIRECTION ( 'NONE',  ( -1.000000000000000000, 0.000000000000000000, 0.000000000000000000 ) ) ;
#52 = AXIS2_PLACEMENT_3D ( 'NONE', #86, #226, #198 ) ;
#53 = SURFACE_SIDE_STYLE ('',( #106 ) ) ;
#54 = FACE_OUTER_BOUND ( 'NONE', #204, .T. ) ;
#55 = FILL_AREA_STYLE_COLOUR ( '', #325 ) ;
#56 = CIRCLE ( 'NONE', #3, 0.1874999999999997780 ) ;
#57 = EDGE_CURVE ( 'NONE', #17, #176, #25, .T. ) ;
#58 = PRESENTATION_LAYER_ASSIGNMENT (  '', '', ( #95 ) ) ;
#59 =( CONVERSION_BASED_UNIT ( 'INCH', #82 ) LENGTH_UNIT ( ) NAMED_UNIT ( #368 ) );
#60 = SURFACE_STYLE_FILL_AREA ( #240 ) ;
#61 = CIRCLE ( 'NONE', #277, 0.1875000000000000555 ) ;
#62 = PRODUCT ( '49211', '49211', '', ( #175 ) ) ;
#63 = CARTESIAN_POINT ( 'NONE',  ( 1.224646799147353454E-16, 1.000000000000000000, 0.000000000000000000 ) ) ;
#64 = DIMENSIONAL_EXPONENTS ( 1.000000000000000000, 0.000000000000000000, 0.000000000000000000, 0.000000000000000000, 0.000000000000000000, 0.000000000000000000, 0.000000000000000000 ) ;
#65 = SURFACE_STYLE_USAGE ( .BOTH. , #219 ) ;
#66 = ADVANCED_FACE ( 'NONE', ( #126 ), #49, .T. ) ;
#67 = EDGE_CURVE ( 'NONE', #115, #180, #302, .T. ) ;
#68 = CARTESIAN_POINT ( 'NONE',  ( 2.296212748401287109E-17, 0.1875000000000000833, 0.1874999999999999722 ) ) ;
#69 = AXIS2_PLACEMENT_3D ( 'NONE', #152, #9, #294 ) ;
#70 = CYLINDRICAL_SURFACE ( 'NONE', #347, 0.1874999999999999167 ) ;
#71 = STYLED_ITEM ( 'NONE', ( #274 ), #288 ) ;
#72 = UNCERTAINTY_MEASURE_WITH_UNIT (LENGTH_MEASURE( 1.000000000000000082E-05 ), #96, 'distance_accuracy_value', 'NONE');
#73 =( CONVERSION_BASED_UNIT ( 'INCH', #301 ) LENGTH_UNIT ( ) NAMED_UNIT ( #48 ) );
#74 = CYLINDRICAL_SURFACE ( 'NONE', #157, 0.1874999999999998335 ) ;
#75 = CARTESIAN_POINT ( 'NONE',  ( -6.123233995736766036E-17, 2.500000000000000000, 0.000000000000000000 ) ) ;
#76 = DIRECTION ( 'NONE',  ( -1.000000000000000000, 0.000000000000000000, 0.000000000000000000 ) ) ;
#77 = ORIENTED_EDGE ( 'NONE', *, *, #286, .F. ) ;
#78 = DIRECTION ( 'NONE',  ( -0.000000000000000000, -1.000000000000000000, -0.000000000000000000 ) ) ;
#79 = CARTESIAN_POINT ( 'NONE',  ( 0.000000000000000000, 0.000000000000000000, -0.1874999999999999167 ) ) ;
#80 = COLOUR_RGB ( '',0.7921568627450980005, 0.8196078431372548767, 0.9333333333333333481 ) ;
#81 = STYLED_ITEM ( 'NONE', ( #21 ), #296 ) ;
#82 = LENGTH_MEASURE_WITH_UNIT ( LENGTH_MEASURE( 0.02539999999999999897 ), #136 );
#83 = DIMENSIONAL_EXPONENTS ( 1.000000000000000000, 0.000000000000000000, 0.000000000000000000, 0.000000000000000000, 0.000000000000000000, 0.000000000000000000, 0.000000000000000000 ) ;
#84 = SURFACE_STYLE_USAGE ( .BOTH. , #140 ) ;
#85 =( CONVERSION_BASED_UNIT ( 'INCH', #248 ) LENGTH_UNIT ( ) NAMED_UNIT ( #64 ) );
#86 = CARTESIAN_POINT ( 'NONE',  ( 0.000000000000000000, 0.000000000000000000, 0.000000000000000000 ) ) ;
#87 = DIRECTION ( 'NONE',  ( 1.000000000000000000, 0.000000000000000000, 0.000000000000000000 ) ) ;
#88 = VECTOR ( 'NONE', #363, 39.37007874015748143 ) ;
#89 = ORIENTED_EDGE ( 'NONE', *, *, #195, .T. ) ;
#90 = ORIENTED_EDGE ( 'NONE', *, *, #215, .F. ) ;
#91 = MECHANICAL_DESIGN_GEOMETRIC_PRESENTATION_REPRESENTATION (  '', ( #184 ), #371 ) ;
#92 = ORIENTED_EDGE ( 'NONE', *, *, #271, .F. ) ;
#93 = ORIENTED_EDGE ( 'NONE', *, *, #109, .T. ) ;
#94 = MECHANICAL_DESIGN_GEOMETRIC_PRESENTATION_REPRESENTATION (  '', ( #166 ), #144 ) ;
#95 = STYLED_ITEM ( 'NONE', ( #154 ), #66 ) ;
#96 =( CONVERSION_BASED_UNIT ( 'INCH', #259 ) LENGTH_UNIT ( ) NAMED_UNIT ( #283 ) );
#97 = CARTESIAN_POINT ( 'NONE',  ( -6.123233995736766036E-17, 2.500000000000000000, 0.000000000000000000 ) ) ;
#98 = PRESENTATION_STYLE_ASSIGNMENT (( #65 ) ) ;
#99 = ORIENTED_EDGE ( 'NONE', *, *, #57, .T. ) ;
#100 = FACE_OUTER_BOUND ( 'NONE', #346, .T. ) ;
#101 = MECHANICAL_DESIGN_GEOMETRIC_PRESENTATION_REPRESENTATION (  '', ( #224 ), #234 ) ;
#102 = SURFACE_STYLE_USAGE ( .BOTH. , #16 ) ;
#103 = DIRECTION ( 'NONE',  ( -1.224646799147353207E-16, 1.000000000000000000, -0.000000000000000000 ) ) ;
#104 = CARTESIAN_POINT ( 'NONE',  ( -0.1875000000000000555, 0.1875000000000000833, 2.296212748401287109E-17 ) ) ;
#105 = CARTESIAN_POINT ( 'NONE',  ( 0.1874999999999999167, 1.000000000000000000, 2.296212748401286493E-17 ) ) ;
#106 = SURFACE_STYLE_FILL_AREA ( #309 ) ;
#107 =( GEOMETRIC_REPRESENTATION_CONTEXT ( 3 ) GLOBAL_UNCERTAINTY_ASSIGNED_CONTEXT ( ( #72 ) ) GLOBAL_UNIT_ASSIGNED_CONTEXT ( ( #96, #135, #250 ) ) REPRESENTATION_CONTEXT ( 'NONE', 'WORKASPACE' ) );
#108 = CARTESIAN_POINT ( 'NONE',  ( 0.000000000000000000, 0.1875000000000000833, 0.000000000000000000 ) ) ;
#109 = EDGE_CURVE ( 'NONE', #353, #351, #280, .T. ) ;
#110 = CYLINDRICAL_SURFACE ( 'NONE', #52, 0.1874999999999999167 ) ;
#111 = EDGE_LOOP ( 'NONE', ( #92, #197 ) ) ;
#112 = CARTESIAN_POINT ( 'NONE',  ( 0.1874999999999998890, 2.500000000000000000, 0.000000000000000000 ) ) ;
#113 = AXIS2_PLACEMENT_3D ( 'NONE', #47, #103, #51 ) ;
#114 = SURFACE_SIDE_STYLE ('',( #60 ) ) ;
#115 = VERTEX_POINT ( 'NONE', #105 ) ;
#116 = DIRECTION ( 'NONE',  ( 0.000000000000000000, 0.000000000000000000, 1.000000000000000000 ) ) ;
#117 = ORIENTED_EDGE ( 'NONE', *, *, #338, .T. ) ;
#118 = PRESENTATION_STYLE_ASSIGNMENT (( #5 ) ) ;
#119 = MECHANICAL_DESIGN_GEOMETRIC_PRESENTATION_REPRESENTATION (  '', ( #71 ), #167 ) ;
#120 = EDGE_CURVE ( 'NONE', #341, #39, #292, .T. ) ;
#121 = ORIENTED_EDGE ( 'NONE', *, *, #349, .F. ) ;
#122 = CARTESIAN_POINT ( 'NONE',  ( 0.000000000000000000, 1.000000000000000000, 0.000000000000000000 ) ) ;
#123 =( NAMED_UNIT ( * ) PLANE_ANGLE_UNIT ( ) SI_UNIT ( $, .RADIAN. ) );
#124 = VECTOR ( 'NONE', #22, 39.37007874015748143 ) ;
#125 = LINE ( 'NONE', #333, #88 ) ;
#126 = FACE_OUTER_BOUND ( 'NONE', #2, .T. ) ;
#127 =( NAMED_UNIT ( * ) SI_UNIT ( $, .STERADIAN. ) SOLID_ANGLE_UNIT ( ) );
#128 = DIRECTION ( 'NONE',  ( -1.000000000000000000, -1.224646799147353207E-16, 0.000000000000000000 ) ) ;
#129 = CIRCLE ( 'NONE', #199, 0.1874999999999998890 ) ;
#130 = AXIS2_PLACEMENT_3D ( 'NONE', #231, #116, #87 ) ;
#131 = UNCERTAINTY_MEASURE_WITH_UNIT (LENGTH_MEASURE( 1.000000000000000082E-05 ), #268, 'distance_accuracy_value', 'NONE');
#132 = EDGE_LOOP ( 'NONE', ( #77, #297, #93, #312, #121 ) ) ;
#133 = DIRECTION ( 'NONE',  ( -1.000000000000000000, 0.000000000000000000, 0.000000000000000000 ) ) ;
#134 = DIRECTION ( 'NONE',  ( -1.224646799147353207E-16, 1.000000000000000000, 0.000000000000000000 ) ) ;
#135 =( NAMED_UNIT ( * ) PLANE_ANGLE_UNIT ( ) SI_UNIT ( $, .RADIAN. ) );
#136 =( LENGTH_UNIT ( ) NAMED_UNIT ( * ) SI_UNIT ( $, .METRE. ) );
#137 = CARTESIAN_POINT ( 'NONE',  ( 0.000000000000000000, 1.000000000000000000, 0.000000000000000000 ) ) ;
#138 = ADVANCED_FACE ( 'NONE', ( #54 ), #74, .T. ) ;
#139 = CIRCLE ( 'NONE', #293, 0.1874999999999999722 ) ;
#140 = SURFACE_SIDE_STYLE ('',( #171 ) ) ;
#141 = ORIENTED_EDGE ( 'NONE', *, *, #286, .T. ) ;
#142 =( NAMED_UNIT ( * ) PLANE_ANGLE_UNIT ( ) SI_UNIT ( $, .RADIAN. ) );
#143 = DIRECTION ( 'NONE',  ( 0.000000000000000000, 0.000000000000000000, -1.000000000000000000 ) ) ;
#144 =( GEOMETRIC_REPRESENTATION_CONTEXT ( 3 ) GLOBAL_UNCERTAINTY_ASSIGNED_CONTEXT ( ( #326 ) ) GLOBAL_UNIT_ASSIGNED_CONTEXT ( ( #85, #173, #364 ) ) REPRESENTATION_CONTEXT ( 'NONE', 'WORKASPACE' ) );
#145 = PRESENTATION_LAYER_ASSIGNMENT (  '', '', ( #81 ) ) ;
#146 = EDGE_LOOP ( 'NONE', ( #189, #324 ) ) ;
#147 = DIRECTION ( 'NONE',  ( 0.000000000000000000, 0.000000000000000000, -1.000000000000000000 ) ) ;
#148 = SURFACE_SIDE_STYLE ('',( #38 ) ) ;
#149 =( NAMED_UNIT ( * ) PLANE_ANGLE_UNIT ( ) SI_UNIT ( $, .RADIAN. ) );
#150 = ADVANCED_FACE ( 'NONE', ( #307 ), #70, .T. ) ;
#151 = STYLED_ITEM ( 'NONE', ( #98 ), #244 ) ;
#152 = CARTESIAN_POINT ( 'NONE',  ( 0.000000000000000000, 0.1875000000000000833, 0.000000000000000000 ) ) ;
#153 = LENGTH_MEASURE_WITH_UNIT ( LENGTH_MEASURE( 0.02539999999999999897 ), #317 );
#154 = PRESENTATION_STYLE_ASSIGNMENT (( #32 ) ) ;
#155 = EDGE_CURVE ( 'NONE', #17, #192, #185, .T. ) ;
#156 = PLANE ( 'NONE',  #174 ) ;
#157 = AXIS2_PLACEMENT_3D ( 'NONE', #97, #188, #170 ) ;
#158 = DIRECTION ( 'NONE',  ( -0.000000000000000000, -1.000000000000000000, -0.000000000000000000 ) ) ;
#159 = ADVANCED_BREP_SHAPE_REPRESENTATION ( '49211', ( #162, #296, #130 ), #203 ) ;
#160 = SURFACE_STYLE_FILL_AREA ( #305 ) ;
#161 = SURFACE_STYLE_FILL_AREA ( #227 ) ;
#162 = MANIFOLD_SOLID_BREP ( 'Revolve - Cutting Edge', #230 ) ;
#163 = PRESENTATION_STYLE_ASSIGNMENT (( #19 ) ) ;
#164 = SPHERICAL_SURFACE ( 'NONE', #36, 0.1875000000000000555 ) ;
#165 = DIRECTION ( 'NONE',  ( 1.224646799147353207E-16, -0.000000000000000000, 1.000000000000000000 ) ) ;
#166 = STYLED_ITEM ( 'NONE', ( #252 ), #30 ) ;
#167 =( GEOMETRIC_REPRESENTATION_CONTEXT ( 3 ) GLOBAL_UNCERTAINTY_ASSIGNED_CONTEXT ( ( #182 ) ) GLOBAL_UNIT_ASSIGNED_CONTEXT ( ( #221, #23, #281 ) ) REPRESENTATION_CONTEXT ( 'NONE', 'WORKASPACE' ) );
#168 = CARTESIAN_POINT ( 'NONE',  ( -0.1874999999999999167, 2.500000000000000000, 0.000000000000000000 ) ) ;
#169 = DIRECTION ( 'NONE',  ( -1.224646799147353207E-16, 1.000000000000000000, -0.000000000000000000 ) ) ;
#170 = DIRECTION ( 'NONE',  ( -1.000000000000000000, 0.000000000000000000, 0.000000000000000000 ) ) ;
#171 = SURFACE_STYLE_FILL_AREA ( #24 ) ;
#172 = VERTEX_POINT ( 'NONE', #327 ) ;
#173 =( NAMED_UNIT ( * ) PLANE_ANGLE_UNIT ( ) SI_UNIT ( $, .RADIAN. ) );
#174 = AXIS2_PLACEMENT_3D ( 'NONE', #269, #134, #128 ) ;
#175 = PRODUCT_CONTEXT ( 'NONE', #10, 'mechanical' ) ;
#176 = VERTEX_POINT ( 'NONE', #249 ) ;
#177 = DIRECTION ( 'NONE',  ( 0.000000000000000000, 0.000000000000000000, -1.000000000000000000 ) ) ;
#178 = AXIS2_PLACEMENT_3D ( 'NONE', #75, #169, #133 ) ;
#179 = DIRECTION ( 'NONE',  ( 1.224646799147353207E-16, -1.000000000000000000, 0.000000000000000000 ) ) ;
#180 = VERTEX_POINT ( 'NONE', #11 ) ;
#181 = PRESENTATION_LAYER_ASSIGNMENT (  '', '', ( #184 ) ) ;
#182 = UNCERTAINTY_MEASURE_WITH_UNIT (LENGTH_MEASURE( 1.000000000000000082E-05 ), #221, 'distance_accuracy_value', 'NONE');
#183 = UNCERTAINTY_MEASURE_WITH_UNIT (LENGTH_MEASURE( 1.000000000000000082E-05 ), #304, 'distance_accuracy_value', 'NONE');
#184 = STYLED_ITEM ( 'NONE', ( #163 ), #150 ) ;
#185 = CIRCLE ( 'NONE', #69, 0.1874999999999999722 ) ;
#186 = DIRECTION ( 'NONE',  ( -0.000000000000000000, -1.000000000000000000, -0.000000000000000000 ) ) ;
#187 = DIRECTION ( 'NONE',  ( 0.000000000000000000, 0.000000000000000000, -1.000000000000000000 ) ) ;
#188 = DIRECTION ( 'NONE',  ( -1.224646799147353207E-16, 1.000000000000000000, -0.000000000000000000 ) ) ;
#189 = ORIENTED_EDGE ( 'NONE', *, *, #195, .F. ) ;
#190 =( LENGTH_UNIT ( ) NAMED_UNIT ( * ) SI_UNIT ( $, .METRE. ) );
#191 = LINE ( 'NONE', #311, #28 ) ;
#192 = VERTEX_POINT ( 'NONE', #68 ) ;
#193 = COLOUR_RGB ( '',1.000000000000000000, 0.000000000000000000, 0.000000000000000000 ) ;
#194 = CARTESIAN_POINT ( 'NONE',  ( -6.123233995736766036E-17, 2.500000000000000000, 0.000000000000000000 ) ) ;
#195 = EDGE_CURVE ( 'NONE', #353, #172, #287, .T. ) ;
#196 = ORIENTED_EDGE ( 'NONE', *, *, #109, .F. ) ;
#197 = ORIENTED_EDGE ( 'NONE', *, *, #67, .F. ) ;
#198 = DIRECTION ( 'NONE',  ( 0.000000000000000000, 0.000000000000000000, -1.000000000000000000 ) ) ;
#199 = AXIS2_PLACEMENT_3D ( 'NONE', #137, #223, #177 ) ;
#200 =( NAMED_UNIT ( * ) SI_UNIT ( $, .STERADIAN. ) SOLID_ANGLE_UNIT ( ) );
#201 = EDGE_LOOP ( 'NONE', ( #323, #117, #362, #99 ) ) ;
#202 = ADVANCED_FACE ( 'NONE', ( #310 ), #156, .F. ) ;
#203 =( GEOMETRIC_REPRESENTATION_CONTEXT ( 3 ) GLOBAL_UNCERTAINTY_ASSIGNED_CONTEXT ( ( #220 ) ) GLOBAL_UNIT_ASSIGNED_CONTEXT ( ( #345, #142, #200 ) ) REPRESENTATION_CONTEXT ( 'NONE', 'WORKASPACE' ) );
#204 = EDGE_LOOP ( 'NONE', ( #264, #4, #242, #34 ) ) ;
#205 = FILL_AREA_STYLE_COLOUR ( '', #193 ) ;
#206 = ORIENTED_EDGE ( 'NONE', *, *, #67, .T. ) ;
#207 = PRODUCT_DEFINITION_SHAPE ( 'NONE', 'NONE',  #255 ) ;
#208 =( LENGTH_UNIT ( ) NAMED_UNIT ( * ) SI_UNIT ( $, .METRE. ) );
#209 =( GEOMETRIC_REPRESENTATION_CONTEXT ( 3 ) GLOBAL_UNCERTAINTY_ASSIGNED_CONTEXT ( ( #14 ) ) GLOBAL_UNIT_ASSIGNED_CONTEXT ( ( #73, #18, #127 ) ) REPRESENTATION_CONTEXT ( 'NONE', 'WORKASPACE' ) );
#210 = FILL_AREA_STYLE ('',( #243 ) ) ;
#211 = FILL_AREA_STYLE_COLOUR ( '', #279 ) ;
#212 = SURFACE_STYLE_FILL_AREA ( #210 ) ;
#213 = DIRECTION ( 'NONE',  ( 0.000000000000000000, 0.000000000000000000, 1.000000000000000000 ) ) ;
#214 = EDGE_CURVE ( 'NONE', #115, #341, #125, .T. ) ;
#215 = EDGE_CURVE ( 'NONE', #351, #17, #8, .T. ) ;
#216 = AXIS2_PLACEMENT_3D ( 'NONE', #358, #78, #300 ) ;
#217 = CIRCLE ( 'NONE', #41, 0.1874999999999999722 ) ;
#218 = CYLINDRICAL_SURFACE ( 'NONE', #178, 0.1874999999999998335 ) ;
#219 = SURFACE_SIDE_STYLE ('',( #212 ) ) ;
#220 = UNCERTAINTY_MEASURE_WITH_UNIT (LENGTH_MEASURE( 1.000000000000000082E-05 ), #345, 'distance_accuracy_value', 'NONE');
#221 =( CONVERSION_BASED_UNIT ( 'INCH', #372 ) LENGTH_UNIT ( ) NAMED_UNIT ( #365 ) );
#222 = DIRECTION ( 'NONE',  ( 0.000000000000000000, 0.000000000000000000, 1.000000000000000000 ) ) ;
#223 = DIRECTION ( 'NONE',  ( -0.000000000000000000, -1.000000000000000000, -0.000000000000000000 ) ) ;
#224 = STYLED_ITEM ( 'NONE', ( #118 ), #162 ) ;
#225 = FILL_AREA_STYLE_COLOUR ( '', #303 ) ;
#226 = DIRECTION ( 'NONE',  ( -0.000000000000000000, -1.000000000000000000, -0.000000000000000000 ) ) ;
#227 = FILL_AREA_STYLE ('',( #225 ) ) ;
#228 = PLANE ( 'NONE',  #236 ) ;
#229 = CARTESIAN_POINT ( 'NONE',  ( -2.296212748401288034E-17, 0.1875000000000000555, 0.000000000000000000 ) ) ;
#230 = CLOSED_SHELL ( 'NONE', ( #66, #150, #244, #30, #288 ) ) ;
#231 = CARTESIAN_POINT ( 'NONE',  ( 0.000000000000000000, 0.000000000000000000, 0.000000000000000000 ) ) ;
#232 = ORIENTED_EDGE ( 'NONE', *, *, #120, .T. ) ;
#233 = EDGE_CURVE ( 'NONE', #39, #341, #266, .T. ) ;
#234 =( GEOMETRIC_REPRESENTATION_CONTEXT ( 3 ) GLOBAL_UNCERTAINTY_ASSIGNED_CONTEXT ( ( #183 ) ) GLOBAL_UNIT_ASSIGNED_CONTEXT ( ( #304, #43, #42 ) ) REPRESENTATION_CONTEXT ( 'NONE', 'WORKASPACE' ) );
#235 =( NAMED_UNIT ( * ) SI_UNIT ( $, .STERADIAN. ) SOLID_ANGLE_UNIT ( ) );
#236 = AXIS2_PLACEMENT_3D ( 'NONE', #112, #179, #295 ) ;
#237 =( GEOMETRIC_REPRESENTATION_CONTEXT ( 3 ) GLOBAL_UNCERTAINTY_ASSIGNED_CONTEXT ( ( #357 ) ) GLOBAL_UNIT_ASSIGNED_CONTEXT ( ( #59, #149, #235 ) ) REPRESENTATION_CONTEXT ( 'NONE', 'WORKASPACE' ) );
#238 = CARTESIAN_POINT ( 'NONE',  ( -2.296212748401288034E-17, 0.1875000000000000555, 0.000000000000000000 ) ) ;
#239 = FILL_AREA_STYLE_COLOUR ( '', #80 ) ;
#240 = FILL_AREA_STYLE ('',( #205 ) ) ;
#241 = VECTOR ( 'NONE', #186, 39.37007874015748143 ) ;
#242 = ORIENTED_EDGE ( 'NONE', *, *, #233, .F. ) ;
#243 = FILL_AREA_STYLE_COLOUR ( '', #319 ) ;
#244 = ADVANCED_FACE ( 'NONE', ( #272 ), #275, .T. ) ;
#245 = CARTESIAN_POINT ( 'NONE',  ( 0.000000000000000000, 1.000000000000000000, 0.000000000000000000 ) ) ;
#246 = AXIS2_PLACEMENT_3D ( 'NONE', #194, #314, #328 ) ;
#247 = DIRECTION ( 'NONE',  ( -1.224646799147353207E-16, 1.000000000000000000, -0.000000000000000000 ) ) ;
#248 = LENGTH_MEASURE_WITH_UNIT ( LENGTH_MEASURE( 0.02539999999999999897 ), #20 );
#249 = CARTESIAN_POINT ( 'NONE',  ( -1.148106374200644017E-17, 0.000000000000000000, 0.000000000000000000 ) ) ;
#250 =( NAMED_UNIT ( * ) SI_UNIT ( $, .STERADIAN. ) SOLID_ANGLE_UNIT ( ) );
#251 = FACE_OUTER_BOUND ( 'NONE', #132, .T. ) ;
#252 = PRESENTATION_STYLE_ASSIGNMENT (( #278 ) ) ;
#253 = AXIS2_PLACEMENT_3D ( 'NONE', #46, #213, #359 ) ;
#254 = CARTESIAN_POINT ( 'NONE',  ( 1.224646799147353454E-16, 1.000000000000000000, 0.000000000000000000 ) ) ;
#255 = PRODUCT_DEFINITION ( 'UNKNOWN', '', #262, #15 ) ;
#256 = APPLICATION_PROTOCOL_DEFINITION ( 'draft international standard', 'automotive_design', 1998, #33 ) ;
#257 = CARTESIAN_POINT ( 'NONE',  ( -0.1875000000000000278, 2.500000000000000000, 0.000000000000000000 ) ) ;
#258 = CARTESIAN_POINT ( 'NONE',  ( 0.1874999999999998890, 2.500000000000000000, 2.296212748401285877E-17 ) ) ;
#259 = LENGTH_MEASURE_WITH_UNIT ( LENGTH_MEASURE( 0.02539999999999999897 ), #355 );
#260 = VERTEX_POINT ( 'NONE', #104 ) ;
#261 = PRESENTATION_LAYER_ASSIGNMENT (  '', '', ( #166 ) ) ;
#262 = PRODUCT_DEFINITION_FORMATION_WITH_SPECIFIED_SOURCE ( 'ANY', '', #62, .NOT_KNOWN. ) ;
#263 = ORIENTED_EDGE ( 'NONE', *, *, #57, .F. ) ;
#264 = ORIENTED_EDGE ( 'NONE', *, *, #271, .T. ) ;
#265 = DIRECTION ( 'NONE',  ( -0.000000000000000000, -1.000000000000000000, -0.000000000000000000 ) ) ;
#266 = CIRCLE ( 'NONE', #113, 0.1874999999999999445 ) ;
#267 = ADVANCED_FACE ( 'NONE', ( #100 ), #218, .T. ) ;
#268 =( CONVERSION_BASED_UNIT ( 'INCH', #153 ) LENGTH_UNIT ( ) NAMED_UNIT ( #315 ) );
#269 = CARTESIAN_POINT ( 'NONE',  ( 1.224646799147353207E-16, 1.000000000000000000, 0.000000000000000000 ) ) ;
#270 = DIRECTION ( 'NONE',  ( -1.000000000000000000, 0.000000000000000000, 0.000000000000000000 ) ) ;
#271 = EDGE_CURVE ( 'NONE', #180, #115, #56, .T. ) ;
#272 = FACE_OUTER_BOUND ( 'NONE', #146, .T. ) ;
#273 = SURFACE_SIDE_STYLE ('',( #160 ) ) ;
#274 = PRESENTATION_STYLE_ASSIGNMENT (( #84 ) ) ;
#275 = PLANE ( 'NONE',  #313 ) ;
#276 = CARTESIAN_POINT ( 'NONE',  ( -2.296212748401288034E-17, 0.1875000000000000555, 0.000000000000000000 ) ) ;
#277 = AXIS2_PLACEMENT_3D ( 'NONE', #229, #165, #29 ) ;
#278 = SURFACE_STYLE_USAGE ( .BOTH. , #53 ) ;
#279 = COLOUR_RGB ( '',1.000000000000000000, 0.000000000000000000, 0.000000000000000000 ) ;
#280 = LINE ( 'NONE', #79, #241 ) ;
#281 =( NAMED_UNIT ( * ) SI_UNIT ( $, .STERADIAN. ) SOLID_ANGLE_UNIT ( ) );
#282 = LINE ( 'NONE', #168, #124 ) ;
#283 = DIMENSIONAL_EXPONENTS ( 1.000000000000000000, 0.000000000000000000, 0.000000000000000000, 0.000000000000000000, 0.000000000000000000, 0.000000000000000000, 0.000000000000000000 ) ;
#284 =( LENGTH_UNIT ( ) NAMED_UNIT ( * ) SI_UNIT ( $, .METRE. ) );
#285 = EDGE_LOOP ( 'NONE', ( #89, #141, #335, #90, #196 ) ) ;
#286 = EDGE_CURVE ( 'NONE', #172, #192, #191, .T. ) ;
#287 = CIRCLE ( 'NONE', #329, 0.1874999999999998890 ) ;
#288 = ADVANCED_FACE ( 'NONE', ( #339 ), #164, .T. ) ;
#289 = ORIENTED_EDGE ( 'NONE', *, *, #349, .T. ) ;
#290 = PRODUCT_RELATED_PRODUCT_CATEGORY ( 'part', '', ( #62 ) ) ;
#291 = SHAPE_DEFINITION_REPRESENTATION ( #207, #159 ) ;
#292 = CIRCLE ( 'NONE', #246, 0.1874999999999999445 ) ;
#293 = AXIS2_PLACEMENT_3D ( 'NONE', #37, #265, #147 ) ;
#294 = DIRECTION ( 'NONE',  ( 0.000000000000000000, 0.000000000000000000, -1.000000000000000000 ) ) ;
#295 = DIRECTION ( 'NONE',  ( 1.000000000000000000, 1.224646799147353207E-16, 0.000000000000000000 ) ) ;
#296 = MANIFOLD_SOLID_BREP ( 'Revolve - Tool Body (Straight Shanked)', #12 ) ;
#297 = ORIENTED_EDGE ( 'NONE', *, *, #45, .T. ) ;
#298 = DIRECTION ( 'NONE',  ( -0.000000000000000000, -1.000000000000000000, -0.000000000000000000 ) ) ;
#299 = MECHANICAL_DESIGN_GEOMETRIC_PRESENTATION_REPRESENTATION (  '', ( #151 ), #209 ) ;
#300 = DIRECTION ( 'NONE',  ( 0.000000000000000000, 0.000000000000000000, -1.000000000000000000 ) ) ;
#301 = LENGTH_MEASURE_WITH_UNIT ( LENGTH_MEASURE( 0.02539999999999999897 ), #190 );
#302 = CIRCLE ( 'NONE', #336, 0.1874999999999997780 ) ;
#303 = COLOUR_RGB ( '',0.7921568627450980005, 0.8196078431372548767, 0.9333333333333333481 ) ;
#304 =( CONVERSION_BASED_UNIT ( 'INCH', #331 ) LENGTH_UNIT ( ) NAMED_UNIT ( #337 ) );
#305 = FILL_AREA_STYLE ('',( #211 ) ) ;
#306 = DIRECTION ( 'NONE',  ( -0.000000000000000000, -1.000000000000000000, -0.000000000000000000 ) ) ;
#307 = FACE_OUTER_BOUND ( 'NONE', #285, .T. ) ;
#308 = FILL_AREA_STYLE_COLOUR ( '', #348 ) ;
#309 = FILL_AREA_STYLE ('',( #55 ) ) ;
#310 = FACE_OUTER_BOUND ( 'NONE', #111, .T. ) ;
#311 = CARTESIAN_POINT ( 'NONE',  ( 2.296212748401286185E-17, 0.000000000000000000, 0.1874999999999999167 ) ) ;
#312 = ORIENTED_EDGE ( 'NONE', *, *, #338, .F. ) ;
#313 = AXIS2_PLACEMENT_3D ( 'NONE', #245, #334, #360 ) ;
#314 = DIRECTION ( 'NONE',  ( -1.224646799147353207E-16, 1.000000000000000000, -0.000000000000000000 ) ) ;
#315 = DIMENSIONAL_EXPONENTS ( 1.000000000000000000, 0.000000000000000000, 0.000000000000000000, 0.000000000000000000, 0.000000000000000000, 0.000000000000000000, 0.000000000000000000 ) ;
#316 = ORIENTED_EDGE ( 'NONE', *, *, #155, .T. ) ;
#317 =( LENGTH_UNIT ( ) NAMED_UNIT ( * ) SI_UNIT ( $, .METRE. ) );
#318 = CARTESIAN_POINT ( 'NONE',  ( 0.1874999999999999722, 0.1875000000000000833, 0.000000000000000000 ) ) ;
#319 = COLOUR_RGB ( '',1.000000000000000000, 0.000000000000000000, 0.000000000000000000 ) ;
#320 = APPLICATION_PROTOCOL_DEFINITION ( 'draft international standard', 'automotive_design', 1998, #10 ) ;
#321 = CARTESIAN_POINT ( 'NONE',  ( 0.000000000000000000, 0.000000000000000000, 0.000000000000000000 ) ) ;
#322 = PRESENTATION_LAYER_ASSIGNMENT (  '', '', ( #71 ) ) ;
#323 = ORIENTED_EDGE ( 'NONE', *, *, #6, .F. ) ;
#324 = ORIENTED_EDGE ( 'NONE', *, *, #45, .F. ) ;
#325 = COLOUR_RGB ( '',1.000000000000000000, 0.000000000000000000, 0.000000000000000000 ) ;
#326 = UNCERTAINTY_MEASURE_WITH_UNIT (LENGTH_MEASURE( 1.000000000000000082E-05 ), #85, 'distance_accuracy_value', 'NONE');
#327 = CARTESIAN_POINT ( 'NONE',  ( 2.296212748401285877E-17, 1.000000000000000000, 0.1874999999999998890 ) ) ;
#328 = DIRECTION ( 'NONE',  ( -1.000000000000000000, 0.000000000000000000, 0.000000000000000000 ) ) ;
#329 = AXIS2_PLACEMENT_3D ( 'NONE', #122, #158, #187 ) ;
#330 = MECHANICAL_DESIGN_GEOMETRIC_PRESENTATION_REPRESENTATION (  '', ( #81 ), #237 ) ;
#331 = LENGTH_MEASURE_WITH_UNIT ( LENGTH_MEASURE( 0.02539999999999999897 ), #208 );
#332 = DIRECTION ( 'NONE',  ( -1.000000000000000000, 0.000000000000000000, 0.000000000000000000 ) ) ;
#333 = CARTESIAN_POINT ( 'NONE',  ( 0.1874999999999997780, 2.500000000000000000, 2.296212748401285260E-17 ) ) ;
#334 = DIRECTION ( 'NONE',  ( 0.000000000000000000, 1.000000000000000000, 0.000000000000000000 ) ) ;
#335 = ORIENTED_EDGE ( 'NONE', *, *, #155, .F. ) ;
#336 = AXIS2_PLACEMENT_3D ( 'NONE', #63, #366, #332 ) ;
#337 = DIMENSIONAL_EXPONENTS ( 1.000000000000000000, 0.000000000000000000, 0.000000000000000000, 0.000000000000000000, 0.000000000000000000, 0.000000000000000000, 0.000000000000000000 ) ;
#338 = EDGE_CURVE ( 'NONE', #260, #351, #217, .T. ) ;
#339 = FACE_OUTER_BOUND ( 'NONE', #201, .T. ) ;
#340 = EDGE_LOOP ( 'NONE', ( #26, #232 ) ) ;
#341 = VERTEX_POINT ( 'NONE', #258 ) ;
#342 = FACE_OUTER_BOUND ( 'NONE', #340, .T. ) ;
#343 = LENGTH_MEASURE_WITH_UNIT ( LENGTH_MEASURE( 0.02539999999999999897 ), #1 );
#344 =( NAMED_UNIT ( * ) SI_UNIT ( $, .STERADIAN. ) SOLID_ANGLE_UNIT ( ) );
#345 =( CONVERSION_BASED_UNIT ( 'INCH', #343 ) LENGTH_UNIT ( ) NAMED_UNIT ( #83 ) );
#346 = EDGE_LOOP ( 'NONE', ( #367, #206, #50, #370 ) ) ;
#347 = AXIS2_PLACEMENT_3D ( 'NONE', #321, #298, #40 ) ;
#348 = COLOUR_RGB ( '',1.000000000000000000, 0.000000000000000000, 0.000000000000000000 ) ;
#349 = EDGE_CURVE ( 'NONE', #192, #260, #139, .T. ) ;
#350 = CARTESIAN_POINT ( 'NONE',  ( 0.000000000000000000, 1.000000000000000000, -0.1874999999999998890 ) ) ;
#351 = VERTEX_POINT ( 'NONE', #7 ) ;
#352 = DIRECTION ( 'NONE',  ( 0.000000000000000000, 0.000000000000000000, -1.000000000000000000 ) ) ;
#353 = VERTEX_POINT ( 'NONE', #350 ) ;
#354 = FILL_AREA_STYLE ('',( #239 ) ) ;
#355 =( LENGTH_UNIT ( ) NAMED_UNIT ( * ) SI_UNIT ( $, .METRE. ) );
#356 = ADVANCED_FACE ( 'NONE', ( #342 ), #228, .F. ) ;
#357 = UNCERTAINTY_MEASURE_WITH_UNIT (LENGTH_MEASURE( 1.000000000000000082E-05 ), #59, 'distance_accuracy_value', 'NONE');
#358 = CARTESIAN_POINT ( 'NONE',  ( 0.000000000000000000, 0.1875000000000000833, 0.000000000000000000 ) ) ;
#359 = DIRECTION ( 'NONE',  ( 1.000000000000000000, 0.000000000000000000, 0.000000000000000000 ) ) ;
#360 = DIRECTION ( 'NONE',  ( 0.000000000000000000, -0.000000000000000000, 1.000000000000000000 ) ) ;
#361 = PRESENTATION_LAYER_ASSIGNMENT (  '', '', ( #151 ) ) ;
#362 = ORIENTED_EDGE ( 'NONE', *, *, #215, .T. ) ;
#363 = DIRECTION ( 'NONE',  ( -1.224646799147353207E-16, 1.000000000000000000, -0.000000000000000000 ) ) ;
#364 =( NAMED_UNIT ( * ) SI_UNIT ( $, .STERADIAN. ) SOLID_ANGLE_UNIT ( ) );
#365 = DIMENSIONAL_EXPONENTS ( 1.000000000000000000, 0.000000000000000000, 0.000000000000000000, 0.000000000000000000, 0.000000000000000000, 0.000000000000000000, 0.000000000000000000 ) ;
#366 = DIRECTION ( 'NONE',  ( -1.224646799147353207E-16, 1.000000000000000000, -0.000000000000000000 ) ) ;
#367 = ORIENTED_EDGE ( 'NONE', *, *, #214, .F. ) ;
#368 = DIMENSIONAL_EXPONENTS ( 1.000000000000000000, 0.000000000000000000, 0.000000000000000000, 0.000000000000000000, 0.000000000000000000, 0.000000000000000000, 0.000000000000000000 ) ;
#369 = DIRECTION ( 'NONE',  ( 1.000000000000000000, 0.000000000000000000, 0.000000000000000000 ) ) ;
#370 = ORIENTED_EDGE ( 'NONE', *, *, #120, .F. ) ;
#371 =( GEOMETRIC_REPRESENTATION_CONTEXT ( 3 ) GLOBAL_UNCERTAINTY_ASSIGNED_CONTEXT ( ( #131 ) ) GLOBAL_UNIT_ASSIGNED_CONTEXT ( ( #268, #123, #344 ) ) REPRESENTATION_CONTEXT ( 'NONE', 'WORKASPACE' ) );
#372 = LENGTH_MEASURE_WITH_UNIT ( LENGTH_MEASURE( 0.02539999999999999897 ), #284 );
#373 = ORIENTED_EDGE ( 'NONE', *, *, #6, .T. ) ;
ENDSEC;
END-ISO-10303-21;
