ISO-10303-21;
HEADER;
FILE_DESCRIPTION (( 'STEP AP214' ),
    '1' );
FILE_NAME ('83752.STEP',
    '2023-07-05T19:23:42',
    ( '' ),
    ( '' ),
    'SwSTEP 2.0',
    'SolidWorks 2023',
    '' );
FILE_SCHEMA (( 'AUTOMOTIVE_DESIGN' ));
ENDSEC;

DATA;
#1 = SHAPE_DEFINITION_REPRESENTATION ( #97, #9 ) ;
#2 = EDGE_CURVE ( 'NONE', #189, #296, #67, .T. ) ;
#3 =( NAMED_UNIT ( * ) SI_UNIT ( $, .STERADIAN. ) SOLID_ANGLE_UNIT ( ) );
#4 = ORIENTED_EDGE ( 'NONE', *, *, #2, .T. ) ;
#5 = VECTOR ( 'NONE', #261, 39.37007874015748143 ) ;
#6 = EDGE_CURVE ( 'NONE', #300, #129, #8, .T. ) ;
#7 = AXIS2_PLACEMENT_3D ( 'NONE', #192, #144, #341 ) ;
#8 = LINE ( 'NONE', #271, #50 ) ;
#9 = ADVANCED_BREP_SHAPE_REPRESENTATION ( '83752', ( #11, #244, #342 ), #178 ) ;
#10 = CIRCLE ( 'NONE', #330, 0.09374999999999998612 ) ;
#11 = MANIFOLD_SOLID_BREP ( 'Revolve - Cutting Edge', #316 ) ;
#12 = SURFACE_STYLE_FILL_AREA ( #33 ) ;
#13 = CARTESIAN_POINT ( 'NONE',  ( 0.000000000000000000, 0.000000000000000000, 0.000000000000000000 ) ) ;
#14 = AXIS2_PLACEMENT_3D ( 'NONE', #83, #168, #214 ) ;
#15 = STYLED_ITEM ( 'NONE', ( #281 ), #57 ) ;
#16 = FILL_AREA_STYLE ('',( #90 ) ) ;
#17 = FILL_AREA_STYLE ('',( #165 ) ) ;
#18 = CARTESIAN_POINT ( 'NONE',  ( 1.067128122525102851E-16, 0.6250000000000000000, 0.000000000000000000 ) ) ;
#19 =( NAMED_UNIT ( * ) SI_UNIT ( $, .STERADIAN. ) SOLID_ANGLE_UNIT ( ) );
#20 = STYLED_ITEM ( 'NONE', ( #79 ), #244 ) ;
#21 = CARTESIAN_POINT ( 'NONE',  ( -0.09375000000000012490, 2.000000000000000000, 0.000000000000000000 ) ) ;
#22 = DIRECTION ( 'NONE',  ( 0.000000000000000000, 0.000000000000000000, 1.000000000000000000 ) ) ;
#23 =( GEOMETRIC_REPRESENTATION_CONTEXT ( 3 ) GLOBAL_UNCERTAINTY_ASSIGNED_CONTEXT ( ( #124 ) ) GLOBAL_UNIT_ASSIGNED_CONTEXT ( ( #285, #89, #115 ) ) REPRESENTATION_CONTEXT ( 'NONE', 'WORKASPACE' ) );
#24 = CARTESIAN_POINT ( 'NONE',  ( 0.09374999999999998612, 2.000000000000000000, 0.000000000000000000 ) ) ;
#25 = ORIENTED_EDGE ( 'NONE', *, *, #6, .F. ) ;
#26 = APPLICATION_PROTOCOL_DEFINITION ( 'draft international standard', 'automotive_design', 1998, #204 ) ;
#27 = SURFACE_STYLE_USAGE ( .BOTH. , #238 ) ;
#28 = DIRECTION ( 'NONE',  ( 0.000000000000000000, 1.000000000000000000, 0.000000000000000000 ) ) ;
#29 = ORIENTED_EDGE ( 'NONE', *, *, #103, .T. ) ;
#30 = EDGE_LOOP ( 'NONE', ( #211, #243, #29 ) ) ;
#31 = ORIENTED_EDGE ( 'NONE', *, *, #213, .F. ) ;
#32 = EDGE_LOOP ( 'NONE', ( #82, #334, #153, #70 ) ) ;
#33 = FILL_AREA_STYLE ('',( #55 ) ) ;
#34 = DIMENSIONAL_EXPONENTS ( 1.000000000000000000, 0.000000000000000000, 0.000000000000000000, 0.000000000000000000, 0.000000000000000000, 0.000000000000000000, 0.000000000000000000 ) ;
#35 = CARTESIAN_POINT ( 'NONE',  ( 0.000000000000000000, 0.09374999999999966693, 0.000000000000000000 ) ) ;
#36 = COLOUR_RGB ( '',0.7921568627450980005, 0.8196078431372548767, 0.9333333333333333481 ) ;
#37 =( NAMED_UNIT ( * ) SI_UNIT ( $, .STERADIAN. ) SOLID_ANGLE_UNIT ( ) );
#38 = CYLINDRICAL_SURFACE ( 'NONE', #268, 0.09374999999999997224 ) ;
#39 = EDGE_CURVE ( 'NONE', #319, #187, #106, .T. ) ;
#40 = SURFACE_STYLE_USAGE ( .BOTH. , #255 ) ;
#41 = DIRECTION ( 'NONE',  ( 0.000000000000000000, 0.000000000000000000, -1.000000000000000000 ) ) ;
#42 = AXIS2_PLACEMENT_3D ( 'NONE', #350, #320, #207 ) ;
#43 = EDGE_CURVE ( 'NONE', #49, #186, #185, .T. ) ;
#44 = DIRECTION ( 'NONE',  ( 0.000000000000000000, 0.000000000000000000, -1.000000000000000000 ) ) ;
#45 = PLANE ( 'NONE',  #161 ) ;
#46 = ORIENTED_EDGE ( 'NONE', *, *, #39, .F. ) ;
#47 = APPLICATION_PROTOCOL_DEFINITION ( 'draft international standard', 'automotive_design', 1998, #121 ) ;
#48 = FILL_AREA_STYLE ('',( #182 ) ) ;
#49 = VERTEX_POINT ( 'NONE', #216 ) ;
#50 = VECTOR ( 'NONE', #246, 39.37007874015748143 ) ;
#51 = DIRECTION ( 'NONE',  ( 1.000000000000000000, 1.221419288799112129E-16, 0.000000000000000000 ) ) ;
#52 = DIRECTION ( 'NONE',  ( 8.659560562354947649E-17, 0.7071067811865462405, -0.7071067811865486830 ) ) ;
#53 = COLOUR_RGB ( '',1.000000000000000000, 0.000000000000000000, 0.000000000000000000 ) ;
#54 = EDGE_LOOP ( 'NONE', ( #25, #167, #290, #303 ) ) ;
#55 = FILL_AREA_STYLE_COLOUR ( '', #348 ) ;
#56 = ORIENTED_EDGE ( 'NONE', *, *, #284, .T. ) ;
#57 = ADVANCED_FACE ( 'NONE', ( #219 ), #331, .T. ) ;
#58 = EDGE_CURVE ( 'NONE', #296, #189, #301, .T. ) ;
#59 = DIRECTION ( 'NONE',  ( -1.000000000000000000, 0.000000000000000000, 0.000000000000000000 ) ) ;
#60 = DIRECTION ( 'NONE',  ( -1.000000000000000000, 0.000000000000000000, 0.000000000000000000 ) ) ;
#61 = DIRECTION ( 'NONE',  ( -0.000000000000000000, -1.000000000000000000, -0.000000000000000000 ) ) ;
#62 = CIRCLE ( 'NONE', #257, 0.09374999999999998612 ) ;
#63 = SURFACE_STYLE_USAGE ( .BOTH. , #199 ) ;
#64 =( CONVERSION_BASED_UNIT ( 'INCH', #226 ) LENGTH_UNIT ( ) NAMED_UNIT ( #327 ) );
#65 = CARTESIAN_POINT ( 'NONE',  ( -0.09374999999999979183, 0.6250000000000000000, 0.000000000000000000 ) ) ;
#66 = DIRECTION ( 'NONE',  ( -0.000000000000000000, -1.000000000000000000, -0.000000000000000000 ) ) ;
#67 = CIRCLE ( 'NONE', #14, 0.09375000000000005551 ) ;
#68 = MECHANICAL_DESIGN_GEOMETRIC_PRESENTATION_REPRESENTATION (  '', ( #15 ), #23 ) ;
#69 = DIRECTION ( 'NONE',  ( -0.000000000000000000, -1.000000000000000000, -0.000000000000000000 ) ) ;
#70 = ORIENTED_EDGE ( 'NONE', *, *, #287, .F. ) ;
#71 = UNCERTAINTY_MEASURE_WITH_UNIT (LENGTH_MEASURE( 1.000000000000000082E-05 ), #191, 'distance_accuracy_value', 'NONE');
#72 = ADVANCED_FACE ( 'NONE', ( #339 ), #130, .T. ) ;
#73 = CARTESIAN_POINT ( 'NONE',  ( 1.067128122525102851E-16, 0.6250000000000000000, 0.000000000000000000 ) ) ;
#74 = LINE ( 'NONE', #96, #131 ) ;
#75 = CARTESIAN_POINT ( 'NONE',  ( 0.09374999999999998612, 0.6250000000000000000, 1.148106374200643863E-17 ) ) ;
#76 = CARTESIAN_POINT ( 'NONE',  ( 1.148106374200643401E-17, 0.09374999999999966693, 0.09374999999999998612 ) ) ;
#77 = ORIENTED_EDGE ( 'NONE', *, *, #58, .T. ) ;
#78 = CARTESIAN_POINT ( 'NONE',  ( 0.000000000000000000, 0.000000000000000000, 0.000000000000000000 ) ) ;
#79 = PRESENTATION_STYLE_ASSIGNMENT (( #164 ) ) ;
#80 = ORIENTED_EDGE ( 'NONE', *, *, #284, .F. ) ;
#81 = EDGE_CURVE ( 'NONE', #129, #186, #311, .T. ) ;
#82 = ORIENTED_EDGE ( 'NONE', *, *, #39, .T. ) ;
#83 = CARTESIAN_POINT ( 'NONE',  ( -6.123233995736763571E-17, 2.000000000000000000, 0.000000000000000000 ) ) ;
#84 = PRESENTATION_LAYER_ASSIGNMENT (  '', '', ( #205 ) ) ;
#85 = LENGTH_MEASURE_WITH_UNIT ( LENGTH_MEASURE( 0.02539999999999999897 ), #169 );
#86 = DIMENSIONAL_EXPONENTS ( 1.000000000000000000, 0.000000000000000000, 0.000000000000000000, 0.000000000000000000, 0.000000000000000000, 0.000000000000000000, 0.000000000000000000 ) ;
#87 = PRODUCT_DEFINITION_CONTEXT ( 'detailed design', #204, 'design' ) ;
#88 = DIRECTION ( 'NONE',  ( 0.000000000000000000, 0.000000000000000000, 1.000000000000000000 ) ) ;
#89 =( NAMED_UNIT ( * ) PLANE_ANGLE_UNIT ( ) SI_UNIT ( $, .RADIAN. ) );
#90 = FILL_AREA_STYLE_COLOUR ( '', #269 ) ;
#91 = DIRECTION ( 'NONE',  ( 0.000000000000000000, 0.000000000000000000, -1.000000000000000000 ) ) ;
#92 =( NAMED_UNIT ( * ) SI_UNIT ( $, .STERADIAN. ) SOLID_ANGLE_UNIT ( ) );
#93 = SURFACE_STYLE_FILL_AREA ( #48 ) ;
#94 = AXIS2_PLACEMENT_3D ( 'NONE', #289, #69, #44 ) ;
#95 = MECHANICAL_DESIGN_GEOMETRIC_PRESENTATION_REPRESENTATION (  '', ( #137 ), #198 ) ;
#96 = CARTESIAN_POINT ( 'NONE',  ( -0.09375000000000004163, 2.000000000000000000, 0.000000000000000000 ) ) ;
#97 = PRODUCT_DEFINITION_SHAPE ( 'NONE', 'NONE',  #308 ) ;
#98 = DIRECTION ( 'NONE',  ( -1.000000000000000000, 0.000000000000000000, 0.000000000000000000 ) ) ;
#99 = EDGE_CURVE ( 'NONE', #49, #129, #170, .T. ) ;
#100 = EDGE_LOOP ( 'NONE', ( #77, #4 ) ) ;
#101 = CARTESIAN_POINT ( 'NONE',  ( 0.000000000000000000, 0.000000000000000000, -0.09374999999999998612 ) ) ;
#102 = EDGE_LOOP ( 'NONE', ( #184, #133, #276, #31 ) ) ;
#103 = EDGE_CURVE ( 'NONE', #186, #129, #10, .T. ) ;
#104 =( CONVERSION_BASED_UNIT ( 'INCH', #270 ) LENGTH_UNIT ( ) NAMED_UNIT ( #86 ) );
#105 = CARTESIAN_POINT ( 'NONE',  ( 1.067128122525102851E-16, 0.6250000000000000000, 0.000000000000000000 ) ) ;
#106 = CIRCLE ( 'NONE', #155, 0.09374999999999988898 ) ;
#107 = SURFACE_SIDE_STYLE ('',( #138 ) ) ;
#108 = MECHANICAL_DESIGN_GEOMETRIC_PRESENTATION_REPRESENTATION (  '', ( #205 ), #223 ) ;
#109 = SURFACE_STYLE_USAGE ( .BOTH. , #139 ) ;
#110 = DIMENSIONAL_EXPONENTS ( 1.000000000000000000, 0.000000000000000000, 0.000000000000000000, 0.000000000000000000, 0.000000000000000000, 0.000000000000000000, 0.000000000000000000 ) ;
#111 = ADVANCED_FACE ( 'NONE', ( #310 ), #38, .T. ) ;
#112 = LENGTH_MEASURE_WITH_UNIT ( LENGTH_MEASURE( 0.02539999999999999897 ), #220 );
#113 = FACE_OUTER_BOUND ( 'NONE', #302, .T. ) ;
#114 = VECTOR ( 'NONE', #125, 39.37007874015748143 ) ;
#115 =( NAMED_UNIT ( * ) SI_UNIT ( $, .STERADIAN. ) SOLID_ANGLE_UNIT ( ) );
#116 = SURFACE_STYLE_FILL_AREA ( #16 ) ;
#117 = FILL_AREA_STYLE ('',( #200 ) ) ;
#118 = DIRECTION ( 'NONE',  ( 0.000000000000000000, 1.000000000000000000, 0.000000000000000000 ) ) ;
#119 = VECTOR ( 'NONE', #253, 39.37007874015748854 ) ;
#120 = CYLINDRICAL_SURFACE ( 'NONE', #7, 0.09374999999999998612 ) ;
#121 = APPLICATION_CONTEXT ( 'automotive_design' ) ;
#122 = CARTESIAN_POINT ( 'NONE',  ( 0.000000000000000000, 0.000000000000000000, 0.000000000000000000 ) ) ;
#123 = FACE_OUTER_BOUND ( 'NONE', #32, .T. ) ;
#124 = UNCERTAINTY_MEASURE_WITH_UNIT (LENGTH_MEASURE( 1.000000000000000082E-05 ), #285, 'distance_accuracy_value', 'NONE');
#125 = DIRECTION ( 'NONE',  ( -1.221419288799112129E-16, 1.000000000000000000, -0.000000000000000000 ) ) ;
#126 = EDGE_LOOP ( 'NONE', ( #267, #351, #160 ) ) ;
#127 = LENGTH_MEASURE_WITH_UNIT ( LENGTH_MEASURE( 0.02539999999999999897 ), #291 );
#128 =( NAMED_UNIT ( * ) PLANE_ANGLE_UNIT ( ) SI_UNIT ( $, .RADIAN. ) );
#129 = VERTEX_POINT ( 'NONE', #76 ) ;
#130 = CONICAL_SURFACE ( 'NONE', #349, 39.37007874015762354, 0.7853981633974500554 ) ;
#131 = VECTOR ( 'NONE', #180, 39.37007874015748143 ) ;
#132 = FILL_AREA_STYLE ('',( #305 ) ) ;
#133 = ORIENTED_EDGE ( 'NONE', *, *, #6, .T. ) ;
#134 = VECTOR ( 'NONE', #52, 39.37007874015748854 ) ;
#135 = DIMENSIONAL_EXPONENTS ( 1.000000000000000000, 0.000000000000000000, 0.000000000000000000, 0.000000000000000000, 0.000000000000000000, 0.000000000000000000, 0.000000000000000000 ) ;
#136 = VERTEX_POINT ( 'NONE', #183 ) ;
#137 = STYLED_ITEM ( 'NONE', ( #307 ), #282 ) ;
#138 = SURFACE_STYLE_FILL_AREA ( #132 ) ;
#139 = SURFACE_SIDE_STYLE ('',( #12 ) ) ;
#140 = LENGTH_MEASURE_WITH_UNIT ( LENGTH_MEASURE( 0.02539999999999999897 ), #201 );
#141 =( NAMED_UNIT ( * ) PLANE_ANGLE_UNIT ( ) SI_UNIT ( $, .RADIAN. ) );
#142 = DIRECTION ( 'NONE',  ( -1.221419288799112129E-16, 1.000000000000000000, -0.000000000000000000 ) ) ;
#143 = AXIS2_PLACEMENT_3D ( 'NONE', #152, #346, #203 ) ;
#144 = DIRECTION ( 'NONE',  ( -0.000000000000000000, -1.000000000000000000, -0.000000000000000000 ) ) ;
#145 =( LENGTH_UNIT ( ) NAMED_UNIT ( * ) SI_UNIT ( $, .METRE. ) );
#146 =( NAMED_UNIT ( * ) PLANE_ANGLE_UNIT ( ) SI_UNIT ( $, .RADIAN. ) );
#147 = SURFACE_STYLE_FILL_AREA ( #117 ) ;
#148 = FILL_AREA_STYLE ('',( #314 ) ) ;
#149 = STYLED_ITEM ( 'NONE', ( #345 ), #266 ) ;
#150 =( NAMED_UNIT ( * ) PLANE_ANGLE_UNIT ( ) SI_UNIT ( $, .RADIAN. ) );
#151 = DIRECTION ( 'NONE',  ( -1.000000000000000000, 0.000000000000000000, 0.000000000000000000 ) ) ;
#152 = CARTESIAN_POINT ( 'NONE',  ( 0.000000000000000000, 39.37007874015748143, 0.000000000000000000 ) ) ;
#153 = ORIENTED_EDGE ( 'NONE', *, *, #58, .F. ) ;
#154 = UNCERTAINTY_MEASURE_WITH_UNIT (LENGTH_MEASURE( 1.000000000000000082E-05 ), #248, 'distance_accuracy_value', 'NONE');
#155 = AXIS2_PLACEMENT_3D ( 'NONE', #105, #162, #59 ) ;
#156 = AXIS2_PLACEMENT_3D ( 'NONE', #73, #259, #151 ) ;
#157 = PRODUCT_CONTEXT ( 'NONE', #121, 'mechanical' ) ;
#158 =( LENGTH_UNIT ( ) NAMED_UNIT ( * ) SI_UNIT ( $, .METRE. ) );
#159 = LENGTH_MEASURE_WITH_UNIT ( LENGTH_MEASURE( 0.02539999999999999897 ), #158 );
#160 = ORIENTED_EDGE ( 'NONE', *, *, #81, .T. ) ;
#161 = AXIS2_PLACEMENT_3D ( 'NONE', #24, #215, #51 ) ;
#162 = DIRECTION ( 'NONE',  ( -1.221419288799112129E-16, 1.000000000000000000, -0.000000000000000000 ) ) ;
#163 = EDGE_LOOP ( 'NONE', ( #332, #56, #306, #323 ) ) ;
#164 = SURFACE_STYLE_USAGE ( .BOTH. , #107 ) ;
#165 = FILL_AREA_STYLE_COLOUR ( '', #177 ) ;
#166 = CONICAL_SURFACE ( 'NONE', #143, 39.37007874015762354, 0.7853981633974500554 ) ;
#167 = ORIENTED_EDGE ( 'NONE', *, *, #258, .T. ) ;
#168 = DIRECTION ( 'NONE',  ( -1.221419288799112129E-16, 1.000000000000000000, -0.000000000000000000 ) ) ;
#169 =( LENGTH_UNIT ( ) NAMED_UNIT ( * ) SI_UNIT ( $, .METRE. ) );
#170 = LINE ( 'NONE', #277, #119 ) ;
#171 =( GEOMETRIC_REPRESENTATION_CONTEXT ( 3 ) GLOBAL_UNCERTAINTY_ASSIGNED_CONTEXT ( ( #71 ) ) GLOBAL_UNIT_ASSIGNED_CONTEXT ( ( #191, #141, #328 ) ) REPRESENTATION_CONTEXT ( 'NONE', 'WORKASPACE' ) );
#172 = CARTESIAN_POINT ( 'NONE',  ( 0.000000000000000000, 39.37007874015748143, 0.000000000000000000 ) ) ;
#173 = EDGE_CURVE ( 'NONE', #187, #189, #263, .T. ) ;
#174 = PRESENTATION_STYLE_ASSIGNMENT (( #313 ) ) ;
#175 =( CONVERSION_BASED_UNIT ( 'INCH', #127 ) LENGTH_UNIT ( ) NAMED_UNIT ( #333 ) );
#176 =( NAMED_UNIT ( * ) PLANE_ANGLE_UNIT ( ) SI_UNIT ( $, .RADIAN. ) );
#177 = COLOUR_RGB ( '',1.000000000000000000, 0.000000000000000000, 0.000000000000000000 ) ;
#178 =( GEOMETRIC_REPRESENTATION_CONTEXT ( 3 ) GLOBAL_UNCERTAINTY_ASSIGNED_CONTEXT ( ( #337 ) ) GLOBAL_UNIT_ASSIGNED_CONTEXT ( ( #175, #150, #3 ) ) REPRESENTATION_CONTEXT ( 'NONE', 'WORKASPACE' ) );
#179 =( NAMED_UNIT ( * ) SI_UNIT ( $, .STERADIAN. ) SOLID_ANGLE_UNIT ( ) );
#180 = DIRECTION ( 'NONE',  ( -1.221419288799112129E-16, 1.000000000000000000, -0.000000000000000000 ) ) ;
#181 = PRESENTATION_LAYER_ASSIGNMENT (  '', '', ( #15 ) ) ;
#182 = FILL_AREA_STYLE_COLOUR ( '', #53 ) ;
#183 = CARTESIAN_POINT ( 'NONE',  ( 0.000000000000000000, 0.6250000000000000000, -0.09374999999999998612 ) ) ;
#184 = ORIENTED_EDGE ( 'NONE', *, *, #227, .T. ) ;
#185 = LINE ( 'NONE', #78, #134 ) ;
#186 = VERTEX_POINT ( 'NONE', #317 ) ;
#187 = VERTEX_POINT ( 'NONE', #75 ) ;
#188 = PRODUCT ( '83752', '83752', '', ( #157 ) ) ;
#189 = VERTEX_POINT ( 'NONE', #265 ) ;
#190 = PRESENTATION_LAYER_ASSIGNMENT (  '', '', ( #149 ) ) ;
#191 =( CONVERSION_BASED_UNIT ( 'INCH', #112 ) LENGTH_UNIT ( ) NAMED_UNIT ( #229 ) );
#192 = CARTESIAN_POINT ( 'NONE',  ( 0.000000000000000000, 0.000000000000000000, 0.000000000000000000 ) ) ;
#193 = LENGTH_MEASURE_WITH_UNIT ( LENGTH_MEASURE( 0.02539999999999999897 ), #145 );
#194 = DIRECTION ( 'NONE',  ( 0.000000000000000000, 0.000000000000000000, -1.000000000000000000 ) ) ;
#195 = CARTESIAN_POINT ( 'NONE',  ( 0.000000000000000000, 0.6250000000000000000, 0.000000000000000000 ) ) ;
#196 = SURFACE_SIDE_STYLE ('',( #147 ) ) ;
#197 = AXIS2_PLACEMENT_3D ( 'NONE', #13, #315, #41 ) ;
#198 =( GEOMETRIC_REPRESENTATION_CONTEXT ( 3 ) GLOBAL_UNCERTAINTY_ASSIGNED_CONTEXT ( ( #224 ) ) GLOBAL_UNIT_ASSIGNED_CONTEXT ( ( #209, #347, #92 ) ) REPRESENTATION_CONTEXT ( 'NONE', 'WORKASPACE' ) );
#199 = SURFACE_SIDE_STYLE ('',( #116 ) ) ;
#200 = FILL_AREA_STYLE_COLOUR ( '', #324 ) ;
#201 =( LENGTH_UNIT ( ) NAMED_UNIT ( * ) SI_UNIT ( $, .METRE. ) );
#202 = SURFACE_STYLE_FILL_AREA ( #17 ) ;
#203 = DIRECTION ( 'NONE',  ( 0.000000000000000000, 0.000000000000000000, 1.000000000000000000 ) ) ;
#204 = APPLICATION_CONTEXT ( 'automotive_design' ) ;
#205 = STYLED_ITEM ( 'NONE', ( #174 ), #72 ) ;
#206 = CARTESIAN_POINT ( 'NONE',  ( 1.148106374200643401E-17, 0.6250000000000000000, 0.09374999999999998612 ) ) ;
#207 = DIRECTION ( 'NONE',  ( -1.000000000000000000, 0.000000000000000000, 0.000000000000000000 ) ) ;
#208 = UNCERTAINTY_MEASURE_WITH_UNIT (LENGTH_MEASURE( 1.000000000000000082E-05 ), #64, 'distance_accuracy_value', 'NONE');
#209 =( CONVERSION_BASED_UNIT ( 'INCH', #140 ) LENGTH_UNIT ( ) NAMED_UNIT ( #110 ) );
#210 = LINE ( 'NONE', #101, #5 ) ;
#211 = ORIENTED_EDGE ( 'NONE', *, *, #99, .F. ) ;
#212 = CARTESIAN_POINT ( 'NONE',  ( -6.123233995736763571E-17, 2.000000000000000000, 0.000000000000000000 ) ) ;
#213 = EDGE_CURVE ( 'NONE', #136, #186, #210, .T. ) ;
#214 = DIRECTION ( 'NONE',  ( -1.000000000000000000, 0.000000000000000000, 0.000000000000000000 ) ) ;
#215 = DIRECTION ( 'NONE',  ( 1.221419288799112129E-16, -1.000000000000000000, 0.000000000000000000 ) ) ;
#216 = CARTESIAN_POINT ( 'NONE',  ( 0.000000000000000000, 0.000000000000000000, 0.000000000000000000 ) ) ;
#217 = MECHANICAL_DESIGN_GEOMETRIC_PRESENTATION_REPRESENTATION (  '', ( #329 ), #171 ) ;
#218 = CIRCLE ( 'NONE', #156, 0.09374999999999988898 ) ;
#219 = FACE_OUTER_BOUND ( 'NONE', #102, .T. ) ;
#220 =( LENGTH_UNIT ( ) NAMED_UNIT ( * ) SI_UNIT ( $, .METRE. ) );
#221 = ADVANCED_FACE ( 'NONE', ( #298 ), #166, .T. ) ;
#222 = CLOSED_SHELL ( 'NONE', ( #234, #245, #111, #240 ) ) ;
#223 =( GEOMETRIC_REPRESENTATION_CONTEXT ( 3 ) GLOBAL_UNCERTAINTY_ASSIGNED_CONTEXT ( ( #208 ) ) GLOBAL_UNIT_ASSIGNED_CONTEXT ( ( #64, #176, #19 ) ) REPRESENTATION_CONTEXT ( 'NONE', 'WORKASPACE' ) );
#224 = UNCERTAINTY_MEASURE_WITH_UNIT (LENGTH_MEASURE( 1.000000000000000082E-05 ), #209, 'distance_accuracy_value', 'NONE');
#225 = CARTESIAN_POINT ( 'NONE',  ( -6.123233995736763571E-17, 2.000000000000000000, 0.000000000000000000 ) ) ;
#226 = LENGTH_MEASURE_WITH_UNIT ( LENGTH_MEASURE( 0.02539999999999999897 ), #256 );
#227 = EDGE_CURVE ( 'NONE', #136, #300, #274, .T. ) ;
#228 = SURFACE_SIDE_STYLE ('',( #202 ) ) ;
#229 = DIMENSIONAL_EXPONENTS ( 1.000000000000000000, 0.000000000000000000, 0.000000000000000000, 0.000000000000000000, 0.000000000000000000, 0.000000000000000000, 0.000000000000000000 ) ;
#230 = PLANE ( 'NONE',  #288 ) ;
#231 = CARTESIAN_POINT ( 'NONE',  ( 0.000000000000000000, 0.09374999999999966693, 0.000000000000000000 ) ) ;
#232 = MECHANICAL_DESIGN_GEOMETRIC_PRESENTATION_REPRESENTATION (  '', ( #318 ), #340 ) ;
#233 = PRODUCT_DEFINITION_FORMATION_WITH_SPECIFIED_SOURCE ( 'ANY', '', #188, .NOT_KNOWN. ) ;
#234 = ADVANCED_FACE ( 'NONE', ( #123 ), #236, .T. ) ;
#235 = DIRECTION ( 'NONE',  ( 1.000000000000000000, 0.000000000000000000, 0.000000000000000000 ) ) ;
#236 = CYLINDRICAL_SURFACE ( 'NONE', #42, 0.09374999999999997224 ) ;
#237 = AXIS2_PLACEMENT_3D ( 'NONE', #225, #142, #60 ) ;
#238 = SURFACE_SIDE_STYLE ('',( #93 ) ) ;
#239 = UNCERTAINTY_MEASURE_WITH_UNIT (LENGTH_MEASURE( 1.000000000000000082E-05 ), #294, 'distance_accuracy_value', 'NONE');
#240 = ADVANCED_FACE ( 'NONE', ( #292 ), #45, .F. ) ;
#241 = PRESENTATION_LAYER_ASSIGNMENT (  '', '', ( #20 ) ) ;
#242 =( GEOMETRIC_REPRESENTATION_CONTEXT ( 3 ) GLOBAL_UNCERTAINTY_ASSIGNED_CONTEXT ( ( #154 ) ) GLOBAL_UNIT_ASSIGNED_CONTEXT ( ( #248, #146, #37 ) ) REPRESENTATION_CONTEXT ( 'NONE', 'WORKASPACE' ) );
#243 = ORIENTED_EDGE ( 'NONE', *, *, #43, .T. ) ;
#244 = MANIFOLD_SOLID_BREP ( 'Revolve - Tool Body (Straight Shanked)', #222 ) ;
#245 = ADVANCED_FACE ( 'NONE', ( #113 ), #299, .F. ) ;
#246 = DIRECTION ( 'NONE',  ( -0.000000000000000000, -1.000000000000000000, -0.000000000000000000 ) ) ;
#247 = PRESENTATION_STYLE_ASSIGNMENT (( #109 ) ) ;
#248 =( CONVERSION_BASED_UNIT ( 'INCH', #85 ) LENGTH_UNIT ( ) NAMED_UNIT ( #34 ) );
#249 = AXIS2_PLACEMENT_3D ( 'NONE', #18, #278, #280 ) ;
#250 = SURFACE_STYLE_FILL_AREA ( #148 ) ;
#251 = PRESENTATION_LAYER_ASSIGNMENT (  '', '', ( #318 ) ) ;
#252 = FACE_OUTER_BOUND ( 'NONE', #326, .T. ) ;
#253 = DIRECTION ( 'NONE',  ( 0.000000000000000000, 0.7071067811865462405, 0.7071067811865486830 ) ) ;
#254 =( NAMED_UNIT ( * ) PLANE_ANGLE_UNIT ( ) SI_UNIT ( $, .RADIAN. ) );
#255 = SURFACE_SIDE_STYLE ('',( #250 ) ) ;
#256 =( LENGTH_UNIT ( ) NAMED_UNIT ( * ) SI_UNIT ( $, .METRE. ) );
#257 = AXIS2_PLACEMENT_3D ( 'NONE', #195, #61, #338 ) ;
#258 = EDGE_CURVE ( 'NONE', #300, #136, #62, .T. ) ;
#259 = DIRECTION ( 'NONE',  ( -1.221419288799112129E-16, 1.000000000000000000, -0.000000000000000000 ) ) ;
#260 = DIRECTION ( 'NONE',  ( 0.000000000000000000, -0.000000000000000000, 1.000000000000000000 ) ) ;
#261 = DIRECTION ( 'NONE',  ( -0.000000000000000000, -1.000000000000000000, -0.000000000000000000 ) ) ;
#262 = PRESENTATION_LAYER_ASSIGNMENT (  '', '', ( #329 ) ) ;
#263 = LINE ( 'NONE', #325, #114 ) ;
#264 = CARTESIAN_POINT ( 'NONE',  ( 0.000000000000000000, 0.6250000000000000000, 0.000000000000000000 ) ) ;
#265 = CARTESIAN_POINT ( 'NONE',  ( 0.09374999999999998612, 2.000000000000000000, 1.148106374200643863E-17 ) ) ;
#266 = ADVANCED_FACE ( 'NONE', ( #312 ), #120, .T. ) ;
#267 = ORIENTED_EDGE ( 'NONE', *, *, #43, .F. ) ;
#268 = AXIS2_PLACEMENT_3D ( 'NONE', #212, #322, #98 ) ;
#269 = COLOUR_RGB ( '',1.000000000000000000, 0.000000000000000000, 0.000000000000000000 ) ;
#270 = LENGTH_MEASURE_WITH_UNIT ( LENGTH_MEASURE( 0.02539999999999999897 ), #272 );
#271 = CARTESIAN_POINT ( 'NONE',  ( 1.148106374200643401E-17, 0.000000000000000000, 0.09374999999999998612 ) ) ;
#272 =( LENGTH_UNIT ( ) NAMED_UNIT ( * ) SI_UNIT ( $, .METRE. ) );
#273 = ORIENTED_EDGE ( 'NONE', *, *, #227, .F. ) ;
#274 = CIRCLE ( 'NONE', #94, 0.09374999999999998612 ) ;
#275 = ORIENTED_EDGE ( 'NONE', *, *, #258, .F. ) ;
#276 = ORIENTED_EDGE ( 'NONE', *, *, #103, .F. ) ;
#277 = CARTESIAN_POINT ( 'NONE',  ( 0.000000000000000000, 0.000000000000000000, 0.000000000000000000 ) ) ;
#278 = DIRECTION ( 'NONE',  ( -1.221419288799112129E-16, 1.000000000000000000, 0.000000000000000000 ) ) ;
#279 = PRESENTATION_LAYER_ASSIGNMENT (  '', '', ( #137 ) ) ;
#280 = DIRECTION ( 'NONE',  ( -1.000000000000000000, -1.221419288799112129E-16, 0.000000000000000000 ) ) ;
#281 = PRESENTATION_STYLE_ASSIGNMENT (( #309 ) ) ;
#282 = ADVANCED_FACE ( 'NONE', ( #252 ), #230, .T. ) ;
#283 =( NAMED_UNIT ( * ) SI_UNIT ( $, .STERADIAN. ) SOLID_ANGLE_UNIT ( ) );
#284 = EDGE_CURVE ( 'NONE', #187, #319, #218, .T. ) ;
#285 =( CONVERSION_BASED_UNIT ( 'INCH', #193 ) LENGTH_UNIT ( ) NAMED_UNIT ( #343 ) );
#286 =( GEOMETRIC_REPRESENTATION_CONTEXT ( 3 ) GLOBAL_UNCERTAINTY_ASSIGNED_CONTEXT ( ( #293 ) ) GLOBAL_UNIT_ASSIGNED_CONTEXT ( ( #104, #254, #283 ) ) REPRESENTATION_CONTEXT ( 'NONE', 'WORKASPACE' ) );
#287 = EDGE_CURVE ( 'NONE', #319, #296, #74, .T. ) ;
#288 = AXIS2_PLACEMENT_3D ( 'NONE', #264, #28, #260 ) ;
#289 = CARTESIAN_POINT ( 'NONE',  ( 0.000000000000000000, 0.6250000000000000000, 0.000000000000000000 ) ) ;
#290 = ORIENTED_EDGE ( 'NONE', *, *, #213, .T. ) ;
#291 =( LENGTH_UNIT ( ) NAMED_UNIT ( * ) SI_UNIT ( $, .METRE. ) );
#292 = FACE_OUTER_BOUND ( 'NONE', #100, .T. ) ;
#293 = UNCERTAINTY_MEASURE_WITH_UNIT (LENGTH_MEASURE( 1.000000000000000082E-05 ), #104, 'distance_accuracy_value', 'NONE');
#294 =( CONVERSION_BASED_UNIT ( 'INCH', #159 ) LENGTH_UNIT ( ) NAMED_UNIT ( #135 ) );
#295 = AXIS2_PLACEMENT_3D ( 'NONE', #231, #344, #91 ) ;
#296 = VERTEX_POINT ( 'NONE', #21 ) ;
#297 = PRODUCT_RELATED_PRODUCT_CATEGORY ( 'part', '', ( #188 ) ) ;
#298 = FACE_OUTER_BOUND ( 'NONE', #30, .T. ) ;
#299 = PLANE ( 'NONE',  #249 ) ;
#300 = VERTEX_POINT ( 'NONE', #206 ) ;
#301 = CIRCLE ( 'NONE', #237, 0.09375000000000005551 ) ;
#302 = EDGE_LOOP ( 'NONE', ( #46, #80 ) ) ;
#303 = ORIENTED_EDGE ( 'NONE', *, *, #81, .F. ) ;
#304 = COLOUR_RGB ( '',1.000000000000000000, 0.000000000000000000, 0.000000000000000000 ) ;
#305 = FILL_AREA_STYLE_COLOUR ( '', #36 ) ;
#306 = ORIENTED_EDGE ( 'NONE', *, *, #287, .T. ) ;
#307 = PRESENTATION_STYLE_ASSIGNMENT (( #63 ) ) ;
#308 = PRODUCT_DEFINITION ( 'UNKNOWN', '', #233, #87 ) ;
#309 = SURFACE_STYLE_USAGE ( .BOTH. , #228 ) ;
#310 = FACE_OUTER_BOUND ( 'NONE', #163, .T. ) ;
#311 = CIRCLE ( 'NONE', #295, 0.09374999999999998612 ) ;
#312 = FACE_OUTER_BOUND ( 'NONE', #54, .T. ) ;
#313 = SURFACE_STYLE_USAGE ( .BOTH. , #196 ) ;
#314 = FILL_AREA_STYLE_COLOUR ( '', #304 ) ;
#315 = DIRECTION ( 'NONE',  ( -0.000000000000000000, -1.000000000000000000, -0.000000000000000000 ) ) ;
#316 = CLOSED_SHELL ( 'NONE', ( #221, #57, #282, #266, #72 ) ) ;
#317 = CARTESIAN_POINT ( 'NONE',  ( 0.000000000000000000, 0.09374999999999966693, -0.09374999999999998612 ) ) ;
#318 = STYLED_ITEM ( 'NONE', ( #321 ), #221 ) ;
#319 = VERTEX_POINT ( 'NONE', #65 ) ;
#320 = DIRECTION ( 'NONE',  ( -1.221419288799112129E-16, 1.000000000000000000, -0.000000000000000000 ) ) ;
#321 = PRESENTATION_STYLE_ASSIGNMENT (( #27 ) ) ;
#322 = DIRECTION ( 'NONE',  ( -1.221419288799112129E-16, 1.000000000000000000, -0.000000000000000000 ) ) ;
#323 = ORIENTED_EDGE ( 'NONE', *, *, #2, .F. ) ;
#324 = COLOUR_RGB ( '',1.000000000000000000, 0.000000000000000000, 0.000000000000000000 ) ;
#325 = CARTESIAN_POINT ( 'NONE',  ( 0.09374999999999990286, 2.000000000000000000, 1.148106374200643247E-17 ) ) ;
#326 = EDGE_LOOP ( 'NONE', ( #273, #275 ) ) ;
#327 = DIMENSIONAL_EXPONENTS ( 1.000000000000000000, 0.000000000000000000, 0.000000000000000000, 0.000000000000000000, 0.000000000000000000, 0.000000000000000000, 0.000000000000000000 ) ;
#328 =( NAMED_UNIT ( * ) SI_UNIT ( $, .STERADIAN. ) SOLID_ANGLE_UNIT ( ) );
#329 = STYLED_ITEM ( 'NONE', ( #247 ), #11 ) ;
#330 = AXIS2_PLACEMENT_3D ( 'NONE', #35, #66, #194 ) ;
#331 = CYLINDRICAL_SURFACE ( 'NONE', #197, 0.09374999999999998612 ) ;
#332 = ORIENTED_EDGE ( 'NONE', *, *, #173, .F. ) ;
#333 = DIMENSIONAL_EXPONENTS ( 1.000000000000000000, 0.000000000000000000, 0.000000000000000000, 0.000000000000000000, 0.000000000000000000, 0.000000000000000000, 0.000000000000000000 ) ;
#334 = ORIENTED_EDGE ( 'NONE', *, *, #173, .T. ) ;
#335 = MECHANICAL_DESIGN_GEOMETRIC_PRESENTATION_REPRESENTATION (  '', ( #20 ), #286 ) ;
#336 = MECHANICAL_DESIGN_GEOMETRIC_PRESENTATION_REPRESENTATION (  '', ( #149 ), #242 ) ;
#337 = UNCERTAINTY_MEASURE_WITH_UNIT (LENGTH_MEASURE( 1.000000000000000082E-05 ), #175, 'distance_accuracy_value', 'NONE');
#338 = DIRECTION ( 'NONE',  ( 0.000000000000000000, 0.000000000000000000, -1.000000000000000000 ) ) ;
#339 = FACE_OUTER_BOUND ( 'NONE', #126, .T. ) ;
#340 =( GEOMETRIC_REPRESENTATION_CONTEXT ( 3 ) GLOBAL_UNCERTAINTY_ASSIGNED_CONTEXT ( ( #239 ) ) GLOBAL_UNIT_ASSIGNED_CONTEXT ( ( #294, #128, #179 ) ) REPRESENTATION_CONTEXT ( 'NONE', 'WORKASPACE' ) );
#341 = DIRECTION ( 'NONE',  ( 0.000000000000000000, 0.000000000000000000, -1.000000000000000000 ) ) ;
#342 = AXIS2_PLACEMENT_3D ( 'NONE', #122, #22, #235 ) ;
#343 = DIMENSIONAL_EXPONENTS ( 1.000000000000000000, 0.000000000000000000, 0.000000000000000000, 0.000000000000000000, 0.000000000000000000, 0.000000000000000000, 0.000000000000000000 ) ;
#344 = DIRECTION ( 'NONE',  ( -0.000000000000000000, -1.000000000000000000, -0.000000000000000000 ) ) ;
#345 = PRESENTATION_STYLE_ASSIGNMENT (( #40 ) ) ;
#346 = DIRECTION ( 'NONE',  ( 0.000000000000000000, 1.000000000000000000, 0.000000000000000000 ) ) ;
#347 =( NAMED_UNIT ( * ) PLANE_ANGLE_UNIT ( ) SI_UNIT ( $, .RADIAN. ) );
#348 = COLOUR_RGB ( '',0.7921568627450980005, 0.8196078431372548767, 0.9333333333333333481 ) ;
#349 = AXIS2_PLACEMENT_3D ( 'NONE', #172, #118, #88 ) ;
#350 = CARTESIAN_POINT ( 'NONE',  ( -6.123233995736763571E-17, 2.000000000000000000, 0.000000000000000000 ) ) ;
#351 = ORIENTED_EDGE ( 'NONE', *, *, #99, .T. ) ;
ENDSEC;
END-ISO-10303-21;
