ISO-10303-21;
HEADER;
FILE_DESCRIPTION (( 'STEP AP214' ),
    '1' );
FILE_NAME ('59584.STEP',
    '2023-07-24T15:12:52',
    ( '' ),
    ( '' ),
    'SwSTEP 2.0',
    'SolidWorks 2023',
    '' );
FILE_SCHEMA (( 'AUTOMOTIVE_DESIGN' ));
ENDSEC;

DATA;
#1 = DIRECTION ( 'NONE',  ( -0.000000000000000000, -1.000000000000000000, -0.000000000000000000 ) ) ;
#2 = SHAPE_DEFINITION_REPRESENTATION ( #280, #237 ) ;
#3 = SURFACE_STYLE_USAGE ( .BOTH. , #208 ) ;
#4 =( LENGTH_UNIT ( ) NAMED_UNIT ( * ) SI_UNIT ( .MILLI., .METRE. ) );
#5 = CARTESIAN_POINT ( 'NONE',  ( -1.469576158976823750E-15, 75.00000000000000000, 0.000000000000000000 ) ) ;
#6 = CIRCLE ( 'NONE', #37, 5.500000000000000000 ) ;
#7 = COLOUR_RGB ( '',0.7921568627450980005, 0.8196078431372548767, 0.9333333333333333481 ) ;
#8 = PRESENTATION_STYLE_ASSIGNMENT (( #351 ) ) ;
#9 = EDGE_LOOP ( 'NONE', ( #106, #134 ) ) ;
#10 = AXIS2_PLACEMENT_3D ( 'NONE', #150, #1, #262 ) ;
#11 = ORIENTED_EDGE ( 'NONE', *, *, #289, .F. ) ;
#12 = ORIENTED_EDGE ( 'NONE', *, *, #22, .F. ) ;
#13 = DIRECTION ( 'NONE',  ( 0.000000000000000000, 0.000000000000000000, -1.000000000000000000 ) ) ;
#14 = ORIENTED_EDGE ( 'NONE', *, *, #228, .F. ) ;
#15 = ORIENTED_EDGE ( 'NONE', *, *, #197, .F. ) ;
#16 = PRESENTATION_STYLE_ASSIGNMENT (( #279 ) ) ;
#17 = CARTESIAN_POINT ( 'NONE',  ( 0.000000000000000000, 0.5000000000000000000, 0.000000000000000000 ) ) ;
#18 = UNCERTAINTY_MEASURE_WITH_UNIT (LENGTH_MEASURE( 1.000000000000000082E-05 ), #359, 'distance_accuracy_value', 'NONE');
#19 = CARTESIAN_POINT ( 'NONE',  ( -6.000000000000003553, 75.00000000000000000, 0.000000000000000000 ) ) ;
#20 = PRESENTATION_LAYER_ASSIGNMENT (  '', '', ( #324 ) ) ;
#21 = UNCERTAINTY_MEASURE_WITH_UNIT (LENGTH_MEASURE( 1.000000000000000082E-05 ), #365, 'distance_accuracy_value', 'NONE');
#22 = EDGE_CURVE ( 'NONE', #192, #194, #51, .T. ) ;
#23 = APPLICATION_CONTEXT ( 'automotive_design' ) ;
#24 = DIRECTION ( 'NONE',  ( -1.208874916035850209E-16, 1.000000000000000000, -0.000000000000000000 ) ) ;
#25 = MECHANICAL_DESIGN_GEOMETRIC_PRESENTATION_REPRESENTATION (  '', ( #53 ), #353 ) ;
#26 = DIRECTION ( 'NONE',  ( 0.000000000000000000, 0.000000000000000000, -1.000000000000000000 ) ) ;
#27 = EDGE_CURVE ( 'NONE', #49, #212, #226, .T. ) ;
#28 = FILL_AREA_STYLE_COLOUR ( '', #177 ) ;
#29 =( NAMED_UNIT ( * ) SI_UNIT ( $, .STERADIAN. ) SOLID_ANGLE_UNIT ( ) );
#30 = PRESENTATION_LAYER_ASSIGNMENT (  '', '', ( #172 ) ) ;
#31 = DIRECTION ( 'NONE',  ( 0.000000000000000000, 0.000000000000000000, -1.000000000000000000 ) ) ;
#32 = CARTESIAN_POINT ( 'NONE',  ( 0.000000000000000000, 0.5000000000000000000, 0.000000000000000000 ) ) ;
#33 = SURFACE_STYLE_FILL_AREA ( #115 ) ;
#34 =( NAMED_UNIT ( * ) PLANE_ANGLE_UNIT ( ) SI_UNIT ( $, .RADIAN. ) );
#35 = VERTEX_POINT ( 'NONE', #168 ) ;
#36 = PRESENTATION_STYLE_ASSIGNMENT (( #243 ) ) ;
#37 = AXIS2_PLACEMENT_3D ( 'NONE', #47, #273, #13 ) ;
#38 = AXIS2_PLACEMENT_3D ( 'NONE', #66, #187, #69 ) ;
#39 = ORIENTED_EDGE ( 'NONE', *, *, #92, .F. ) ;
#40 =( NAMED_UNIT ( * ) SI_UNIT ( $, .STERADIAN. ) SOLID_ANGLE_UNIT ( ) );
#41 = DIRECTION ( 'NONE',  ( 1.000000000000000000, 0.000000000000000000, -1.224646799147353207E-16 ) ) ;
#42 = VERTEX_POINT ( 'NONE', #227 ) ;
#43 = SURFACE_SIDE_STYLE ('',( #247 ) ) ;
#44 = PRESENTATION_LAYER_ASSIGNMENT (  '', '', ( #217 ) ) ;
#45 = DIRECTION ( 'NONE',  ( -1.208874916035850209E-16, 1.000000000000000000, -0.000000000000000000 ) ) ;
#46 = ORIENTED_EDGE ( 'NONE', *, *, #322, .T. ) ;
#47 = CARTESIAN_POINT ( 'NONE',  ( 0.000000000000000000, 0.000000000000000000, 0.000000000000000000 ) ) ;
#48 = DIRECTION ( 'NONE',  ( -1.208874916035850209E-16, 1.000000000000000000, 0.000000000000000000 ) ) ;
#49 = VERTEX_POINT ( 'NONE', #333 ) ;
#50 = PRESENTATION_STYLE_ASSIGNMENT (( #196 ) ) ;
#51 = LINE ( 'NONE', #198, #311 ) ;
#52 = COLOUR_RGB ( '',1.000000000000000000, 0.000000000000000000, 0.000000000000000000 ) ;
#53 = STYLED_ITEM ( 'NONE', ( #36 ), #358 ) ;
#54 = FILL_AREA_STYLE_COLOUR ( '', #157 ) ;
#55 = CARTESIAN_POINT ( 'NONE',  ( -1.469576158976823750E-15, 75.00000000000000000, 0.000000000000000000 ) ) ;
#56 = DIRECTION ( 'NONE',  ( 0.000000000000000000, 0.000000000000000000, -1.000000000000000000 ) ) ;
#57 = DIRECTION ( 'NONE',  ( 0.000000000000000000, 0.000000000000000000, -1.000000000000000000 ) ) ;
#58 = DIRECTION ( 'NONE',  ( -1.208874916035850209E-16, 1.000000000000000000, -0.000000000000000000 ) ) ;
#59 =( GEOMETRIC_REPRESENTATION_CONTEXT ( 3 ) GLOBAL_UNCERTAINTY_ASSIGNED_CONTEXT ( ( #72 ) ) GLOBAL_UNIT_ASSIGNED_CONTEXT ( ( #73, #137, #338 ) ) REPRESENTATION_CONTEXT ( 'NONE', 'WORKASPACE' ) );
#60 = AXIS2_PLACEMENT_3D ( 'NONE', #362, #41, #357 ) ;
#61 = ADVANCED_FACE ( 'NONE', ( #339 ), #195, .T. ) ;
#62 = DIRECTION ( 'NONE',  ( -0.000000000000000000, -1.000000000000000000, -0.000000000000000000 ) ) ;
#63 = DIRECTION ( 'NONE',  ( -1.000000000000000000, 0.000000000000000000, 0.000000000000000000 ) ) ;
#64 =( NAMED_UNIT ( * ) PLANE_ANGLE_UNIT ( ) SI_UNIT ( $, .RADIAN. ) );
#65 = PRESENTATION_STYLE_ASSIGNMENT (( #3 ) ) ;
#66 = CARTESIAN_POINT ( 'NONE',  ( 0.000000000000000000, 0.5000000000000000000, -5.500000000000000000 ) ) ;
#67 =( LENGTH_UNIT ( ) NAMED_UNIT ( * ) SI_UNIT ( .MILLI., .METRE. ) );
#68 = AXIS2_PLACEMENT_3D ( 'NONE', #305, #301, #215 ) ;
#69 = DIRECTION ( 'NONE',  ( 0.000000000000000000, 0.000000000000000000, 1.000000000000000000 ) ) ;
#70 =( NAMED_UNIT ( * ) SI_UNIT ( $, .STERADIAN. ) SOLID_ANGLE_UNIT ( ) );
#71 = FILL_AREA_STYLE_COLOUR ( '', #235 ) ;
#72 = UNCERTAINTY_MEASURE_WITH_UNIT (LENGTH_MEASURE( 1.000000000000000082E-05 ), #73, 'distance_accuracy_value', 'NONE');
#73 =( LENGTH_UNIT ( ) NAMED_UNIT ( * ) SI_UNIT ( .MILLI., .METRE. ) );
#74 = VERTEX_POINT ( 'NONE', #19 ) ;
#75 = CARTESIAN_POINT ( 'NONE',  ( 5.421010862427522170E-15, 18.00000000000000355, 0.000000000000000000 ) ) ;
#76 = UNCERTAINTY_MEASURE_WITH_UNIT (LENGTH_MEASURE( 1.000000000000000082E-05 ), #67, 'distance_accuracy_value', 'NONE');
#77 =( LENGTH_UNIT ( ) NAMED_UNIT ( * ) SI_UNIT ( .MILLI., .METRE. ) );
#78 = TOROIDAL_SURFACE ( 'NONE', #347, 5.500000000000000000, 0.5000000000000002220 ) ;
#79 = PRESENTATION_LAYER_ASSIGNMENT (  '', '', ( #296 ) ) ;
#80 = DIRECTION ( 'NONE',  ( -0.000000000000000000, -1.000000000000000000, -0.000000000000000000 ) ) ;
#81 =( GEOMETRIC_REPRESENTATION_CONTEXT ( 3 ) GLOBAL_UNCERTAINTY_ASSIGNED_CONTEXT ( ( #18 ) ) GLOBAL_UNIT_ASSIGNED_CONTEXT ( ( #359, #153, #271 ) ) REPRESENTATION_CONTEXT ( 'NONE', 'WORKASPACE' ) );
#82 = CARTESIAN_POINT ( 'NONE',  ( 0.000000000000000000, 0.000000000000000000, 0.000000000000000000 ) ) ;
#83 = UNCERTAINTY_MEASURE_WITH_UNIT (LENGTH_MEASURE( 1.000000000000000082E-05 ), #188, 'distance_accuracy_value', 'NONE');
#84 = EDGE_CURVE ( 'NONE', #212, #74, #290, .T. ) ;
#85 = EDGE_LOOP ( 'NONE', ( #11, #255, #161, #331 ) ) ;
#86 = MECHANICAL_DESIGN_GEOMETRIC_PRESENTATION_REPRESENTATION (  '', ( #324 ), #285 ) ;
#87 = PRESENTATION_LAYER_ASSIGNMENT (  '', '', ( #53 ) ) ;
#88 = CARTESIAN_POINT ( 'NONE',  ( 6.000000000000000000, 75.00000000000000000, 0.000000000000000000 ) ) ;
#89 = FACE_OUTER_BOUND ( 'NONE', #241, .T. ) ;
#90 = DIRECTION ( 'NONE',  ( -1.000000000000000000, 0.000000000000000000, 0.000000000000000000 ) ) ;
#91 =( GEOMETRIC_REPRESENTATION_CONTEXT ( 3 ) GLOBAL_UNCERTAINTY_ASSIGNED_CONTEXT ( ( #83 ) ) GLOBAL_UNIT_ASSIGNED_CONTEXT ( ( #188, #366, #40 ) ) REPRESENTATION_CONTEXT ( 'NONE', 'WORKASPACE' ) );
#92 = EDGE_CURVE ( 'NONE', #49, #123, #145, .T. ) ;
#93 = EDGE_LOOP ( 'NONE', ( #363, #39 ) ) ;
#94 = ORIENTED_EDGE ( 'NONE', *, *, #125, .T. ) ;
#95 = DIRECTION ( 'NONE',  ( 0.000000000000000000, 0.000000000000000000, -1.000000000000000000 ) ) ;
#96 = ADVANCED_FACE ( 'NONE', ( #220 ), #160, .T. ) ;
#97 = ORIENTED_EDGE ( 'NONE', *, *, #84, .F. ) ;
#98 = EDGE_LOOP ( 'NONE', ( #174, #170, #275, #284 ) ) ;
#99 = AXIS2_PLACEMENT_3D ( 'NONE', #88, #315, #295 ) ;
#100 = FACE_OUTER_BOUND ( 'NONE', #159, .T. ) ;
#101 = DIRECTION ( 'NONE',  ( -1.000000000000000000, 0.000000000000000000, 0.000000000000000000 ) ) ;
#102 = FILL_AREA_STYLE_COLOUR ( '', #52 ) ;
#103 = SURFACE_STYLE_FILL_AREA ( #360 ) ;
#104 = CIRCLE ( 'NONE', #38, 0.5000000000000004441 ) ;
#105 = SURFACE_STYLE_FILL_AREA ( #334 ) ;
#106 = ORIENTED_EDGE ( 'NONE', *, *, #256, .T. ) ;
#107 = SURFACE_STYLE_USAGE ( .BOTH. , #349 ) ;
#108 = ORIENTED_EDGE ( 'NONE', *, *, #197, .T. ) ;
#109 = EDGE_CURVE ( 'NONE', #123, #49, #317, .T. ) ;
#110 = ORIENTED_EDGE ( 'NONE', *, *, #361, .F. ) ;
#111 = AXIS2_PLACEMENT_3D ( 'NONE', #147, #62, #26 ) ;
#112 = LINE ( 'NONE', #293, #183 ) ;
#113 = CARTESIAN_POINT ( 'NONE',  ( 0.000000000000000000, 0.5000000000000000000, 0.000000000000000000 ) ) ;
#114 = DIRECTION ( 'NONE',  ( 0.000000000000000000, 0.000000000000000000, -1.000000000000000000 ) ) ;
#115 = FILL_AREA_STYLE ('',( #28 ) ) ;
#116 = TOROIDAL_SURFACE ( 'NONE', #327, 5.500000000000000000, 0.5000000000000002220 ) ;
#117 = SURFACE_SIDE_STYLE ('',( #201 ) ) ;
#118 = CARTESIAN_POINT ( 'NONE',  ( 0.000000000000000000, 0.000000000000000000, 0.000000000000000000 ) ) ;
#119 = DIRECTION ( 'NONE',  ( -1.208874916035850209E-16, 1.000000000000000000, -0.000000000000000000 ) ) ;
#120 = ADVANCED_FACE ( 'NONE', ( #252 ), #225, .F. ) ;
#121 = DIRECTION ( 'NONE',  ( -0.000000000000000000, -1.000000000000000000, -0.000000000000000000 ) ) ;
#122 = ORIENTED_EDGE ( 'NONE', *, *, #27, .F. ) ;
#123 = VERTEX_POINT ( 'NONE', #244 ) ;
#124 = AXIS2_PLACEMENT_3D ( 'NONE', #129, #166, #281 ) ;
#125 = EDGE_CURVE ( 'NONE', #35, #42, #156, .T. ) ;
#126 = DIRECTION ( 'NONE',  ( -0.000000000000000000, -1.000000000000000000, -0.000000000000000000 ) ) ;
#127 = SURFACE_STYLE_FILL_AREA ( #268 ) ;
#128 = FACE_OUTER_BOUND ( 'NONE', #98, .T. ) ;
#129 = CARTESIAN_POINT ( 'NONE',  ( 5.421010862427522170E-15, 18.00000000000000355, 0.000000000000000000 ) ) ;
#130 = ADVANCED_FACE ( 'NONE', ( #100 ), #78, .T. ) ;
#131 = APPLICATION_CONTEXT ( 'automotive_design' ) ;
#132 = STYLED_ITEM ( 'NONE', ( #8 ), #223 ) ;
#133 = FILL_AREA_STYLE ('',( #71 ) ) ;
#134 = ORIENTED_EDGE ( 'NONE', *, *, #84, .T. ) ;
#135 = CARTESIAN_POINT ( 'NONE',  ( 5.421010862427522170E-15, 18.00000000000000000, 0.000000000000000000 ) ) ;
#136 = PRESENTATION_STYLE_ASSIGNMENT (( #107 ) ) ;
#137 =( NAMED_UNIT ( * ) PLANE_ANGLE_UNIT ( ) SI_UNIT ( $, .RADIAN. ) );
#138 = CARTESIAN_POINT ( 'NONE',  ( -1.469576158976823750E-15, 75.00000000000000000, 0.000000000000000000 ) ) ;
#139 = FACE_OUTER_BOUND ( 'NONE', #355, .T. ) ;
#140 = MECHANICAL_DESIGN_GEOMETRIC_PRESENTATION_REPRESENTATION (  '', ( #132 ), #91 ) ;
#141 = DIRECTION ( 'NONE',  ( 0.000000000000000000, 0.000000000000000000, -1.000000000000000000 ) ) ;
#142 = DIRECTION ( 'NONE',  ( -1.208874916035850209E-16, 1.000000000000000000, -0.000000000000000000 ) ) ;
#143 =( NAMED_UNIT ( * ) SI_UNIT ( $, .STERADIAN. ) SOLID_ANGLE_UNIT ( ) );
#144 = CARTESIAN_POINT ( 'NONE',  ( 0.000000000000000000, 18.00000000000000000, 0.000000000000000000 ) ) ;
#145 = CIRCLE ( 'NONE', #124, 5.999999999999994671 ) ;
#146 = VECTOR ( 'NONE', #24, 1000.000000000000000 ) ;
#147 = CARTESIAN_POINT ( 'NONE',  ( 0.000000000000000000, 18.00000000000000000, 0.000000000000000000 ) ) ;
#148 = CARTESIAN_POINT ( 'NONE',  ( 0.000000000000000000, 0.000000000000000000, 0.000000000000000000 ) ) ;
#149 =( NAMED_UNIT ( * ) PLANE_ANGLE_UNIT ( ) SI_UNIT ( $, .RADIAN. ) );
#150 = CARTESIAN_POINT ( 'NONE',  ( 0.000000000000000000, 0.000000000000000000, 0.000000000000000000 ) ) ;
#151 = CIRCLE ( 'NONE', #291, 6.000000000000000000 ) ;
#152 = MECHANICAL_DESIGN_GEOMETRIC_PRESENTATION_REPRESENTATION (  '', ( #172 ), #329 ) ;
#153 =( NAMED_UNIT ( * ) PLANE_ANGLE_UNIT ( ) SI_UNIT ( $, .RADIAN. ) );
#154 =( NAMED_UNIT ( * ) SI_UNIT ( $, .STERADIAN. ) SOLID_ANGLE_UNIT ( ) );
#155 =( NAMED_UNIT ( * ) PLANE_ANGLE_UNIT ( ) SI_UNIT ( $, .RADIAN. ) );
#156 = CIRCLE ( 'NONE', #60, 0.5000000000000004441 ) ;
#157 = COLOUR_RGB ( '',1.000000000000000000, 0.000000000000000000, 0.000000000000000000 ) ;
#158 =( NAMED_UNIT ( * ) SI_UNIT ( $, .STERADIAN. ) SOLID_ANGLE_UNIT ( ) );
#159 = EDGE_LOOP ( 'NONE', ( #108, #94, #14, #110 ) ) ;
#160 = PLANE ( 'NONE',  #261 ) ;
#161 = ORIENTED_EDGE ( 'NONE', *, *, #22, .T. ) ;
#162 = UNCERTAINTY_MEASURE_WITH_UNIT (LENGTH_MEASURE( 1.000000000000000082E-05 ), #321, 'distance_accuracy_value', 'NONE');
#163 = SURFACE_STYLE_USAGE ( .BOTH. , #250 ) ;
#164 = PRODUCT ( '59584', '59584', '', ( #179 ) ) ;
#165 = COLOUR_RGB ( '',1.000000000000000000, 0.000000000000000000, 0.000000000000000000 ) ;
#166 = DIRECTION ( 'NONE',  ( -1.208874916035850209E-16, 1.000000000000000000, -0.000000000000000000 ) ) ;
#167 = ORIENTED_EDGE ( 'NONE', *, *, #109, .T. ) ;
#168 = CARTESIAN_POINT ( 'NONE',  ( 7.347880794884119736E-16, 0.5000000000000000000, 6.000000000000000000 ) ) ;
#169 = EDGE_CURVE ( 'NONE', #35, #194, #151, .T. ) ;
#170 = ORIENTED_EDGE ( 'NONE', *, *, #169, .T. ) ;
#171 = MECHANICAL_DESIGN_GEOMETRIC_PRESENTATION_REPRESENTATION (  '', ( #296 ), #186 ) ;
#172 = STYLED_ITEM ( 'NONE', ( #50 ), #269 ) ;
#173 = ORIENTED_EDGE ( 'NONE', *, *, #263, .F. ) ;
#174 = ORIENTED_EDGE ( 'NONE', *, *, #125, .F. ) ;
#175 = LINE ( 'NONE', #287, #146 ) ;
#176 = APPLICATION_PROTOCOL_DEFINITION ( 'draft international standard', 'automotive_design', 1998, #23 ) ;
#177 = COLOUR_RGB ( '',1.000000000000000000, 0.000000000000000000, 0.000000000000000000 ) ;
#178 = CARTESIAN_POINT ( 'NONE',  ( 0.000000000000000000, 0.000000000000000000, -5.500000000000000000 ) ) ;
#179 = PRODUCT_CONTEXT ( 'NONE', #131, 'mechanical' ) ;
#180 = DIRECTION ( 'NONE',  ( -0.000000000000000000, -1.000000000000000000, -0.000000000000000000 ) ) ;
#181 = SURFACE_SIDE_STYLE ('',( #127 ) ) ;
#182 = PRESENTATION_LAYER_ASSIGNMENT (  '', '', ( #335 ) ) ;
#183 = VECTOR ( 'NONE', #346, 1000.000000000000000 ) ;
#184 = FILL_AREA_STYLE_COLOUR ( '', #368 ) ;
#185 = AXIS2_PLACEMENT_3D ( 'NONE', #138, #253, #330 ) ;
#186 =( GEOMETRIC_REPRESENTATION_CONTEXT ( 3 ) GLOBAL_UNCERTAINTY_ASSIGNED_CONTEXT ( ( #222 ) ) GLOBAL_UNIT_ASSIGNED_CONTEXT ( ( #348, #240, #154 ) ) REPRESENTATION_CONTEXT ( 'NONE', 'WORKASPACE' ) );
#187 = DIRECTION ( 'NONE',  ( -1.000000000000000000, 0.000000000000000000, 0.000000000000000000 ) ) ;
#188 =( LENGTH_UNIT ( ) NAMED_UNIT ( * ) SI_UNIT ( .MILLI., .METRE. ) );
#189 = DIRECTION ( 'NONE',  ( 0.000000000000000000, -1.000000000000000000, -0.000000000000000000 ) ) ;
#190 = CIRCLE ( 'NONE', #10, 5.500000000000000000 ) ;
#191 = SURFACE_SIDE_STYLE ('',( #103 ) ) ;
#192 = VERTEX_POINT ( 'NONE', #288 ) ;
#193 = EDGE_CURVE ( 'NONE', #42, #214, #190, .T. ) ;
#194 = VERTEX_POINT ( 'NONE', #320 ) ;
#195 = CYLINDRICAL_SURFACE ( 'NONE', #341, 5.999999999999998224 ) ;
#196 = SURFACE_STYLE_USAGE ( .BOTH. , #191 ) ;
#197 = EDGE_CURVE ( 'NONE', #194, #35, #364, .T. ) ;
#198 = CARTESIAN_POINT ( 'NONE',  ( 0.000000000000000000, 0.000000000000000000, -6.000000000000000000 ) ) ;
#199 = SURFACE_STYLE_USAGE ( .BOTH. , #117 ) ;
#200 = APPLICATION_PROTOCOL_DEFINITION ( 'draft international standard', 'automotive_design', 1998, #131 ) ;
#201 = SURFACE_STYLE_FILL_AREA ( #209 ) ;
#202 = CARTESIAN_POINT ( 'NONE',  ( 0.000000000000000000, 18.00000000000000000, 0.000000000000000000 ) ) ;
#203 = AXIS2_PLACEMENT_3D ( 'NONE', #75, #45, #308 ) ;
#204 = AXIS2_PLACEMENT_3D ( 'NONE', #113, #298, #259 ) ;
#205 = MECHANICAL_DESIGN_GEOMETRIC_PRESENTATION_REPRESENTATION (  '', ( #278 ), #246 ) ;
#206 = ADVANCED_FACE ( 'NONE', ( #350 ), #211, .T. ) ;
#207 = SURFACE_STYLE_FILL_AREA ( #270 ) ;
#208 = SURFACE_SIDE_STYLE ('',( #105 ) ) ;
#209 = FILL_AREA_STYLE ('',( #54 ) ) ;
#210 = CARTESIAN_POINT ( 'NONE',  ( -1.469576158976823750E-15, 75.00000000000000000, 0.000000000000000000 ) ) ;
#211 = CYLINDRICAL_SURFACE ( 'NONE', #337, 5.999999999999998224 ) ;
#212 = VERTEX_POINT ( 'NONE', #238 ) ;
#213 = AXIS2_PLACEMENT_3D ( 'NONE', #148, #370, #56 ) ;
#214 = VERTEX_POINT ( 'NONE', #178 ) ;
#215 = DIRECTION ( 'NONE',  ( 0.000000000000000000, 0.000000000000000000, -1.000000000000000000 ) ) ;
#216 = CLOSED_SHELL ( 'NONE', ( #61, #120, #206, #352 ) ) ;
#217 = STYLED_ITEM ( 'NONE', ( #136 ), #239 ) ;
#218 = CIRCLE ( 'NONE', #254, 6.000000000000000000 ) ;
#219 = FILL_AREA_STYLE_COLOUR ( '', #165 ) ;
#220 = FACE_OUTER_BOUND ( 'NONE', #340, .T. ) ;
#221 = EDGE_LOOP ( 'NONE', ( #122, #325, #46, #97 ) ) ;
#222 = UNCERTAINTY_MEASURE_WITH_UNIT (LENGTH_MEASURE( 1.000000000000000082E-05 ), #348, 'distance_accuracy_value', 'NONE');
#223 = ADVANCED_FACE ( 'NONE', ( #323 ), #294, .T. ) ;
#224 = CIRCLE ( 'NONE', #111, 6.000000000000000000 ) ;
#225 = PLANE ( 'NONE',  #277 ) ;
#226 = LINE ( 'NONE', #312, #356 ) ;
#227 = CARTESIAN_POINT ( 'NONE',  ( 7.041719095097280880E-16, 0.000000000000000000, 5.500000000000000000 ) ) ;
#228 = EDGE_CURVE ( 'NONE', #214, #42, #6, .T. ) ;
#229 = CLOSED_SHELL ( 'NONE', ( #314, #130, #96, #233, #223, #269 ) ) ;
#230 = DIRECTION ( 'NONE',  ( 0.000000000000000000, -0.000000000000000000, 1.000000000000000000 ) ) ;
#231 = AXIS2_PLACEMENT_3D ( 'NONE', #144, #292, #230 ) ;
#232 = FACE_OUTER_BOUND ( 'NONE', #9, .T. ) ;
#233 = ADVANCED_FACE ( 'NONE', ( #128 ), #116, .T. ) ;
#234 = DIRECTION ( 'NONE',  ( -0.000000000000000000, -1.000000000000000000, -0.000000000000000000 ) ) ;
#235 = COLOUR_RGB ( '',1.000000000000000000, 0.000000000000000000, 0.000000000000000000 ) ;
#236 = CARTESIAN_POINT ( 'NONE',  ( 7.347880794884119736E-16, 18.00000000000000000, 6.000000000000000000 ) ) ;
#237 = ADVANCED_BREP_SHAPE_REPRESENTATION ( '59584', ( #358, #239, #307 ), #81 ) ;
#238 = CARTESIAN_POINT ( 'NONE',  ( 6.000000000000000000, 75.00000000000000000, 7.347880794884119736E-16 ) ) ;
#239 = MANIFOLD_SOLID_BREP ( 'Revolve - Tool Body (Straight Shanked)', #216 ) ;
#240 =( NAMED_UNIT ( * ) PLANE_ANGLE_UNIT ( ) SI_UNIT ( $, .RADIAN. ) );
#241 = EDGE_LOOP ( 'NONE', ( #328, #304, #15, #12 ) ) ;
#242 =( GEOMETRIC_REPRESENTATION_CONTEXT ( 3 ) GLOBAL_UNCERTAINTY_ASSIGNED_CONTEXT ( ( #310 ) ) GLOBAL_UNIT_ASSIGNED_CONTEXT ( ( #77, #149, #260 ) ) REPRESENTATION_CONTEXT ( 'NONE', 'WORKASPACE' ) );
#243 = SURFACE_STYLE_USAGE ( .BOTH. , #181 ) ;
#244 = CARTESIAN_POINT ( 'NONE',  ( -5.999999999999989342, 18.00000000000000355, 0.000000000000000000 ) ) ;
#245 = VERTEX_POINT ( 'NONE', #236 ) ;
#246 =( GEOMETRIC_REPRESENTATION_CONTEXT ( 3 ) GLOBAL_UNCERTAINTY_ASSIGNED_CONTEXT ( ( #286 ) ) GLOBAL_UNIT_ASSIGNED_CONTEXT ( ( #4, #64, #29 ) ) REPRESENTATION_CONTEXT ( 'NONE', 'WORKASPACE' ) );
#247 = SURFACE_STYLE_FILL_AREA ( #276 ) ;
#248 = ORIENTED_EDGE ( 'NONE', *, *, #27, .T. ) ;
#249 = PRODUCT_RELATED_PRODUCT_CATEGORY ( 'part', '', ( #164 ) ) ;
#250 = SURFACE_SIDE_STYLE ('',( #306 ) ) ;
#251 = PRODUCT_DEFINITION_CONTEXT ( 'detailed design', #23, 'design' ) ;
#252 = FACE_OUTER_BOUND ( 'NONE', #93, .T. ) ;
#253 = DIRECTION ( 'NONE',  ( -1.208874916035850209E-16, 1.000000000000000000, -0.000000000000000000 ) ) ;
#254 = AXIS2_PLACEMENT_3D ( 'NONE', #202, #121, #31 ) ;
#255 = ORIENTED_EDGE ( 'NONE', *, *, #299, .T. ) ;
#256 = EDGE_CURVE ( 'NONE', #74, #212, #300, .T. ) ;
#257 = MECHANICAL_DESIGN_GEOMETRIC_PRESENTATION_REPRESENTATION (  '', ( #217 ), #242 ) ;
#258 = CARTESIAN_POINT ( 'NONE',  ( 0.000000000000000000, 0.5000000000000000000, 0.000000000000000000 ) ) ;
#259 = DIRECTION ( 'NONE',  ( 0.000000000000000000, 0.000000000000000000, -1.000000000000000000 ) ) ;
#260 =( NAMED_UNIT ( * ) SI_UNIT ( $, .STERADIAN. ) SOLID_ANGLE_UNIT ( ) );
#261 = AXIS2_PLACEMENT_3D ( 'NONE', #82, #189, #141 ) ;
#262 = DIRECTION ( 'NONE',  ( 0.000000000000000000, 0.000000000000000000, -1.000000000000000000 ) ) ;
#263 = EDGE_CURVE ( 'NONE', #192, #245, #218, .T. ) ;
#264 = SURFACE_SIDE_STYLE ('',( #33 ) ) ;
#265 = ORIENTED_EDGE ( 'NONE', *, *, #299, .F. ) ;
#266 = FILL_AREA_STYLE_COLOUR ( '', #7 ) ;
#267 = PRESENTATION_LAYER_ASSIGNMENT (  '', '', ( #132 ) ) ;
#268 = FILL_AREA_STYLE ('',( #266 ) ) ;
#269 = ADVANCED_FACE ( 'NONE', ( #139 ), #283, .T. ) ;
#270 = FILL_AREA_STYLE ('',( #184 ) ) ;
#271 =( NAMED_UNIT ( * ) SI_UNIT ( $, .STERADIAN. ) SOLID_ANGLE_UNIT ( ) );
#272 = ORIENTED_EDGE ( 'NONE', *, *, #193, .T. ) ;
#273 = DIRECTION ( 'NONE',  ( -0.000000000000000000, -1.000000000000000000, -0.000000000000000000 ) ) ;
#274 = DIRECTION ( 'NONE',  ( -1.000000000000000000, -1.208874916035850209E-16, 0.000000000000000000 ) ) ;
#275 = ORIENTED_EDGE ( 'NONE', *, *, #361, .T. ) ;
#276 = FILL_AREA_STYLE ('',( #219 ) ) ;
#277 = AXIS2_PLACEMENT_3D ( 'NONE', #135, #48, #274 ) ;
#278 = STYLED_ITEM ( 'NONE', ( #318 ), #314 ) ;
#279 = SURFACE_STYLE_USAGE ( .BOTH. , #43 ) ;
#280 = PRODUCT_DEFINITION_SHAPE ( 'NONE', 'NONE',  #303 ) ;
#281 = DIRECTION ( 'NONE',  ( -1.000000000000000000, 0.000000000000000000, 0.000000000000000000 ) ) ;
#282 = DIRECTION ( 'NONE',  ( -1.208874916035850209E-16, 1.000000000000000000, -0.000000000000000000 ) ) ;
#283 = PLANE ( 'NONE',  #231 ) ;
#284 = ORIENTED_EDGE ( 'NONE', *, *, #193, .F. ) ;
#285 =( GEOMETRIC_REPRESENTATION_CONTEXT ( 3 ) GLOBAL_UNCERTAINTY_ASSIGNED_CONTEXT ( ( #76 ) ) GLOBAL_UNIT_ASSIGNED_CONTEXT ( ( #67, #34, #70 ) ) REPRESENTATION_CONTEXT ( 'NONE', 'WORKASPACE' ) );
#286 = UNCERTAINTY_MEASURE_WITH_UNIT (LENGTH_MEASURE( 1.000000000000000082E-05 ), #4, 'distance_accuracy_value', 'NONE');
#287 = CARTESIAN_POINT ( 'NONE',  ( -6.000000000000000000, 75.00000000000000000, 0.000000000000000000 ) ) ;
#288 = CARTESIAN_POINT ( 'NONE',  ( 0.000000000000000000, 18.00000000000000000, -6.000000000000000000 ) ) ;
#289 = EDGE_CURVE ( 'NONE', #245, #35, #112, .T. ) ;
#290 = CIRCLE ( 'NONE', #185, 6.000000000000001776 ) ;
#291 = AXIS2_PLACEMENT_3D ( 'NONE', #17, #234, #57 ) ;
#292 = DIRECTION ( 'NONE',  ( 0.000000000000000000, 1.000000000000000000, 0.000000000000000000 ) ) ;
#293 = CARTESIAN_POINT ( 'NONE',  ( 7.347880794884119736E-16, 0.000000000000000000, 6.000000000000000000 ) ) ;
#294 = CYLINDRICAL_SURFACE ( 'NONE', #68, 6.000000000000000000 ) ;
#295 = DIRECTION ( 'NONE',  ( 1.000000000000000000, 1.208874916035850209E-16, 0.000000000000000000 ) ) ;
#296 = STYLED_ITEM ( 'NONE', ( #65 ), #130 ) ;
#297 = PRODUCT_DEFINITION_FORMATION_WITH_SPECIFIED_SOURCE ( 'ANY', '', #164, .NOT_KNOWN. ) ;
#298 = DIRECTION ( 'NONE',  ( -0.000000000000000000, -1.000000000000000000, -0.000000000000000000 ) ) ;
#299 = EDGE_CURVE ( 'NONE', #245, #192, #224, .T. ) ;
#300 = CIRCLE ( 'NONE', #319, 6.000000000000001776 ) ;
#301 = DIRECTION ( 'NONE',  ( -0.000000000000000000, -1.000000000000000000, -0.000000000000000000 ) ) ;
#302 = EDGE_LOOP ( 'NONE', ( #167, #248, #336, #309 ) ) ;
#303 = PRODUCT_DEFINITION ( 'UNKNOWN', '', #297, #251 ) ;
#304 = ORIENTED_EDGE ( 'NONE', *, *, #289, .T. ) ;
#305 = CARTESIAN_POINT ( 'NONE',  ( 0.000000000000000000, 0.000000000000000000, 0.000000000000000000 ) ) ;
#306 = SURFACE_STYLE_FILL_AREA ( #133 ) ;
#307 = AXIS2_PLACEMENT_3D ( 'NONE', #118, #343, #316 ) ;
#308 = DIRECTION ( 'NONE',  ( -1.000000000000000000, 0.000000000000000000, 0.000000000000000000 ) ) ;
#309 = ORIENTED_EDGE ( 'NONE', *, *, #322, .F. ) ;
#310 = UNCERTAINTY_MEASURE_WITH_UNIT (LENGTH_MEASURE( 1.000000000000000082E-05 ), #77, 'distance_accuracy_value', 'NONE');
#311 = VECTOR ( 'NONE', #80, 1000.000000000000000 ) ;
#312 = CARTESIAN_POINT ( 'NONE',  ( 5.999999999999996447, 75.00000000000000000, 7.347880794884117764E-16 ) ) ;
#313 = CYLINDRICAL_SURFACE ( 'NONE', #213, 6.000000000000000000 ) ;
#314 = ADVANCED_FACE ( 'NONE', ( #89 ), #313, .T. ) ;
#315 = DIRECTION ( 'NONE',  ( 1.208874916035850209E-16, -1.000000000000000000, 0.000000000000000000 ) ) ;
#316 = DIRECTION ( 'NONE',  ( 1.000000000000000000, 0.000000000000000000, 0.000000000000000000 ) ) ;
#317 = CIRCLE ( 'NONE', #203, 5.999999999999994671 ) ;
#318 = PRESENTATION_STYLE_ASSIGNMENT (( #199 ) ) ;
#319 = AXIS2_PLACEMENT_3D ( 'NONE', #210, #58, #90 ) ;
#320 = CARTESIAN_POINT ( 'NONE',  ( 0.000000000000000000, 0.5000000000000000000, -6.000000000000000000 ) ) ;
#321 =( LENGTH_UNIT ( ) NAMED_UNIT ( * ) SI_UNIT ( .MILLI., .METRE. ) );
#322 = EDGE_CURVE ( 'NONE', #123, #74, #175, .T. ) ;
#323 = FACE_OUTER_BOUND ( 'NONE', #85, .T. ) ;
#324 = STYLED_ITEM ( 'NONE', ( #16 ), #233 ) ;
#325 = ORIENTED_EDGE ( 'NONE', *, *, #92, .T. ) ;
#326 = MECHANICAL_DESIGN_GEOMETRIC_PRESENTATION_REPRESENTATION (  '', ( #335 ), #59 ) ;
#327 = AXIS2_PLACEMENT_3D ( 'NONE', #32, #126, #95 ) ;
#328 = ORIENTED_EDGE ( 'NONE', *, *, #263, .T. ) ;
#329 =( GEOMETRIC_REPRESENTATION_CONTEXT ( 3 ) GLOBAL_UNCERTAINTY_ASSIGNED_CONTEXT ( ( #21 ) ) GLOBAL_UNIT_ASSIGNED_CONTEXT ( ( #365, #367, #143 ) ) REPRESENTATION_CONTEXT ( 'NONE', 'WORKASPACE' ) );
#330 = DIRECTION ( 'NONE',  ( -1.000000000000000000, 0.000000000000000000, 0.000000000000000000 ) ) ;
#331 = ORIENTED_EDGE ( 'NONE', *, *, #169, .F. ) ;
#332 = FILL_AREA_STYLE_COLOUR ( '', #342 ) ;
#333 = CARTESIAN_POINT ( 'NONE',  ( 6.000000000000000000, 18.00000000000000355, 7.347880794884119736E-16 ) ) ;
#334 = FILL_AREA_STYLE ('',( #102 ) ) ;
#335 = STYLED_ITEM ( 'NONE', ( #354 ), #96 ) ;
#336 = ORIENTED_EDGE ( 'NONE', *, *, #256, .F. ) ;
#337 = AXIS2_PLACEMENT_3D ( 'NONE', #5, #119, #63 ) ;
#338 =( NAMED_UNIT ( * ) SI_UNIT ( $, .STERADIAN. ) SOLID_ANGLE_UNIT ( ) );
#339 = FACE_OUTER_BOUND ( 'NONE', #302, .T. ) ;
#340 = EDGE_LOOP ( 'NONE', ( #345, #272 ) ) ;
#341 = AXIS2_PLACEMENT_3D ( 'NONE', #55, #282, #101 ) ;
#342 = COLOUR_RGB ( '',1.000000000000000000, 0.000000000000000000, 0.000000000000000000 ) ;
#343 = DIRECTION ( 'NONE',  ( 0.000000000000000000, 0.000000000000000000, 1.000000000000000000 ) ) ;
#344 = PLANE ( 'NONE',  #99 ) ;
#345 = ORIENTED_EDGE ( 'NONE', *, *, #228, .T. ) ;
#346 = DIRECTION ( 'NONE',  ( -0.000000000000000000, -1.000000000000000000, -0.000000000000000000 ) ) ;
#347 = AXIS2_PLACEMENT_3D ( 'NONE', #258, #180, #114 ) ;
#348 =( LENGTH_UNIT ( ) NAMED_UNIT ( * ) SI_UNIT ( .MILLI., .METRE. ) );
#349 = SURFACE_SIDE_STYLE ('',( #207 ) ) ;
#350 = FACE_OUTER_BOUND ( 'NONE', #221, .T. ) ;
#351 = SURFACE_STYLE_USAGE ( .BOTH. , #264 ) ;
#352 = ADVANCED_FACE ( 'NONE', ( #232 ), #344, .F. ) ;
#353 =( GEOMETRIC_REPRESENTATION_CONTEXT ( 3 ) GLOBAL_UNCERTAINTY_ASSIGNED_CONTEXT ( ( #162 ) ) GLOBAL_UNIT_ASSIGNED_CONTEXT ( ( #321, #155, #158 ) ) REPRESENTATION_CONTEXT ( 'NONE', 'WORKASPACE' ) );
#354 = PRESENTATION_STYLE_ASSIGNMENT (( #163 ) ) ;
#355 = EDGE_LOOP ( 'NONE', ( #173, #265 ) ) ;
#356 = VECTOR ( 'NONE', #142, 1000.000000000000000 ) ;
#357 = DIRECTION ( 'NONE',  ( -1.224646799147353454E-16, 0.000000000000000000, -1.000000000000000000 ) ) ;
#358 = MANIFOLD_SOLID_BREP ( 'Revolve - Cutting Edge', #229 ) ;
#359 =( LENGTH_UNIT ( ) NAMED_UNIT ( * ) SI_UNIT ( .MILLI., .METRE. ) );
#360 = FILL_AREA_STYLE ('',( #332 ) ) ;
#361 = EDGE_CURVE ( 'NONE', #194, #214, #104, .T. ) ;
#362 = CARTESIAN_POINT ( 'NONE',  ( 6.735557395310442023E-16, 0.5000000000000000000, 5.500000000000000000 ) ) ;
#363 = ORIENTED_EDGE ( 'NONE', *, *, #109, .F. ) ;
#364 = CIRCLE ( 'NONE', #204, 6.000000000000000000 ) ;
#365 =( LENGTH_UNIT ( ) NAMED_UNIT ( * ) SI_UNIT ( .MILLI., .METRE. ) );
#366 =( NAMED_UNIT ( * ) PLANE_ANGLE_UNIT ( ) SI_UNIT ( $, .RADIAN. ) );
#367 =( NAMED_UNIT ( * ) PLANE_ANGLE_UNIT ( ) SI_UNIT ( $, .RADIAN. ) );
#368 = COLOUR_RGB ( '',0.7921568627450980005, 0.8196078431372548767, 0.9333333333333333481 ) ;
#369 = PRESENTATION_LAYER_ASSIGNMENT (  '', '', ( #278 ) ) ;
#370 = DIRECTION ( 'NONE',  ( -0.000000000000000000, -1.000000000000000000, -0.000000000000000000 ) ) ;
ENDSEC;
END-ISO-10303-21;
