ISO-10303-21;
HEADER;
FILE_DESCRIPTION (( 'STEP AP214' ),
    '1' );
FILE_NAME ('03120.STEP',
    '2023-06-22T14:56:38',
    ( '' ),
    ( '' ),
    'SwSTEP 2.0',
    'SolidWorks 2023',
    '' );
FILE_SCHEMA (( 'AUTOMOTIVE_DESIGN' ));
ENDSEC;

DATA;
#1 = ORIENTED_EDGE ( 'NONE', *, *, #45, .T. ) ;
#2 = SURFACE_SIDE_STYLE ('',( #278 ) ) ;
#3 = MECHANICAL_DESIGN_GEOMETRIC_PRESENTATION_REPRESENTATION (  '', ( #282 ), #107 ) ;
#4 = CARTESIAN_POINT ( 'NONE',  ( 0.09374999999999998612, 0.7499999999999998890, 1.148106374200644171E-17 ) ) ;
#5 =( NAMED_UNIT ( * ) SI_UNIT ( $, .STERADIAN. ) SOLID_ANGLE_UNIT ( ) );
#6 =( CONVERSION_BASED_UNIT ( 'INCH', #101 ) LENGTH_UNIT ( ) NAMED_UNIT ( #55 ) );
#7 =( LENGTH_UNIT ( ) NAMED_UNIT ( * ) SI_UNIT ( $, .METRE. ) );
#8 = VERTEX_POINT ( 'NONE', #4 ) ;
#9 = CARTESIAN_POINT ( 'NONE',  ( 1.148106374200643401E-17, 0.7500000000000001110, 0.09374999999999998612 ) ) ;
#10 = LENGTH_MEASURE_WITH_UNIT ( LENGTH_MEASURE( 0.02539999999999999897 ), #178 );
#11 = PRODUCT_DEFINITION_CONTEXT ( 'detailed design', #214, 'design' ) ;
#12 = STYLED_ITEM ( 'NONE', ( #94 ), #53 ) ;
#13 = EDGE_CURVE ( 'NONE', #300, #8, #128, .T. ) ;
#14 = AXIS2_PLACEMENT_3D ( 'NONE', #280, #65, #234 ) ;
#15 = DIRECTION ( 'NONE',  ( -3.498990854706722745E-17, 1.000000000000000000, 0.000000000000000000 ) ) ;
#16 = CARTESIAN_POINT ( 'NONE',  ( -6.123233995736766036E-17, 2.500000000000000000, 0.000000000000000000 ) ) ;
#17 = EDGE_CURVE ( 'NONE', #8, #300, #18, .T. ) ;
#18 = CIRCLE ( 'NONE', #205, 0.09374999999999998612 ) ;
#19 = DIRECTION ( 'NONE',  ( -1.000000000000000000, -3.498990854706722745E-17, 0.000000000000000000 ) ) ;
#20 = CARTESIAN_POINT ( 'NONE',  ( -7.582401355855259480E-33, 0.7499999999999998890, 0.000000000000000000 ) ) ;
#21 = UNCERTAINTY_MEASURE_WITH_UNIT (LENGTH_MEASURE( 1.000000000000000082E-05 ), #148, 'distance_accuracy_value', 'NONE');
#22 =( NAMED_UNIT ( * ) SI_UNIT ( $, .STERADIAN. ) SOLID_ANGLE_UNIT ( ) );
#23 = PRESENTATION_STYLE_ASSIGNMENT (( #154 ) ) ;
#24 = CYLINDRICAL_SURFACE ( 'NONE', #262, 0.09375000000000002776 ) ;
#25 =( GEOMETRIC_REPRESENTATION_CONTEXT ( 3 ) GLOBAL_UNCERTAINTY_ASSIGNED_CONTEXT ( ( #111 ) ) GLOBAL_UNIT_ASSIGNED_CONTEXT ( ( #62, #254, #257 ) ) REPRESENTATION_CONTEXT ( 'NONE', 'WORKASPACE' ) );
#26 = SURFACE_SIDE_STYLE ('',( #117 ) ) ;
#27 = SURFACE_SIDE_STYLE ('',( #292 ) ) ;
#28 = LENGTH_MEASURE_WITH_UNIT ( LENGTH_MEASURE( 0.02539999999999999897 ), #268 );
#29 = ORIENTED_EDGE ( 'NONE', *, *, #45, .F. ) ;
#30 = ADVANCED_FACE ( 'NONE', ( #237 ), #243, .T. ) ;
#31 = CARTESIAN_POINT ( 'NONE',  ( 0.000000000000000000, 0.7500000000000001110, 0.000000000000000000 ) ) ;
#32 = ORIENTED_EDGE ( 'NONE', *, *, #259, .F. ) ;
#33 = MECHANICAL_DESIGN_GEOMETRIC_PRESENTATION_REPRESENTATION (  '', ( #12 ), #190 ) ;
#34 =( NAMED_UNIT ( * ) PLANE_ANGLE_UNIT ( ) SI_UNIT ( $, .RADIAN. ) );
#35 = AXIS2_PLACEMENT_3D ( 'NONE', #202, #175, #298 ) ;
#36 = CARTESIAN_POINT ( 'NONE',  ( -0.09375000000000009714, 2.500000000000000000, 0.000000000000000000 ) ) ;
#37 = CARTESIAN_POINT ( 'NONE',  ( 0.000000000000000000, 0.000000000000000000, 0.000000000000000000 ) ) ;
#38 = CARTESIAN_POINT ( 'NONE',  ( 1.148106374200643401E-17, 0.000000000000000000, 0.09374999999999998612 ) ) ;
#39 = DIRECTION ( 'NONE',  ( -1.000000000000000000, 0.000000000000000000, 0.000000000000000000 ) ) ;
#40 = MECHANICAL_DESIGN_GEOMETRIC_PRESENTATION_REPRESENTATION (  '', ( #240 ), #25 ) ;
#41 = MECHANICAL_DESIGN_GEOMETRIC_PRESENTATION_REPRESENTATION (  '', ( #206 ), #169 ) ;
#42 = ORIENTED_EDGE ( 'NONE', *, *, #109, .T. ) ;
#43 = ORIENTED_EDGE ( 'NONE', *, *, #13, .F. ) ;
#44 = CARTESIAN_POINT ( 'NONE',  ( 0.09374999999999995837, 2.500000000000000000, 1.148106374200644017E-17 ) ) ;
#45 = EDGE_CURVE ( 'NONE', #8, #162, #212, .T. ) ;
#46 = PLANE ( 'NONE',  #84 ) ;
#47 = MECHANICAL_DESIGN_GEOMETRIC_PRESENTATION_REPRESENTATION (  '', ( #113 ), #267 ) ;
#48 = DIRECTION ( 'NONE',  ( -3.498990854706722745E-17, 1.000000000000000000, -0.000000000000000000 ) ) ;
#49 = ORIENTED_EDGE ( 'NONE', *, *, #259, .T. ) ;
#50 =( CONVERSION_BASED_UNIT ( 'INCH', #149 ) LENGTH_UNIT ( ) NAMED_UNIT ( #270 ) );
#51 = PRODUCT_RELATED_PRODUCT_CATEGORY ( 'part', '', ( #133 ) ) ;
#52 = VERTEX_POINT ( 'NONE', #91 ) ;
#53 = MANIFOLD_SOLID_BREP ( 'Revolve - Tool Body (Straight Shanked)', #219 ) ;
#54 = DIRECTION ( 'NONE',  ( -0.000000000000000000, -1.000000000000000000, -0.000000000000000000 ) ) ;
#55 = DIMENSIONAL_EXPONENTS ( 1.000000000000000000, 0.000000000000000000, 0.000000000000000000, 0.000000000000000000, 0.000000000000000000, 0.000000000000000000, 0.000000000000000000 ) ;
#56 = PRODUCT_DEFINITION_FORMATION_WITH_SPECIFIED_SOURCE ( 'ANY', '', #133, .NOT_KNOWN. ) ;
#57 = DIRECTION ( 'NONE',  ( 0.000000000000000000, 0.000000000000000000, -1.000000000000000000 ) ) ;
#58 = EDGE_CURVE ( 'NONE', #52, #201, #216, .T. ) ;
#59 = CARTESIAN_POINT ( 'NONE',  ( 0.000000000000000000, 0.000000000000000000, -0.09375000000000001388 ) ) ;
#60 = SURFACE_STYLE_USAGE ( .BOTH. , #274 ) ;
#61 = CIRCLE ( 'NONE', #272, 0.09374999999999998612 ) ;
#62 =( CONVERSION_BASED_UNIT ( 'INCH', #159 ) LENGTH_UNIT ( ) NAMED_UNIT ( #307 ) );
#63 = FILL_AREA_STYLE ('',( #230 ) ) ;
#64 =( NAMED_UNIT ( * ) SI_UNIT ( $, .STERADIAN. ) SOLID_ANGLE_UNIT ( ) );
#65 = DIRECTION ( 'NONE',  ( -3.498990854706722745E-17, 1.000000000000000000, -0.000000000000000000 ) ) ;
#66 = COLOUR_RGB ( '',1.000000000000000000, 0.000000000000000000, 0.000000000000000000 ) ;
#67 = DIRECTION ( 'NONE',  ( 1.000000000000000000, 0.000000000000000000, 0.000000000000000000 ) ) ;
#68 = STYLED_ITEM ( 'NONE', ( #275 ), #102 ) ;
#69 = AXIS2_PLACEMENT_3D ( 'NONE', #223, #308, #57 ) ;
#70 =( LENGTH_UNIT ( ) NAMED_UNIT ( * ) SI_UNIT ( $, .METRE. ) );
#71 = DIRECTION ( 'NONE',  ( -3.498990854706722745E-17, 1.000000000000000000, -0.000000000000000000 ) ) ;
#72 = FILL_AREA_STYLE ('',( #286 ) ) ;
#73 = DIRECTION ( 'NONE',  ( 0.000000000000000000, 0.000000000000000000, -1.000000000000000000 ) ) ;
#74 = CIRCLE ( 'NONE', #253, 0.09375000000000005551 ) ;
#75 = ORIENTED_EDGE ( 'NONE', *, *, #13, .T. ) ;
#76 = ORIENTED_EDGE ( 'NONE', *, *, #238, .F. ) ;
#77 =( NAMED_UNIT ( * ) PLANE_ANGLE_UNIT ( ) SI_UNIT ( $, .RADIAN. ) );
#78 = DIRECTION ( 'NONE',  ( 0.000000000000000000, 0.000000000000000000, -1.000000000000000000 ) ) ;
#79 = EDGE_CURVE ( 'NONE', #52, #229, #61, .T. ) ;
#80 = FACE_OUTER_BOUND ( 'NONE', #81, .T. ) ;
#81 = EDGE_LOOP ( 'NONE', ( #193, #177, #32, #127 ) ) ;
#82 = ORIENTED_EDGE ( 'NONE', *, *, #114, .F. ) ;
#83 = DIRECTION ( 'NONE',  ( -0.000000000000000000, -1.000000000000000000, -0.000000000000000000 ) ) ;
#84 = AXIS2_PLACEMENT_3D ( 'NONE', #211, #15, #19 ) ;
#85 = CIRCLE ( 'NONE', #121, 0.09374999999999998612 ) ;
#86 = FILL_AREA_STYLE ('',( #204 ) ) ;
#87 = ADVANCED_FACE ( 'NONE', ( #244 ), #218, .T. ) ;
#88 = DIRECTION ( 'NONE',  ( 0.000000000000000000, 0.000000000000000000, -1.000000000000000000 ) ) ;
#89 =( CONVERSION_BASED_UNIT ( 'INCH', #146 ) LENGTH_UNIT ( ) NAMED_UNIT ( #194 ) );
#90 = ORIENTED_EDGE ( 'NONE', *, *, #139, .T. ) ;
#91 = CARTESIAN_POINT ( 'NONE',  ( 0.000000000000000000, 0.7500000000000001110, -0.09374999999999998612 ) ) ;
#92 = FILL_AREA_STYLE_COLOUR ( '', #303 ) ;
#93 = DIRECTION ( 'NONE',  ( 0.000000000000000000, 0.000000000000000000, 1.000000000000000000 ) ) ;
#94 = PRESENTATION_STYLE_ASSIGNMENT (( #217 ) ) ;
#95 = CIRCLE ( 'NONE', #273, 0.09375000000000001388 ) ;
#96 = UNCERTAINTY_MEASURE_WITH_UNIT (LENGTH_MEASURE( 1.000000000000000082E-05 ), #50, 'distance_accuracy_value', 'NONE');
#97 = SURFACE_STYLE_FILL_AREA ( #123 ) ;
#98 =( NAMED_UNIT ( * ) PLANE_ANGLE_UNIT ( ) SI_UNIT ( $, .RADIAN. ) );
#99 = PRESENTATION_LAYER_ASSIGNMENT (  '', '', ( #68 ) ) ;
#100 = ORIENTED_EDGE ( 'NONE', *, *, #139, .F. ) ;
#101 = LENGTH_MEASURE_WITH_UNIT ( LENGTH_MEASURE( 0.02539999999999999897 ), #7 );
#102 = ADVANCED_FACE ( 'NONE', ( #80 ), #226, .T. ) ;
#103 = PLANE ( 'NONE',  #220 ) ;
#104 = DIRECTION ( 'NONE',  ( -0.000000000000000000, -1.000000000000000000, -0.000000000000000000 ) ) ;
#105 = DIRECTION ( 'NONE',  ( -3.498990854706722745E-17, 1.000000000000000000, -0.000000000000000000 ) ) ;
#106 = CLOSED_SHELL ( 'NONE', ( #102, #87, #200, #130 ) ) ;
#107 =( GEOMETRIC_REPRESENTATION_CONTEXT ( 3 ) GLOBAL_UNCERTAINTY_ASSIGNED_CONTEXT ( ( #21 ) ) GLOBAL_UNIT_ASSIGNED_CONTEXT ( ( #148, #98, #225 ) ) REPRESENTATION_CONTEXT ( 'NONE', 'WORKASPACE' ) );
#108 = APPLICATION_PROTOCOL_DEFINITION ( 'draft international standard', 'automotive_design', 1998, #214 ) ;
#109 = EDGE_CURVE ( 'NONE', #256, #162, #213, .T. ) ;
#110 = DIRECTION ( 'NONE',  ( -1.000000000000000000, 0.000000000000000000, 0.000000000000000000 ) ) ;
#111 = UNCERTAINTY_MEASURE_WITH_UNIT (LENGTH_MEASURE( 1.000000000000000082E-05 ), #62, 'distance_accuracy_value', 'NONE');
#112 = COLOUR_RGB ( '',1.000000000000000000, 0.000000000000000000, 0.000000000000000000 ) ;
#113 = STYLED_ITEM ( 'NONE', ( #294 ), #174 ) ;
#114 = EDGE_CURVE ( 'NONE', #229, #118, #260, .T. ) ;
#115 =( CONVERSION_BASED_UNIT ( 'INCH', #28 ) LENGTH_UNIT ( ) NAMED_UNIT ( #247 ) );
#116 = SURFACE_STYLE_FILL_AREA ( #72 ) ;
#117 = SURFACE_STYLE_FILL_AREA ( #122 ) ;
#118 = VERTEX_POINT ( 'NONE', #120 ) ;
#119 =( LENGTH_UNIT ( ) NAMED_UNIT ( * ) SI_UNIT ( $, .METRE. ) );
#120 = CARTESIAN_POINT ( 'NONE',  ( 1.148106374200643555E-17, 0.000000000000000000, 0.09375000000000001388 ) ) ;
#121 = AXIS2_PLACEMENT_3D ( 'NONE', #31, #83, #131 ) ;
#122 = FILL_AREA_STYLE ('',( #250 ) ) ;
#123 = FILL_AREA_STYLE ('',( #290 ) ) ;
#124 = DIMENSIONAL_EXPONENTS ( 1.000000000000000000, 0.000000000000000000, 0.000000000000000000, 0.000000000000000000, 0.000000000000000000, 0.000000000000000000, 0.000000000000000000 ) ;
#125 = ORIENTED_EDGE ( 'NONE', *, *, #17, .F. ) ;
#126 = PRODUCT_DEFINITION_SHAPE ( 'NONE', 'NONE',  #176 ) ;
#127 = ORIENTED_EDGE ( 'NONE', *, *, #58, .F. ) ;
#128 = CIRCLE ( 'NONE', #163, 0.09374999999999998612 ) ;
#129 = PRESENTATION_LAYER_ASSIGNMENT (  '', '', ( #113 ) ) ;
#130 = ADVANCED_FACE ( 'NONE', ( #305 ), #221, .T. ) ;
#131 = DIRECTION ( 'NONE',  ( 0.000000000000000000, 0.000000000000000000, -1.000000000000000000 ) ) ;
#132 = DIRECTION ( 'NONE',  ( 0.000000000000000000, -0.000000000000000000, 1.000000000000000000 ) ) ;
#133 = PRODUCT ( '03120', '03120', '', ( #140 ) ) ;
#134 = EDGE_LOOP ( 'NONE', ( #82, #189, #143, #100 ) ) ;
#135 = DIRECTION ( 'NONE',  ( -0.000000000000000000, -1.000000000000000000, -0.000000000000000000 ) ) ;
#136 = EDGE_LOOP ( 'NONE', ( #29, #304, #151, #269 ) ) ;
#137 = UNCERTAINTY_MEASURE_WITH_UNIT (LENGTH_MEASURE( 1.000000000000000082E-05 ), #115, 'distance_accuracy_value', 'NONE');
#138 = COLOUR_RGB ( '',0.7921568627450980005, 0.8196078431372548767, 0.9333333333333333481 ) ;
#139 = EDGE_CURVE ( 'NONE', #118, #201, #183, .T. ) ;
#140 = PRODUCT_CONTEXT ( 'NONE', #197, 'mechanical' ) ;
#141 = DIRECTION ( 'NONE',  ( -1.000000000000000000, 0.000000000000000000, 0.000000000000000000 ) ) ;
#142 = ADVANCED_BREP_SHAPE_REPRESENTATION ( '03120', ( #174, #53, #232 ), #185 ) ;
#143 = ORIENTED_EDGE ( 'NONE', *, *, #58, .T. ) ;
#144 = UNCERTAINTY_MEASURE_WITH_UNIT (LENGTH_MEASURE( 1.000000000000000082E-05 ), #157, 'distance_accuracy_value', 'NONE');
#145 = AXIS2_PLACEMENT_3D ( 'NONE', #297, #155, #132 ) ;
#146 = LENGTH_MEASURE_WITH_UNIT ( LENGTH_MEASURE( 0.02539999999999999897 ), #70 );
#147 = ORIENTED_EDGE ( 'NONE', *, *, #245, .T. ) ;
#148 =( CONVERSION_BASED_UNIT ( 'INCH', #242 ) LENGTH_UNIT ( ) NAMED_UNIT ( #124 ) );
#149 = LENGTH_MEASURE_WITH_UNIT ( LENGTH_MEASURE( 0.02539999999999999897 ), #161 );
#150 = FACE_OUTER_BOUND ( 'NONE', #136, .T. ) ;
#151 = ORIENTED_EDGE ( 'NONE', *, *, #224, .T. ) ;
#152 = DIRECTION ( 'NONE',  ( -0.000000000000000000, -1.000000000000000000, -0.000000000000000000 ) ) ;
#153 = DIRECTION ( 'NONE',  ( -3.498990854706722745E-17, 1.000000000000000000, -0.000000000000000000 ) ) ;
#154 = SURFACE_STYLE_USAGE ( .BOTH. , #27 ) ;
#155 = DIRECTION ( 'NONE',  ( 0.000000000000000000, 1.000000000000000000, 0.000000000000000000 ) ) ;
#156 = DIRECTION ( 'NONE',  ( 1.000000000000000000, 3.498990854706722745E-17, 0.000000000000000000 ) ) ;
#157 =( CONVERSION_BASED_UNIT ( 'INCH', #10 ) LENGTH_UNIT ( ) NAMED_UNIT ( #293 ) );
#158 = CARTESIAN_POINT ( 'NONE',  ( -0.09375000000000012490, 2.500000000000000000, 0.000000000000000000 ) ) ;
#159 = LENGTH_MEASURE_WITH_UNIT ( LENGTH_MEASURE( 0.02539999999999999897 ), #119 );
#160 = CARTESIAN_POINT ( 'NONE',  ( 0.000000000000000000, 0.000000000000000000, 0.000000000000000000 ) ) ;
#161 =( LENGTH_UNIT ( ) NAMED_UNIT ( * ) SI_UNIT ( $, .METRE. ) );
#162 = VERTEX_POINT ( 'NONE', #173 ) ;
#163 = AXIS2_PLACEMENT_3D ( 'NONE', #299, #71, #165 ) ;
#164 = SHAPE_DEFINITION_REPRESENTATION ( #126, #142 ) ;
#165 = DIRECTION ( 'NONE',  ( -1.000000000000000000, 0.000000000000000000, 0.000000000000000000 ) ) ;
#166 = SURFACE_SIDE_STYLE ('',( #116 ) ) ;
#167 = CARTESIAN_POINT ( 'NONE',  ( 0.000000000000000000, 0.7500000000000001110, 0.000000000000000000 ) ) ;
#168 = PRESENTATION_LAYER_ASSIGNMENT (  '', '', ( #12 ) ) ;
#169 =( GEOMETRIC_REPRESENTATION_CONTEXT ( 3 ) GLOBAL_UNCERTAINTY_ASSIGNED_CONTEXT ( ( #248 ) ) GLOBAL_UNIT_ASSIGNED_CONTEXT ( ( #6, #203, #64 ) ) REPRESENTATION_CONTEXT ( 'NONE', 'WORKASPACE' ) );
#170 = SURFACE_STYLE_USAGE ( .BOTH. , #196 ) ;
#171 = EDGE_LOOP ( 'NONE', ( #42, #147 ) ) ;
#172 = ADVANCED_FACE ( 'NONE', ( #150 ), #24, .T. ) ;
#173 = CARTESIAN_POINT ( 'NONE',  ( 0.09374999999999998612, 2.500000000000000000, 1.148106374200644171E-17 ) ) ;
#174 = MANIFOLD_SOLID_BREP ( 'Revolve - Cutting Edge', #106 ) ;
#175 = DIRECTION ( 'NONE',  ( -0.000000000000000000, -1.000000000000000000, -0.000000000000000000 ) ) ;
#176 = PRODUCT_DEFINITION ( 'UNKNOWN', '', #56, #11 ) ;
#177 = ORIENTED_EDGE ( 'NONE', *, *, #114, .T. ) ;
#178 =( LENGTH_UNIT ( ) NAMED_UNIT ( * ) SI_UNIT ( $, .METRE. ) );
#179 = CARTESIAN_POINT ( 'NONE',  ( 0.09374999999999998612, 2.500000000000000000, 0.000000000000000000 ) ) ;
#180 = PRESENTATION_STYLE_ASSIGNMENT (( #60 ) ) ;
#181 = PRESENTATION_LAYER_ASSIGNMENT (  '', '', ( #240 ) ) ;
#182 = SURFACE_STYLE_USAGE ( .BOTH. , #2 ) ;
#183 = CIRCLE ( 'NONE', #69, 0.09375000000000001388 ) ;
#184 =( GEOMETRIC_REPRESENTATION_CONTEXT ( 3 ) GLOBAL_UNCERTAINTY_ASSIGNED_CONTEXT ( ( #144 ) ) GLOBAL_UNIT_ASSIGNED_CONTEXT ( ( #157, #34, #5 ) ) REPRESENTATION_CONTEXT ( 'NONE', 'WORKASPACE' ) );
#185 =( GEOMETRIC_REPRESENTATION_CONTEXT ( 3 ) GLOBAL_UNCERTAINTY_ASSIGNED_CONTEXT ( ( #283 ) ) GLOBAL_UNIT_ASSIGNED_CONTEXT ( ( #89, #284, #265 ) ) REPRESENTATION_CONTEXT ( 'NONE', 'WORKASPACE' ) );
#186 = FACE_OUTER_BOUND ( 'NONE', #263, .T. ) ;
#187 = EDGE_LOOP ( 'NONE', ( #266, #76 ) ) ;
#188 = CARTESIAN_POINT ( 'NONE',  ( 0.000000000000000000, 0.000000000000000000, -0.09374999999999998612 ) ) ;
#189 = ORIENTED_EDGE ( 'NONE', *, *, #238, .T. ) ;
#190 =( GEOMETRIC_REPRESENTATION_CONTEXT ( 3 ) GLOBAL_UNCERTAINTY_ASSIGNED_CONTEXT ( ( #96 ) ) GLOBAL_UNIT_ASSIGNED_CONTEXT ( ( #50, #77, #22 ) ) REPRESENTATION_CONTEXT ( 'NONE', 'WORKASPACE' ) );
#191 = COLOUR_RGB ( '',0.7921568627450980005, 0.8196078431372548767, 0.9333333333333333481 ) ;
#192 = FACE_OUTER_BOUND ( 'NONE', #134, .T. ) ;
#193 = ORIENTED_EDGE ( 'NONE', *, *, #79, .T. ) ;
#194 = DIMENSIONAL_EXPONENTS ( 1.000000000000000000, 0.000000000000000000, 0.000000000000000000, 0.000000000000000000, 0.000000000000000000, 0.000000000000000000, 0.000000000000000000 ) ;
#195 = DIRECTION ( 'NONE',  ( 0.000000000000000000, -1.000000000000000000, -0.000000000000000000 ) ) ;
#196 = SURFACE_SIDE_STYLE ('',( #97 ) ) ;
#197 = APPLICATION_CONTEXT ( 'automotive_design' ) ;
#198 =( NAMED_UNIT ( * ) PLANE_ANGLE_UNIT ( ) SI_UNIT ( $, .RADIAN. ) );
#199 = VECTOR ( 'NONE', #54, 39.37007874015748143 ) ;
#200 = ADVANCED_FACE ( 'NONE', ( #192 ), #252, .T. ) ;
#201 = VERTEX_POINT ( 'NONE', #59 ) ;
#202 = CARTESIAN_POINT ( 'NONE',  ( 0.000000000000000000, 0.000000000000000000, 0.000000000000000000 ) ) ;
#203 =( NAMED_UNIT ( * ) PLANE_ANGLE_UNIT ( ) SI_UNIT ( $, .RADIAN. ) );
#204 = FILL_AREA_STYLE_COLOUR ( '', #66 ) ;
#205 = AXIS2_PLACEMENT_3D ( 'NONE', #20, #264, #141 ) ;
#206 = STYLED_ITEM ( 'NONE', ( #180 ), #200 ) ;
#207 = DIRECTION ( 'NONE',  ( 3.498990854706722745E-17, -1.000000000000000000, 0.000000000000000000 ) ) ;
#208 = PRESENTATION_LAYER_ASSIGNMENT (  '', '', ( #206 ) ) ;
#209 = APPLICATION_PROTOCOL_DEFINITION ( 'draft international standard', 'automotive_design', 1998, #197 ) ;
#210 = CARTESIAN_POINT ( 'NONE',  ( -0.09374999999999998612, 0.7499999999999998890, 0.000000000000000000 ) ) ;
#211 = CARTESIAN_POINT ( 'NONE',  ( 5.738876719369350386E-35, 0.7500000000000001110, 0.000000000000000000 ) ) ;
#212 = LINE ( 'NONE', #44, #276 ) ;
#213 = CIRCLE ( 'NONE', #14, 0.09375000000000005551 ) ;
#214 = APPLICATION_CONTEXT ( 'automotive_design' ) ;
#215 = DIRECTION ( 'NONE',  ( -3.498990854706722745E-17, 1.000000000000000000, -0.000000000000000000 ) ) ;
#216 = LINE ( 'NONE', #188, #199 ) ;
#217 = SURFACE_STYLE_USAGE ( .BOTH. , #166 ) ;
#218 = PLANE ( 'NONE',  #145 ) ;
#219 = CLOSED_SHELL ( 'NONE', ( #30, #285, #172, #235 ) ) ;
#220 = AXIS2_PLACEMENT_3D ( 'NONE', #179, #207, #156 ) ;
#221 = PLANE ( 'NONE',  #281 ) ;
#222 = SURFACE_STYLE_USAGE ( .BOTH. , #26 ) ;
#223 = CARTESIAN_POINT ( 'NONE',  ( 0.000000000000000000, 0.000000000000000000, 0.000000000000000000 ) ) ;
#224 = EDGE_CURVE ( 'NONE', #300, #256, #233, .T. ) ;
#225 =( NAMED_UNIT ( * ) SI_UNIT ( $, .STERADIAN. ) SOLID_ANGLE_UNIT ( ) );
#226 = CYLINDRICAL_SURFACE ( 'NONE', #258, 0.09374999999999998612 ) ;
#227 = PRESENTATION_LAYER_ASSIGNMENT (  '', '', ( #282 ) ) ;
#228 = ORIENTED_EDGE ( 'NONE', *, *, #109, .F. ) ;
#229 = VERTEX_POINT ( 'NONE', #9 ) ;
#230 = FILL_AREA_STYLE_COLOUR ( '', #288 ) ;
#231 = DIRECTION ( 'NONE',  ( -3.498990854706722745E-17, 1.000000000000000000, -0.000000000000000000 ) ) ;
#232 = AXIS2_PLACEMENT_3D ( 'NONE', #306, #93, #67 ) ;
#233 = LINE ( 'NONE', #36, #236 ) ;
#234 = DIRECTION ( 'NONE',  ( -1.000000000000000000, 0.000000000000000000, 0.000000000000000000 ) ) ;
#235 = ADVANCED_FACE ( 'NONE', ( #279 ), #103, .F. ) ;
#236 = VECTOR ( 'NONE', #231, 39.37007874015748143 ) ;
#237 = FACE_OUTER_BOUND ( 'NONE', #277, .T. ) ;
#238 = EDGE_CURVE ( 'NONE', #229, #52, #85, .T. ) ;
#239 = ORIENTED_EDGE ( 'NONE', *, *, #224, .F. ) ;
#240 = STYLED_ITEM ( 'NONE', ( #289 ), #87 ) ;
#241 = VECTOR ( 'NONE', #135, 39.37007874015748143 ) ;
#242 = LENGTH_MEASURE_WITH_UNIT ( LENGTH_MEASURE( 0.02539999999999999897 ), #271 );
#243 = CYLINDRICAL_SURFACE ( 'NONE', #295, 0.09375000000000002776 ) ;
#244 = FACE_OUTER_BOUND ( 'NONE', #187, .T. ) ;
#245 = EDGE_CURVE ( 'NONE', #162, #256, #74, .T. ) ;
#246 = CARTESIAN_POINT ( 'NONE',  ( -6.123233995736766036E-17, 2.500000000000000000, 0.000000000000000000 ) ) ;
#247 = DIMENSIONAL_EXPONENTS ( 1.000000000000000000, 0.000000000000000000, 0.000000000000000000, 0.000000000000000000, 0.000000000000000000, 0.000000000000000000, 0.000000000000000000 ) ;
#248 = UNCERTAINTY_MEASURE_WITH_UNIT (LENGTH_MEASURE( 1.000000000000000082E-05 ), #6, 'distance_accuracy_value', 'NONE');
#249 = MECHANICAL_DESIGN_GEOMETRIC_PRESENTATION_REPRESENTATION (  '', ( #68 ), #184 ) ;
#250 = FILL_AREA_STYLE_COLOUR ( '', #112 ) ;
#251 = DIRECTION ( 'NONE',  ( -1.000000000000000000, 0.000000000000000000, 0.000000000000000000 ) ) ;
#252 = CYLINDRICAL_SURFACE ( 'NONE', #35, 0.09374999999999998612 ) ;
#253 = AXIS2_PLACEMENT_3D ( 'NONE', #301, #105, #39 ) ;
#254 =( NAMED_UNIT ( * ) PLANE_ANGLE_UNIT ( ) SI_UNIT ( $, .RADIAN. ) );
#255 = SURFACE_STYLE_FILL_AREA ( #63 ) ;
#256 = VERTEX_POINT ( 'NONE', #158 ) ;
#257 =( NAMED_UNIT ( * ) SI_UNIT ( $, .STERADIAN. ) SOLID_ANGLE_UNIT ( ) );
#258 = AXIS2_PLACEMENT_3D ( 'NONE', #160, #302, #88 ) ;
#259 = EDGE_CURVE ( 'NONE', #201, #118, #95, .T. ) ;
#260 = LINE ( 'NONE', #38, #241 ) ;
#261 = DIRECTION ( 'NONE',  ( 0.000000000000000000, 0.000000000000000000, -1.000000000000000000 ) ) ;
#262 = AXIS2_PLACEMENT_3D ( 'NONE', #246, #153, #251 ) ;
#263 = EDGE_LOOP ( 'NONE', ( #43, #125 ) ) ;
#264 = DIRECTION ( 'NONE',  ( -3.498990854706722745E-17, 1.000000000000000000, -0.000000000000000000 ) ) ;
#265 =( NAMED_UNIT ( * ) SI_UNIT ( $, .STERADIAN. ) SOLID_ANGLE_UNIT ( ) );
#266 = ORIENTED_EDGE ( 'NONE', *, *, #79, .F. ) ;
#267 =( GEOMETRIC_REPRESENTATION_CONTEXT ( 3 ) GLOBAL_UNCERTAINTY_ASSIGNED_CONTEXT ( ( #137 ) ) GLOBAL_UNIT_ASSIGNED_CONTEXT ( ( #115, #198, #296 ) ) REPRESENTATION_CONTEXT ( 'NONE', 'WORKASPACE' ) );
#268 =( LENGTH_UNIT ( ) NAMED_UNIT ( * ) SI_UNIT ( $, .METRE. ) );
#269 = ORIENTED_EDGE ( 'NONE', *, *, #245, .F. ) ;
#270 = DIMENSIONAL_EXPONENTS ( 1.000000000000000000, 0.000000000000000000, 0.000000000000000000, 0.000000000000000000, 0.000000000000000000, 0.000000000000000000, 0.000000000000000000 ) ;
#271 =( LENGTH_UNIT ( ) NAMED_UNIT ( * ) SI_UNIT ( $, .METRE. ) );
#272 = AXIS2_PLACEMENT_3D ( 'NONE', #167, #152, #73 ) ;
#273 = AXIS2_PLACEMENT_3D ( 'NONE', #37, #104, #261 ) ;
#274 = SURFACE_SIDE_STYLE ('',( #255 ) ) ;
#275 = PRESENTATION_STYLE_ASSIGNMENT (( #182 ) ) ;
#276 = VECTOR ( 'NONE', #215, 39.37007874015748143 ) ;
#277 = EDGE_LOOP ( 'NONE', ( #75, #1, #228, #239 ) ) ;
#278 = SURFACE_STYLE_FILL_AREA ( #86 ) ;
#279 = FACE_OUTER_BOUND ( 'NONE', #171, .T. ) ;
#280 = CARTESIAN_POINT ( 'NONE',  ( -6.123233995736766036E-17, 2.500000000000000000, 0.000000000000000000 ) ) ;
#281 = AXIS2_PLACEMENT_3D ( 'NONE', #309, #195, #78 ) ;
#282 = STYLED_ITEM ( 'NONE', ( #23 ), #130 ) ;
#283 = UNCERTAINTY_MEASURE_WITH_UNIT (LENGTH_MEASURE( 1.000000000000000082E-05 ), #89, 'distance_accuracy_value', 'NONE');
#284 =( NAMED_UNIT ( * ) PLANE_ANGLE_UNIT ( ) SI_UNIT ( $, .RADIAN. ) );
#285 = ADVANCED_FACE ( 'NONE', ( #186 ), #46, .F. ) ;
#286 = FILL_AREA_STYLE_COLOUR ( '', #138 ) ;
#287 = FILL_AREA_STYLE ('',( #92 ) ) ;
#288 = COLOUR_RGB ( '',1.000000000000000000, 0.000000000000000000, 0.000000000000000000 ) ;
#289 = PRESENTATION_STYLE_ASSIGNMENT (( #222 ) ) ;
#290 = FILL_AREA_STYLE_COLOUR ( '', #191 ) ;
#291 = EDGE_LOOP ( 'NONE', ( #49, #90 ) ) ;
#292 = SURFACE_STYLE_FILL_AREA ( #287 ) ;
#293 = DIMENSIONAL_EXPONENTS ( 1.000000000000000000, 0.000000000000000000, 0.000000000000000000, 0.000000000000000000, 0.000000000000000000, 0.000000000000000000, 0.000000000000000000 ) ;
#294 = PRESENTATION_STYLE_ASSIGNMENT (( #170 ) ) ;
#295 = AXIS2_PLACEMENT_3D ( 'NONE', #16, #48, #110 ) ;
#296 =( NAMED_UNIT ( * ) SI_UNIT ( $, .STERADIAN. ) SOLID_ANGLE_UNIT ( ) );
#297 = CARTESIAN_POINT ( 'NONE',  ( 0.000000000000000000, 0.7500000000000001110, 0.000000000000000000 ) ) ;
#298 = DIRECTION ( 'NONE',  ( 0.000000000000000000, 0.000000000000000000, -1.000000000000000000 ) ) ;
#299 = CARTESIAN_POINT ( 'NONE',  ( -7.582401355855259480E-33, 0.7499999999999998890, 0.000000000000000000 ) ) ;
#300 = VERTEX_POINT ( 'NONE', #210 ) ;
#301 = CARTESIAN_POINT ( 'NONE',  ( -6.123233995736766036E-17, 2.500000000000000000, 0.000000000000000000 ) ) ;
#302 = DIRECTION ( 'NONE',  ( -0.000000000000000000, -1.000000000000000000, -0.000000000000000000 ) ) ;
#303 = COLOUR_RGB ( '',1.000000000000000000, 0.000000000000000000, 0.000000000000000000 ) ;
#304 = ORIENTED_EDGE ( 'NONE', *, *, #17, .T. ) ;
#305 = FACE_OUTER_BOUND ( 'NONE', #291, .T. ) ;
#306 = CARTESIAN_POINT ( 'NONE',  ( 0.000000000000000000, 0.000000000000000000, 0.000000000000000000 ) ) ;
#307 = DIMENSIONAL_EXPONENTS ( 1.000000000000000000, 0.000000000000000000, 0.000000000000000000, 0.000000000000000000, 0.000000000000000000, 0.000000000000000000, 0.000000000000000000 ) ;
#308 = DIRECTION ( 'NONE',  ( -0.000000000000000000, -1.000000000000000000, -0.000000000000000000 ) ) ;
#309 = CARTESIAN_POINT ( 'NONE',  ( 0.000000000000000000, 0.000000000000000000, 0.000000000000000000 ) ) ;
ENDSEC;
END-ISO-10303-21;
