ISO-10303-21;
HEADER;
FILE_DESCRIPTION (( 'STEP AP214' ),
    '1' );
FILE_NAME ('81939.STEP',
    '2023-06-23T03:57:41',
    ( '' ),
    ( '' ),
    'SwSTEP 2.0',
    'SolidWorks 2023',
    '' );
FILE_SCHEMA (( 'AUTOMOTIVE_DESIGN' ));
ENDSEC;

DATA;
#1 = CARTESIAN_POINT ( 'NONE',  ( -0.1875000000000000278, 1.500000000000000222, 0.000000000000000000 ) ) ;
#2 = PRODUCT_DEFINITION ( 'UNKNOWN', '', #63, #153 ) ;
#3 = PRESENTATION_LAYER_ASSIGNMENT (  '', '', ( #108 ) ) ;
#4 = PRESENTATION_STYLE_ASSIGNMENT (( #28 ) ) ;
#5 = CARTESIAN_POINT ( 'NONE',  ( 2.296212748401287726E-17, 0.000000000000000000, 0.1875000000000000278 ) ) ;
#6 =( CONVERSION_BASED_UNIT ( 'INCH', #85 ) LENGTH_UNIT ( ) NAMED_UNIT ( #98 ) );
#7 =( LENGTH_UNIT ( ) NAMED_UNIT ( * ) SI_UNIT ( $, .METRE. ) );
#8 = STYLED_ITEM ( 'NONE', ( #22 ), #278 ) ;
#9 = DIRECTION ( 'NONE',  ( 0.000000000000000000, 0.000000000000000000, -1.000000000000000000 ) ) ;
#10 = SURFACE_STYLE_USAGE ( .BOTH. , #228 ) ;
#11 =( CONVERSION_BASED_UNIT ( 'INCH', #149 ) LENGTH_UNIT ( ) NAMED_UNIT ( #117 ) );
#12 = DIRECTION ( 'NONE',  ( 0.000000000000000000, 0.000000000000000000, -1.000000000000000000 ) ) ;
#13 = SURFACE_STYLE_FILL_AREA ( #300 ) ;
#14 = CARTESIAN_POINT ( 'NONE',  ( 0.1875000000000000555, 3.500000000000000000, 2.296212748401287726E-17 ) ) ;
#15 =( GEOMETRIC_REPRESENTATION_CONTEXT ( 3 ) GLOBAL_UNCERTAINTY_ASSIGNED_CONTEXT ( ( #178 ) ) GLOBAL_UNIT_ASSIGNED_CONTEXT ( ( #182, #309, #16 ) ) REPRESENTATION_CONTEXT ( 'NONE', 'WORKASPACE' ) );
#16 =( NAMED_UNIT ( * ) SI_UNIT ( $, .STERADIAN. ) SOLID_ANGLE_UNIT ( ) );
#17 = ORIENTED_EDGE ( 'NONE', *, *, #240, .F. ) ;
#18 = DIRECTION ( 'NONE',  ( 0.000000000000000000, 0.000000000000000000, -1.000000000000000000 ) ) ;
#19 = ORIENTED_EDGE ( 'NONE', *, *, #71, .T. ) ;
#20 = MECHANICAL_DESIGN_GEOMETRIC_PRESENTATION_REPRESENTATION (  '', ( #39 ), #189 ) ;
#21 = FILL_AREA_STYLE_COLOUR ( '', #186 ) ;
#22 = PRESENTATION_STYLE_ASSIGNMENT (( #286 ) ) ;
#23 = ADVANCED_FACE ( 'NONE', ( #177 ), #81, .T. ) ;
#24 = DIRECTION ( 'NONE',  ( -1.000000000000000000, 0.000000000000000000, 0.000000000000000000 ) ) ;
#25 = LENGTH_MEASURE_WITH_UNIT ( LENGTH_MEASURE( 0.02539999999999999897 ), #115 );
#26 = CARTESIAN_POINT ( 'NONE',  ( 1.836970198721029688E-16, 3.500000000000000000, 0.000000000000000000 ) ) ;
#27 = ORIENTED_EDGE ( 'NONE', *, *, #106, .F. ) ;
#28 = SURFACE_STYLE_USAGE ( .BOTH. , #142 ) ;
#29 = LINE ( 'NONE', #78, #185 ) ;
#30 = DIRECTION ( 'NONE',  ( 0.000000000000000000, 1.000000000000000000, 0.000000000000000000 ) ) ;
#31 = PRODUCT_CONTEXT ( 'NONE', #132, 'mechanical' ) ;
#32 = DIRECTION ( 'NONE',  ( 1.000000000000000000, 0.000000000000000000, 0.000000000000000000 ) ) ;
#33 = CIRCLE ( 'NONE', #36, 0.1874999999999998890 ) ;
#34 = SURFACE_SIDE_STYLE ('',( #13 ) ) ;
#35 = SURFACE_STYLE_USAGE ( .BOTH. , #34 ) ;
#36 = AXIS2_PLACEMENT_3D ( 'NONE', #145, #124, #279 ) ;
#37 = PLANE ( 'NONE',  #139 ) ;
#38 = FILL_AREA_STYLE_COLOUR ( '', #97 ) ;
#39 = STYLED_ITEM ( 'NONE', ( #246 ), #55 ) ;
#40 = ORIENTED_EDGE ( 'NONE', *, *, #240, .T. ) ;
#41 = EDGE_CURVE ( 'NONE', #66, #136, #156, .T. ) ;
#42 = CARTESIAN_POINT ( 'NONE',  ( 0.000000000000000000, 1.500000000000000222, -0.1875000000000000278 ) ) ;
#43 = EDGE_LOOP ( 'NONE', ( #141, #146, #213, #17 ) ) ;
#44 =( NAMED_UNIT ( * ) PLANE_ANGLE_UNIT ( ) SI_UNIT ( $, .RADIAN. ) );
#45 = ORIENTED_EDGE ( 'NONE', *, *, #133, .F. ) ;
#46 = DIRECTION ( 'NONE',  ( -1.000000000000000000, 0.000000000000000000, 0.000000000000000000 ) ) ;
#47 = CIRCLE ( 'NONE', #144, 0.1875000000000000278 ) ;
#48 = CARTESIAN_POINT ( 'NONE',  ( 0.1875000000000000278, 1.500000000000000222, 2.296212748401286801E-17 ) ) ;
#49 = EDGE_LOOP ( 'NONE', ( #27, #277 ) ) ;
#50 = UNCERTAINTY_MEASURE_WITH_UNIT (LENGTH_MEASURE( 1.000000000000000082E-05 ), #192, 'distance_accuracy_value', 'NONE');
#51 = CARTESIAN_POINT ( 'NONE',  ( 0.000000000000000000, 0.000000000000000000, 0.000000000000000000 ) ) ;
#52 = STYLED_ITEM ( 'NONE', ( #301 ), #23 ) ;
#53 = DIRECTION ( 'NONE',  ( 0.000000000000000000, -0.000000000000000000, 1.000000000000000000 ) ) ;
#54 = DIRECTION ( 'NONE',  ( 0.000000000000000000, 0.000000000000000000, 1.000000000000000000 ) ) ;
#55 = ADVANCED_FACE ( 'NONE', ( #223 ), #270, .T. ) ;
#56 = PRESENTATION_LAYER_ASSIGNMENT (  '', '', ( #39 ) ) ;
#57 = CARTESIAN_POINT ( 'NONE',  ( -0.1874999999999996947, 3.500000000000000000, 0.000000000000000000 ) ) ;
#58 =( CONVERSION_BASED_UNIT ( 'INCH', #201 ) LENGTH_UNIT ( ) NAMED_UNIT ( #282 ) );
#59 = ORIENTED_EDGE ( 'NONE', *, *, #71, .F. ) ;
#60 = CLOSED_SHELL ( 'NONE', ( #307, #55, #23, #161 ) ) ;
#61 = SURFACE_STYLE_FILL_AREA ( #173 ) ;
#62 = COLOUR_RGB ( '',0.7921568627450980005, 0.8196078431372548767, 0.9333333333333333481 ) ;
#63 = PRODUCT_DEFINITION_FORMATION_WITH_SPECIFIED_SOURCE ( 'ANY', '', #274, .NOT_KNOWN. ) ;
#64 = CARTESIAN_POINT ( 'NONE',  ( 0.000000000000000000, 0.000000000000000000, 0.000000000000000000 ) ) ;
#65 = CARTESIAN_POINT ( 'NONE',  ( -0.1874999999999997780, 3.500000000000000000, 0.000000000000000000 ) ) ;
#66 = VERTEX_POINT ( 'NONE', #5 ) ;
#67 = COLOUR_RGB ( '',1.000000000000000000, 0.000000000000000000, 0.000000000000000000 ) ;
#68 = DIRECTION ( 'NONE',  ( -1.000000000000000000, 9.184850993605150903E-17, 0.000000000000000000 ) ) ;
#69 = VERTEX_POINT ( 'NONE', #222 ) ;
#70 = LENGTH_MEASURE_WITH_UNIT ( LENGTH_MEASURE( 0.02539999999999999897 ), #208 );
#71 = EDGE_CURVE ( 'NONE', #69, #66, #29, .T. ) ;
#72 = DIRECTION ( 'NONE',  ( -0.000000000000000000, -1.000000000000000000, -0.000000000000000000 ) ) ;
#73 = ORIENTED_EDGE ( 'NONE', *, *, #221, .F. ) ;
#74 = AXIS2_PLACEMENT_3D ( 'NONE', #291, #247, #143 ) ;
#75 = LENGTH_MEASURE_WITH_UNIT ( LENGTH_MEASURE( 0.02539999999999999897 ), #7 );
#76 = PRODUCT_RELATED_PRODUCT_CATEGORY ( 'part', '', ( #274 ) ) ;
#77 = FILL_AREA_STYLE ('',( #21 ) ) ;
#78 = CARTESIAN_POINT ( 'NONE',  ( 2.296212748401287726E-17, 0.000000000000000000, 0.1875000000000000278 ) ) ;
#79 = EDGE_CURVE ( 'NONE', #236, #136, #193, .T. ) ;
#80 = PLANE ( 'NONE',  #256 ) ;
#81 = CYLINDRICAL_SURFACE ( 'NONE', #82, 0.1875000000000000278 ) ;
#82 = AXIS2_PLACEMENT_3D ( 'NONE', #64, #251, #18 ) ;
#83 = DIMENSIONAL_EXPONENTS ( 1.000000000000000000, 0.000000000000000000, 0.000000000000000000, 0.000000000000000000, 0.000000000000000000, 0.000000000000000000, 0.000000000000000000 ) ;
#84 = DIRECTION ( 'NONE',  ( 0.000000000000000000, -1.000000000000000000, -0.000000000000000000 ) ) ;
#85 = LENGTH_MEASURE_WITH_UNIT ( LENGTH_MEASURE( 0.02539999999999999897 ), #199 );
#86 = UNCERTAINTY_MEASURE_WITH_UNIT (LENGTH_MEASURE( 1.000000000000000082E-05 ), #6, 'distance_accuracy_value', 'NONE');
#87 = LINE ( 'NONE', #263, #88 ) ;
#88 = VECTOR ( 'NONE', #233, 39.37007874015748143 ) ;
#89 = LENGTH_MEASURE_WITH_UNIT ( LENGTH_MEASURE( 0.02539999999999999897 ), #214 );
#90 = ORIENTED_EDGE ( 'NONE', *, *, #200, .T. ) ;
#91 = FACE_OUTER_BOUND ( 'NONE', #288, .T. ) ;
#92 = CLOSED_SHELL ( 'NONE', ( #294, #285, #255, #126 ) ) ;
#93 = EDGE_CURVE ( 'NONE', #69, #236, #202, .T. ) ;
#94 =( NAMED_UNIT ( * ) PLANE_ANGLE_UNIT ( ) SI_UNIT ( $, .RADIAN. ) );
#95 = CARTESIAN_POINT ( 'NONE',  ( 0.000000000000000000, 0.000000000000000000, -0.1875000000000000278 ) ) ;
#96 = STYLED_ITEM ( 'NONE', ( #105 ), #165 ) ;
#97 = COLOUR_RGB ( '',0.7921568627450980005, 0.8196078431372548767, 0.9333333333333333481 ) ;
#98 = DIMENSIONAL_EXPONENTS ( 1.000000000000000000, 0.000000000000000000, 0.000000000000000000, 0.000000000000000000, 0.000000000000000000, 0.000000000000000000, 0.000000000000000000 ) ;
#99 = DIRECTION ( 'NONE',  ( -0.000000000000000000, -1.000000000000000000, -0.000000000000000000 ) ) ;
#100 = PRESENTATION_STYLE_ASSIGNMENT (( #35 ) ) ;
#101 = VERTEX_POINT ( 'NONE', #48 ) ;
#102 = MECHANICAL_DESIGN_GEOMETRIC_PRESENTATION_REPRESENTATION (  '', ( #96 ), #287 ) ;
#103 = EDGE_CURVE ( 'NONE', #136, #66, #229, .T. ) ;
#104 = CARTESIAN_POINT ( 'NONE',  ( 0.000000000000000000, 0.000000000000000000, 0.000000000000000000 ) ) ;
#105 = PRESENTATION_STYLE_ASSIGNMENT (( #258 ) ) ;
#106 = EDGE_CURVE ( 'NONE', #303, #101, #112, .T. ) ;
#107 = MECHANICAL_DESIGN_GEOMETRIC_PRESENTATION_REPRESENTATION (  '', ( #52 ), #150 ) ;
#108 = STYLED_ITEM ( 'NONE', ( #100 ), #161 ) ;
#109 = DIRECTION ( 'NONE',  ( 9.184850993605150903E-17, 1.000000000000000000, -0.000000000000000000 ) ) ;
#110 = LINE ( 'NONE', #65, #123 ) ;
#111 = DIRECTION ( 'NONE',  ( -0.000000000000000000, -1.000000000000000000, -0.000000000000000000 ) ) ;
#112 = CIRCLE ( 'NONE', #168, 0.1875000000000000278 ) ;
#113 = ORIENTED_EDGE ( 'NONE', *, *, #188, .F. ) ;
#114 = FILL_AREA_STYLE ('',( #119 ) ) ;
#115 =( LENGTH_UNIT ( ) NAMED_UNIT ( * ) SI_UNIT ( $, .METRE. ) );
#116 = DIRECTION ( 'NONE',  ( 0.000000000000000000, 0.000000000000000000, -1.000000000000000000 ) ) ;
#117 = DIMENSIONAL_EXPONENTS ( 1.000000000000000000, 0.000000000000000000, 0.000000000000000000, 0.000000000000000000, 0.000000000000000000, 0.000000000000000000, 0.000000000000000000 ) ;
#118 = PRODUCT_DEFINITION_SHAPE ( 'NONE', 'NONE',  #2 ) ;
#119 = FILL_AREA_STYLE_COLOUR ( '', #308 ) ;
#120 = VERTEX_POINT ( 'NONE', #57 ) ;
#121 = EDGE_CURVE ( 'NONE', #120, #206, #283, .T. ) ;
#122 = SHAPE_DEFINITION_REPRESENTATION ( #118, #128 ) ;
#123 = VECTOR ( 'NONE', #284, 39.37007874015748143 ) ;
#124 = DIRECTION ( 'NONE',  ( 9.184850993605150903E-17, 1.000000000000000000, -0.000000000000000000 ) ) ;
#125 =( NAMED_UNIT ( * ) SI_UNIT ( $, .STERADIAN. ) SOLID_ANGLE_UNIT ( ) );
#126 = ADVANCED_FACE ( 'NONE', ( #296 ), #80, .F. ) ;
#127 = SURFACE_STYLE_FILL_AREA ( #254 ) ;
#128 = ADVANCED_BREP_SHAPE_REPRESENTATION ( '81939', ( #278, #165, #257 ), #162 ) ;
#129 = AXIS2_PLACEMENT_3D ( 'NONE', #167, #170, #273 ) ;
#130 = DIRECTION ( 'NONE',  ( 9.184850993605150903E-17, 1.000000000000000000, -0.000000000000000000 ) ) ;
#131 = APPLICATION_PROTOCOL_DEFINITION ( 'draft international standard', 'automotive_design', 1998, #132 ) ;
#132 = APPLICATION_CONTEXT ( 'automotive_design' ) ;
#133 = EDGE_CURVE ( 'NONE', #206, #120, #33, .T. ) ;
#134 = MECHANICAL_DESIGN_GEOMETRIC_PRESENTATION_REPRESENTATION (  '', ( #268 ), #147 ) ;
#135 = DIRECTION ( 'NONE',  ( -1.000000000000000000, 0.000000000000000000, 0.000000000000000000 ) ) ;
#136 = VERTEX_POINT ( 'NONE', #230 ) ;
#137 =( NAMED_UNIT ( * ) SI_UNIT ( $, .STERADIAN. ) SOLID_ANGLE_UNIT ( ) );
#138 = EDGE_LOOP ( 'NONE', ( #244, #212 ) ) ;
#139 = AXIS2_PLACEMENT_3D ( 'NONE', #187, #109, #68 ) ;
#140 = UNCERTAINTY_MEASURE_WITH_UNIT (LENGTH_MEASURE( 1.000000000000000082E-05 ), #219, 'distance_accuracy_value', 'NONE');
#141 = ORIENTED_EDGE ( 'NONE', *, *, #106, .T. ) ;
#142 = SURFACE_SIDE_STYLE ('',( #196 ) ) ;
#143 = DIRECTION ( 'NONE',  ( 0.000000000000000000, 0.000000000000000000, -1.000000000000000000 ) ) ;
#144 = AXIS2_PLACEMENT_3D ( 'NONE', #180, #111, #154 ) ;
#145 = CARTESIAN_POINT ( 'NONE',  ( 1.836970198721029688E-16, 3.500000000000000000, 0.000000000000000000 ) ) ;
#146 = ORIENTED_EDGE ( 'NONE', *, *, #221, .T. ) ;
#147 =( GEOMETRIC_REPRESENTATION_CONTEXT ( 3 ) GLOBAL_UNCERTAINTY_ASSIGNED_CONTEXT ( ( #50 ) ) GLOBAL_UNIT_ASSIGNED_CONTEXT ( ( #192, #292, #241 ) ) REPRESENTATION_CONTEXT ( 'NONE', 'WORKASPACE' ) );
#148 = DIRECTION ( 'NONE',  ( -1.000000000000000000, 0.000000000000000000, 0.000000000000000000 ) ) ;
#149 = LENGTH_MEASURE_WITH_UNIT ( LENGTH_MEASURE( 0.02539999999999999897 ), #152 );
#150 =( GEOMETRIC_REPRESENTATION_CONTEXT ( 3 ) GLOBAL_UNCERTAINTY_ASSIGNED_CONTEXT ( ( #266 ) ) GLOBAL_UNIT_ASSIGNED_CONTEXT ( ( #11, #181, #231 ) ) REPRESENTATION_CONTEXT ( 'NONE', 'WORKASPACE' ) );
#151 = SURFACE_SIDE_STYLE ('',( #61 ) ) ;
#152 =( LENGTH_UNIT ( ) NAMED_UNIT ( * ) SI_UNIT ( $, .METRE. ) );
#153 = PRODUCT_DEFINITION_CONTEXT ( 'detailed design', #217, 'design' ) ;
#154 = DIRECTION ( 'NONE',  ( 0.000000000000000000, 0.000000000000000000, -1.000000000000000000 ) ) ;
#155 = ORIENTED_EDGE ( 'NONE', *, *, #79, .T. ) ;
#156 = CIRCLE ( 'NONE', #160, 0.1875000000000000278 ) ;
#157 = CARTESIAN_POINT ( 'NONE',  ( 0.000000000000000000, 1.500000000000000222, 0.000000000000000000 ) ) ;
#158 = PRESENTATION_LAYER_ASSIGNMENT (  '', '', ( #268 ) ) ;
#159 = SURFACE_STYLE_USAGE ( .BOTH. , #242 ) ;
#160 = AXIS2_PLACEMENT_3D ( 'NONE', #51, #99, #116 ) ;
#161 = ADVANCED_FACE ( 'NONE', ( #227 ), #225, .T. ) ;
#162 =( GEOMETRIC_REPRESENTATION_CONTEXT ( 3 ) GLOBAL_UNCERTAINTY_ASSIGNED_CONTEXT ( ( #86 ) ) GLOBAL_UNIT_ASSIGNED_CONTEXT ( ( #6, #169, #248 ) ) REPRESENTATION_CONTEXT ( 'NONE', 'WORKASPACE' ) );
#163 = ORIENTED_EDGE ( 'NONE', *, *, #41, .F. ) ;
#164 = SURFACE_STYLE_FILL_AREA ( #114 ) ;
#165 = MANIFOLD_SOLID_BREP ( 'Revolve - Tool Body (Straight Shanked)', #92 ) ;
#166 = CYLINDRICAL_SURFACE ( 'NONE', #203, 0.1875000000000000278 ) ;
#167 = CARTESIAN_POINT ( 'NONE',  ( 0.000000000000000000, 1.500000000000000222, 0.000000000000000000 ) ) ;
#168 = AXIS2_PLACEMENT_3D ( 'NONE', #293, #250, #172 ) ;
#169 =( NAMED_UNIT ( * ) PLANE_ANGLE_UNIT ( ) SI_UNIT ( $, .RADIAN. ) );
#170 = DIRECTION ( 'NONE',  ( -0.000000000000000000, -1.000000000000000000, -0.000000000000000000 ) ) ;
#171 = ORIENTED_EDGE ( 'NONE', *, *, #93, .F. ) ;
#172 = DIRECTION ( 'NONE',  ( -1.000000000000000000, 0.000000000000000000, 0.000000000000000000 ) ) ;
#173 = FILL_AREA_STYLE ('',( #281 ) ) ;
#174 = MECHANICAL_DESIGN_GEOMETRIC_PRESENTATION_REPRESENTATION (  '', ( #108 ), #245 ) ;
#175 = CARTESIAN_POINT ( 'NONE',  ( 1.836970198721029688E-16, 3.500000000000000000, 0.000000000000000000 ) ) ;
#176 =( NAMED_UNIT ( * ) PLANE_ANGLE_UNIT ( ) SI_UNIT ( $, .RADIAN. ) );
#177 = FACE_OUTER_BOUND ( 'NONE', #269, .T. ) ;
#178 = UNCERTAINTY_MEASURE_WITH_UNIT (LENGTH_MEASURE( 1.000000000000000082E-05 ), #182, 'distance_accuracy_value', 'NONE');
#179 = DIMENSIONAL_EXPONENTS ( 1.000000000000000000, 0.000000000000000000, 0.000000000000000000, 0.000000000000000000, 0.000000000000000000, 0.000000000000000000, 0.000000000000000000 ) ;
#180 = CARTESIAN_POINT ( 'NONE',  ( 0.000000000000000000, 1.500000000000000222, 0.000000000000000000 ) ) ;
#181 =( NAMED_UNIT ( * ) PLANE_ANGLE_UNIT ( ) SI_UNIT ( $, .RADIAN. ) );
#182 =( CONVERSION_BASED_UNIT ( 'INCH', #89 ) LENGTH_UNIT ( ) NAMED_UNIT ( #232 ) );
#183 = EDGE_LOOP ( 'NONE', ( #290, #191 ) ) ;
#184 = CARTESIAN_POINT ( 'NONE',  ( 1.836970198721029688E-16, 3.500000000000000000, 0.000000000000000000 ) ) ;
#185 = VECTOR ( 'NONE', #72, 39.37007874015748143 ) ;
#186 = COLOUR_RGB ( '',1.000000000000000000, 0.000000000000000000, 0.000000000000000000 ) ;
#187 = CARTESIAN_POINT ( 'NONE',  ( 7.908889478880895288E-34, 1.500000000000000222, 0.000000000000000000 ) ) ;
#188 = EDGE_CURVE ( 'NONE', #236, #69, #47, .T. ) ;
#189 =( GEOMETRIC_REPRESENTATION_CONTEXT ( 3 ) GLOBAL_UNCERTAINTY_ASSIGNED_CONTEXT ( ( #140 ) ) GLOBAL_UNIT_ASSIGNED_CONTEXT ( ( #219, #94, #272 ) ) REPRESENTATION_CONTEXT ( 'NONE', 'WORKASPACE' ) );
#190 = DIRECTION ( 'NONE',  ( -0.000000000000000000, -1.000000000000000000, -0.000000000000000000 ) ) ;
#191 = ORIENTED_EDGE ( 'NONE', *, *, #133, .T. ) ;
#192 =( CONVERSION_BASED_UNIT ( 'INCH', #25 ) LENGTH_UNIT ( ) NAMED_UNIT ( #179 ) );
#193 = LINE ( 'NONE', #95, #271 ) ;
#194 = ORIENTED_EDGE ( 'NONE', *, *, #188, .T. ) ;
#195 = CARTESIAN_POINT ( 'NONE',  ( 0.000000000000000000, 1.500000000000000222, 0.000000000000000000 ) ) ;
#196 = SURFACE_STYLE_FILL_AREA ( #77 ) ;
#197 = AXIS2_PLACEMENT_3D ( 'NONE', #104, #84, #9 ) ;
#198 = PRESENTATION_LAYER_ASSIGNMENT (  '', '', ( #8 ) ) ;
#199 =( LENGTH_UNIT ( ) NAMED_UNIT ( * ) SI_UNIT ( $, .METRE. ) );
#200 = EDGE_CURVE ( 'NONE', #101, #303, #224, .T. ) ;
#201 = LENGTH_MEASURE_WITH_UNIT ( LENGTH_MEASURE( 0.02539999999999999897 ), #253 );
#202 = CIRCLE ( 'NONE', #129, 0.1875000000000000278 ) ;
#203 = AXIS2_PLACEMENT_3D ( 'NONE', #237, #218, #12 ) ;
#204 = DIMENSIONAL_EXPONENTS ( 1.000000000000000000, 0.000000000000000000, 0.000000000000000000, 0.000000000000000000, 0.000000000000000000, 0.000000000000000000, 0.000000000000000000 ) ;
#205 = CARTESIAN_POINT ( 'NONE',  ( 0.1875000000000000555, 3.500000000000000000, 0.000000000000000000 ) ) ;
#206 = VERTEX_POINT ( 'NONE', #14 ) ;
#207 = UNCERTAINTY_MEASURE_WITH_UNIT (LENGTH_MEASURE( 1.000000000000000082E-05 ), #264, 'distance_accuracy_value', 'NONE');
#208 =( LENGTH_UNIT ( ) NAMED_UNIT ( * ) SI_UNIT ( $, .METRE. ) );
#209 = ORIENTED_EDGE ( 'NONE', *, *, #103, .F. ) ;
#210 = AXIS2_PLACEMENT_3D ( 'NONE', #195, #30, #53 ) ;
#211 = AXIS2_PLACEMENT_3D ( 'NONE', #184, #238, #135 ) ;
#212 = ORIENTED_EDGE ( 'NONE', *, *, #41, .T. ) ;
#213 = ORIENTED_EDGE ( 'NONE', *, *, #121, .F. ) ;
#214 =( LENGTH_UNIT ( ) NAMED_UNIT ( * ) SI_UNIT ( $, .METRE. ) );
#215 = SURFACE_STYLE_FILL_AREA ( #234 ) ;
#216 = UNCERTAINTY_MEASURE_WITH_UNIT (LENGTH_MEASURE( 1.000000000000000082E-05 ), #58, 'distance_accuracy_value', 'NONE');
#217 = APPLICATION_CONTEXT ( 'automotive_design' ) ;
#218 = DIRECTION ( 'NONE',  ( -0.000000000000000000, -1.000000000000000000, -0.000000000000000000 ) ) ;
#219 =( CONVERSION_BASED_UNIT ( 'INCH', #75 ) LENGTH_UNIT ( ) NAMED_UNIT ( #204 ) );
#220 = FACE_OUTER_BOUND ( 'NONE', #243, .T. ) ;
#221 = EDGE_CURVE ( 'NONE', #101, #206, #87, .T. ) ;
#222 = CARTESIAN_POINT ( 'NONE',  ( 2.296212748401287726E-17, 1.500000000000000222, 0.1875000000000000278 ) ) ;
#223 = FACE_OUTER_BOUND ( 'NONE', #305, .T. ) ;
#224 = CIRCLE ( 'NONE', #267, 0.1875000000000000278 ) ;
#225 = PLANE ( 'NONE',  #197 ) ;
#226 = CARTESIAN_POINT ( 'NONE',  ( 0.000000000000000000, 0.000000000000000000, 0.000000000000000000 ) ) ;
#227 = FACE_OUTER_BOUND ( 'NONE', #138, .T. ) ;
#228 = SURFACE_SIDE_STYLE ('',( #127 ) ) ;
#229 = CIRCLE ( 'NONE', #74, 0.1875000000000000278 ) ;
#230 = CARTESIAN_POINT ( 'NONE',  ( 0.000000000000000000, 0.000000000000000000, -0.1875000000000000278 ) ) ;
#231 =( NAMED_UNIT ( * ) SI_UNIT ( $, .STERADIAN. ) SOLID_ANGLE_UNIT ( ) );
#232 = DIMENSIONAL_EXPONENTS ( 1.000000000000000000, 0.000000000000000000, 0.000000000000000000, 0.000000000000000000, 0.000000000000000000, 0.000000000000000000, 0.000000000000000000 ) ;
#233 = DIRECTION ( 'NONE',  ( 9.184850993605150903E-17, 1.000000000000000000, -0.000000000000000000 ) ) ;
#234 = FILL_AREA_STYLE ('',( #38 ) ) ;
#235 = FACE_OUTER_BOUND ( 'NONE', #43, .T. ) ;
#236 = VERTEX_POINT ( 'NONE', #42 ) ;
#237 = CARTESIAN_POINT ( 'NONE',  ( 0.000000000000000000, 0.000000000000000000, 0.000000000000000000 ) ) ;
#238 = DIRECTION ( 'NONE',  ( 9.184850993605150903E-17, 1.000000000000000000, -0.000000000000000000 ) ) ;
#239 = ORIENTED_EDGE ( 'NONE', *, *, #79, .F. ) ;
#240 = EDGE_CURVE ( 'NONE', #303, #120, #110, .T. ) ;
#241 =( NAMED_UNIT ( * ) SI_UNIT ( $, .STERADIAN. ) SOLID_ANGLE_UNIT ( ) );
#242 = SURFACE_SIDE_STYLE ('',( #164 ) ) ;
#243 = EDGE_LOOP ( 'NONE', ( #194, #19, #209, #239 ) ) ;
#244 = ORIENTED_EDGE ( 'NONE', *, *, #103, .T. ) ;
#245 =( GEOMETRIC_REPRESENTATION_CONTEXT ( 3 ) GLOBAL_UNCERTAINTY_ASSIGNED_CONTEXT ( ( #216 ) ) GLOBAL_UNIT_ASSIGNED_CONTEXT ( ( #58, #176, #125 ) ) REPRESENTATION_CONTEXT ( 'NONE', 'WORKASPACE' ) );
#246 = PRESENTATION_STYLE_ASSIGNMENT (( #159 ) ) ;
#247 = DIRECTION ( 'NONE',  ( -0.000000000000000000, -1.000000000000000000, -0.000000000000000000 ) ) ;
#248 =( NAMED_UNIT ( * ) SI_UNIT ( $, .STERADIAN. ) SOLID_ANGLE_UNIT ( ) );
#249 = DIRECTION ( 'NONE',  ( 9.184850993605150903E-17, 1.000000000000000000, -0.000000000000000000 ) ) ;
#250 = DIRECTION ( 'NONE',  ( 9.184850993605150903E-17, 1.000000000000000000, -0.000000000000000000 ) ) ;
#251 = DIRECTION ( 'NONE',  ( -0.000000000000000000, -1.000000000000000000, -0.000000000000000000 ) ) ;
#252 = AXIS2_PLACEMENT_3D ( 'NONE', #175, #130, #148 ) ;
#253 =( LENGTH_UNIT ( ) NAMED_UNIT ( * ) SI_UNIT ( $, .METRE. ) );
#254 = FILL_AREA_STYLE ('',( #298 ) ) ;
#255 = ADVANCED_FACE ( 'NONE', ( #91 ), #259, .T. ) ;
#256 = AXIS2_PLACEMENT_3D ( 'NONE', #205, #297, #280 ) ;
#257 = AXIS2_PLACEMENT_3D ( 'NONE', #226, #54, #32 ) ;
#258 = SURFACE_STYLE_USAGE ( .BOTH. , #151 ) ;
#259 = CYLINDRICAL_SURFACE ( 'NONE', #211, 0.1874999999999999445 ) ;
#260 = ORIENTED_EDGE ( 'NONE', *, *, #93, .T. ) ;
#261 = COLOUR_RGB ( '',1.000000000000000000, 0.000000000000000000, 0.000000000000000000 ) ;
#262 = AXIS2_PLACEMENT_3D ( 'NONE', #26, #249, #24 ) ;
#263 = CARTESIAN_POINT ( 'NONE',  ( 0.1875000000000001110, 3.500000000000000000, 2.296212748401286493E-17 ) ) ;
#264 =( CONVERSION_BASED_UNIT ( 'INCH', #70 ) LENGTH_UNIT ( ) NAMED_UNIT ( #83 ) );
#265 = DIRECTION ( 'NONE',  ( 9.184850993605150903E-17, 1.000000000000000000, -0.000000000000000000 ) ) ;
#266 = UNCERTAINTY_MEASURE_WITH_UNIT (LENGTH_MEASURE( 1.000000000000000082E-05 ), #11, 'distance_accuracy_value', 'NONE');
#267 = AXIS2_PLACEMENT_3D ( 'NONE', #157, #265, #46 ) ;
#268 = STYLED_ITEM ( 'NONE', ( #4 ), #307 ) ;
#269 = EDGE_LOOP ( 'NONE', ( #59, #260, #155, #163 ) ) ;
#270 = PLANE ( 'NONE',  #210 ) ;
#271 = VECTOR ( 'NONE', #190, 39.37007874015748143 ) ;
#272 =( NAMED_UNIT ( * ) SI_UNIT ( $, .STERADIAN. ) SOLID_ANGLE_UNIT ( ) );
#273 = DIRECTION ( 'NONE',  ( 0.000000000000000000, 0.000000000000000000, -1.000000000000000000 ) ) ;
#274 = PRODUCT ( '81939', '81939', '', ( #31 ) ) ;
#275 = APPLICATION_PROTOCOL_DEFINITION ( 'draft international standard', 'automotive_design', 1998, #217 ) ;
#276 = PRESENTATION_LAYER_ASSIGNMENT (  '', '', ( #96 ) ) ;
#277 = ORIENTED_EDGE ( 'NONE', *, *, #200, .F. ) ;
#278 = MANIFOLD_SOLID_BREP ( 'Revolve - Cutting Edge', #60 ) ;
#279 = DIRECTION ( 'NONE',  ( -1.000000000000000000, 0.000000000000000000, 0.000000000000000000 ) ) ;
#280 = DIRECTION ( 'NONE',  ( 1.000000000000000000, -9.184850993605150903E-17, 0.000000000000000000 ) ) ;
#281 = FILL_AREA_STYLE_COLOUR ( '', #62 ) ;
#282 = DIMENSIONAL_EXPONENTS ( 1.000000000000000000, 0.000000000000000000, 0.000000000000000000, 0.000000000000000000, 0.000000000000000000, 0.000000000000000000, 0.000000000000000000 ) ;
#283 = CIRCLE ( 'NONE', #252, 0.1874999999999998890 ) ;
#284 = DIRECTION ( 'NONE',  ( 9.184850993605150903E-17, 1.000000000000000000, -0.000000000000000000 ) ) ;
#285 = ADVANCED_FACE ( 'NONE', ( #304 ), #37, .F. ) ;
#286 = SURFACE_STYLE_USAGE ( .BOTH. , #306 ) ;
#287 =( GEOMETRIC_REPRESENTATION_CONTEXT ( 3 ) GLOBAL_UNCERTAINTY_ASSIGNED_CONTEXT ( ( #207 ) ) GLOBAL_UNIT_ASSIGNED_CONTEXT ( ( #264, #44, #137 ) ) REPRESENTATION_CONTEXT ( 'NONE', 'WORKASPACE' ) );
#288 = EDGE_LOOP ( 'NONE', ( #73, #90, #40, #45 ) ) ;
#289 = CYLINDRICAL_SURFACE ( 'NONE', #262, 0.1874999999999999445 ) ;
#290 = ORIENTED_EDGE ( 'NONE', *, *, #121, .T. ) ;
#291 = CARTESIAN_POINT ( 'NONE',  ( 0.000000000000000000, 0.000000000000000000, 0.000000000000000000 ) ) ;
#292 =( NAMED_UNIT ( * ) PLANE_ANGLE_UNIT ( ) SI_UNIT ( $, .RADIAN. ) );
#293 = CARTESIAN_POINT ( 'NONE',  ( 0.000000000000000000, 1.500000000000000222, 0.000000000000000000 ) ) ;
#294 = ADVANCED_FACE ( 'NONE', ( #235 ), #289, .T. ) ;
#295 = FILL_AREA_STYLE_COLOUR ( '', #67 ) ;
#296 = FACE_OUTER_BOUND ( 'NONE', #183, .T. ) ;
#297 = DIRECTION ( 'NONE',  ( -9.184850993605150903E-17, -1.000000000000000000, 0.000000000000000000 ) ) ;
#298 = FILL_AREA_STYLE_COLOUR ( '', #261 ) ;
#299 = MECHANICAL_DESIGN_GEOMETRIC_PRESENTATION_REPRESENTATION (  '', ( #8 ), #15 ) ;
#300 = FILL_AREA_STYLE ('',( #295 ) ) ;
#301 = PRESENTATION_STYLE_ASSIGNMENT (( #10 ) ) ;
#302 = PRESENTATION_LAYER_ASSIGNMENT (  '', '', ( #52 ) ) ;
#303 = VERTEX_POINT ( 'NONE', #1 ) ;
#304 = FACE_OUTER_BOUND ( 'NONE', #49, .T. ) ;
#305 = EDGE_LOOP ( 'NONE', ( #113, #171 ) ) ;
#306 = SURFACE_SIDE_STYLE ('',( #215 ) ) ;
#307 = ADVANCED_FACE ( 'NONE', ( #220 ), #166, .T. ) ;
#308 = COLOUR_RGB ( '',1.000000000000000000, 0.000000000000000000, 0.000000000000000000 ) ;
#309 =( NAMED_UNIT ( * ) PLANE_ANGLE_UNIT ( ) SI_UNIT ( $, .RADIAN. ) );
ENDSEC;
END-ISO-10303-21;
