ISO-10303-21;
HEADER;
FILE_DESCRIPTION (( 'STEP AP214' ),
    '1' );
FILE_NAME ('59527.STEP',
    '2023-07-24T15:09:12',
    ( '' ),
    ( '' ),
    'SwSTEP 2.0',
    'SolidWorks 2023',
    '' );
FILE_SCHEMA (( 'AUTOMOTIVE_DESIGN' ));
ENDSEC;

DATA;
#1 =( NAMED_UNIT ( * ) PLANE_ANGLE_UNIT ( ) SI_UNIT ( $, .RADIAN. ) );
#2 = VERTEX_POINT ( 'NONE', #143 ) ;
#3 = PRESENTATION_LAYER_ASSIGNMENT (  '', '', ( #346 ) ) ;
#4 = CIRCLE ( 'NONE', #223, 1.000000000000000000 ) ;
#5 = SURFACE_STYLE_USAGE ( .BOTH. , #44 ) ;
#6 = CARTESIAN_POINT ( 'NONE',  ( 0.000000000000000000, 1.000000000000000000, 0.000000000000000000 ) ) ;
#7 = ADVANCED_FACE ( 'NONE', ( #121 ), #347, .T. ) ;
#8 =( NAMED_UNIT ( * ) PLANE_ANGLE_UNIT ( ) SI_UNIT ( $, .RADIAN. ) );
#9 = ORIENTED_EDGE ( 'NONE', *, *, #283, .T. ) ;
#10 = VECTOR ( 'NONE', #355, 1000.000000000000000 ) ;
#11 = FACE_OUTER_BOUND ( 'NONE', #178, .T. ) ;
#12 = UNCERTAINTY_MEASURE_WITH_UNIT (LENGTH_MEASURE( 1.000000000000000082E-05 ), #109, 'distance_accuracy_value', 'NONE');
#13 = SURFACE_STYLE_FILL_AREA ( #159 ) ;
#14 = DIRECTION ( 'NONE',  ( 1.000000000000000000, 1.208874916035850209E-16, 0.000000000000000000 ) ) ;
#15 = FACE_OUTER_BOUND ( 'NONE', #151, .T. ) ;
#16 = EDGE_CURVE ( 'NONE', #108, #35, #162, .T. ) ;
#17 =( LENGTH_UNIT ( ) NAMED_UNIT ( * ) SI_UNIT ( .MILLI., .METRE. ) );
#18 = DIRECTION ( 'NONE',  ( 0.000000000000000000, -0.000000000000000000, 1.000000000000000000 ) ) ;
#19 = AXIS2_PLACEMENT_3D ( 'NONE', #214, #251, #274 ) ;
#20 = EDGE_CURVE ( 'NONE', #113, #169, #64, .T. ) ;
#21 = CARTESIAN_POINT ( 'NONE',  ( 5.421010862427522170E-15, 18.00000000000000000, 0.000000000000000000 ) ) ;
#22 = CARTESIAN_POINT ( 'NONE',  ( 0.000000000000000000, 0.000000000000000000, -6.000000000000000000 ) ) ;
#23 = EDGE_CURVE ( 'NONE', #169, #197, #34, .T. ) ;
#24 = DIRECTION ( 'NONE',  ( -1.000000000000000000, 0.000000000000000000, 0.000000000000000000 ) ) ;
#25 = UNCERTAINTY_MEASURE_WITH_UNIT (LENGTH_MEASURE( 1.000000000000000082E-05 ), #127, 'distance_accuracy_value', 'NONE');
#26 =( NAMED_UNIT ( * ) PLANE_ANGLE_UNIT ( ) SI_UNIT ( $, .RADIAN. ) );
#27 = ADVANCED_FACE ( 'NONE', ( #65 ), #93, .T. ) ;
#28 = CARTESIAN_POINT ( 'NONE',  ( 0.000000000000000000, 1.000000000000000000, 0.000000000000000000 ) ) ;
#29 =( NAMED_UNIT ( * ) PLANE_ANGLE_UNIT ( ) SI_UNIT ( $, .RADIAN. ) );
#30 = PRODUCT_DEFINITION_CONTEXT ( 'detailed design', #287, 'design' ) ;
#31 = SURFACE_STYLE_FILL_AREA ( #190 ) ;
#32 = VECTOR ( 'NONE', #280, 1000.000000000000000 ) ;
#33 = DIRECTION ( 'NONE',  ( 0.000000000000000000, 0.000000000000000000, -1.000000000000000000 ) ) ;
#34 = CIRCLE ( 'NONE', #300, 1.000000000000000000 ) ;
#35 = VERTEX_POINT ( 'NONE', #299 ) ;
#36 = ORIENTED_EDGE ( 'NONE', *, *, #95, .F. ) ;
#37 = EDGE_CURVE ( 'NONE', #108, #2, #182, .T. ) ;
#38 = PRESENTATION_STYLE_ASSIGNMENT (( #257 ) ) ;
#39 = SURFACE_STYLE_FILL_AREA ( #237 ) ;
#40 = AXIS2_PLACEMENT_3D ( 'NONE', #6, #77, #328 ) ;
#41 = DIRECTION ( 'NONE',  ( -1.208874916035850209E-16, 1.000000000000000000, -0.000000000000000000 ) ) ;
#42 = DIRECTION ( 'NONE',  ( -1.208874916035850209E-16, 1.000000000000000000, -0.000000000000000000 ) ) ;
#43 = ORIENTED_EDGE ( 'NONE', *, *, #37, .F. ) ;
#44 = SURFACE_SIDE_STYLE ('',( #39 ) ) ;
#45 = CIRCLE ( 'NONE', #170, 6.000000000000001776 ) ;
#46 = MECHANICAL_DESIGN_GEOMETRIC_PRESENTATION_REPRESENTATION (  '', ( #206 ), #181 ) ;
#47 = LINE ( 'NONE', #78, #10 ) ;
#48 = CARTESIAN_POINT ( 'NONE',  ( 5.421010862427522170E-15, 18.00000000000000355, 0.000000000000000000 ) ) ;
#49 = FILL_AREA_STYLE ('',( #132 ) ) ;
#50 = PLANE ( 'NONE',  #60 ) ;
#51 = AXIS2_PLACEMENT_3D ( 'NONE', #117, #308, #133 ) ;
#52 = DIRECTION ( 'NONE',  ( -1.208874916035850209E-16, 1.000000000000000000, -0.000000000000000000 ) ) ;
#53 = UNCERTAINTY_MEASURE_WITH_UNIT (LENGTH_MEASURE( 1.000000000000000082E-05 ), #96, 'distance_accuracy_value', 'NONE');
#54 = SURFACE_SIDE_STYLE ('',( #345 ) ) ;
#55 = DIRECTION ( 'NONE',  ( -0.000000000000000000, -1.000000000000000000, -0.000000000000000000 ) ) ;
#56 = CARTESIAN_POINT ( 'NONE',  ( 0.000000000000000000, 0.000000000000000000, 0.000000000000000000 ) ) ;
#57 = CARTESIAN_POINT ( 'NONE',  ( 7.347880794884119736E-16, 18.00000000000000000, 6.000000000000000000 ) ) ;
#58 = MECHANICAL_DESIGN_GEOMETRIC_PRESENTATION_REPRESENTATION (  '', ( #346 ), #198 ) ;
#59 = FACE_OUTER_BOUND ( 'NONE', #210, .T. ) ;
#60 = AXIS2_PLACEMENT_3D ( 'NONE', #21, #129, #246 ) ;
#61 = AXIS2_PLACEMENT_3D ( 'NONE', #48, #52, #24 ) ;
#62 = ADVANCED_FACE ( 'NONE', ( #261 ), #70, .F. ) ;
#63 = DIRECTION ( 'NONE',  ( -0.000000000000000000, -1.000000000000000000, -0.000000000000000000 ) ) ;
#64 = CIRCLE ( 'NONE', #327, 6.000000000000000000 ) ;
#65 = FACE_OUTER_BOUND ( 'NONE', #291, .T. ) ;
#66 = COLOUR_RGB ( '',0.7921568627450980005, 0.8196078431372548767, 0.9333333333333333481 ) ;
#67 = AXIS2_PLACEMENT_3D ( 'NONE', #367, #255, #229 ) ;
#68 = ORIENTED_EDGE ( 'NONE', *, *, #307, .F. ) ;
#69 = DIRECTION ( 'NONE',  ( 1.000000000000000000, 0.000000000000000000, -1.224646799147353207E-16 ) ) ;
#70 = PLANE ( 'NONE',  #222 ) ;
#71 = COLOUR_RGB ( '',1.000000000000000000, 0.000000000000000000, 0.000000000000000000 ) ;
#72 = AXIS2_PLACEMENT_3D ( 'NONE', #359, #329, #18 ) ;
#73 = ORIENTED_EDGE ( 'NONE', *, *, #160, .T. ) ;
#74 = CARTESIAN_POINT ( 'NONE',  ( 7.347880794884118750E-16, 1.000000000000000000, 6.000000000000000000 ) ) ;
#75 = STYLED_ITEM ( 'NONE', ( #332 ), #188 ) ;
#76 = DIRECTION ( 'NONE',  ( 0.000000000000000000, 0.000000000000000000, -1.000000000000000000 ) ) ;
#77 = DIRECTION ( 'NONE',  ( -0.000000000000000000, -1.000000000000000000, -0.000000000000000000 ) ) ;
#78 = CARTESIAN_POINT ( 'NONE',  ( 5.999999999999996447, 75.00000000000000000, 7.347880794884117764E-16 ) ) ;
#79 = CARTESIAN_POINT ( 'NONE',  ( -1.469576158976823750E-15, 75.00000000000000000, 0.000000000000000000 ) ) ;
#80 = FILL_AREA_STYLE_COLOUR ( '', #256 ) ;
#81 = PRESENTATION_STYLE_ASSIGNMENT (( #217 ) ) ;
#82 = AXIS2_PLACEMENT_3D ( 'NONE', #104, #106, #76 ) ;
#83 = ORIENTED_EDGE ( 'NONE', *, *, #23, .T. ) ;
#84 =( NAMED_UNIT ( * ) SI_UNIT ( $, .STERADIAN. ) SOLID_ANGLE_UNIT ( ) );
#85 = CARTESIAN_POINT ( 'NONE',  ( 0.000000000000000000, 18.00000000000000000, 0.000000000000000000 ) ) ;
#86 = DIRECTION ( 'NONE',  ( -1.208874916035850209E-16, 1.000000000000000000, -0.000000000000000000 ) ) ;
#87 = APPLICATION_PROTOCOL_DEFINITION ( 'draft international standard', 'automotive_design', 1998, #287 ) ;
#88 = CIRCLE ( 'NONE', #252, 6.000000000000001776 ) ;
#89 =( NAMED_UNIT ( * ) SI_UNIT ( $, .STERADIAN. ) SOLID_ANGLE_UNIT ( ) );
#90 = CARTESIAN_POINT ( 'NONE',  ( 0.000000000000000000, 1.000000000000000000, -5.000000000000000000 ) ) ;
#91 =( NAMED_UNIT ( * ) SI_UNIT ( $, .STERADIAN. ) SOLID_ANGLE_UNIT ( ) );
#92 = COLOUR_RGB ( '',1.000000000000000000, 0.000000000000000000, 0.000000000000000000 ) ;
#93 = CYLINDRICAL_SURFACE ( 'NONE', #155, 5.999999999999998224 ) ;
#94 = FILL_AREA_STYLE ('',( #350 ) ) ;
#95 = EDGE_CURVE ( 'NONE', #2, #286, #45, .T. ) ;
#96 =( LENGTH_UNIT ( ) NAMED_UNIT ( * ) SI_UNIT ( .MILLI., .METRE. ) );
#97 = AXIS2_PLACEMENT_3D ( 'NONE', #279, #86, #258 ) ;
#98 =( GEOMETRIC_REPRESENTATION_CONTEXT ( 3 ) GLOBAL_UNCERTAINTY_ASSIGNED_CONTEXT ( ( #152 ) ) GLOBAL_UNIT_ASSIGNED_CONTEXT ( ( #289, #1, #148 ) ) REPRESENTATION_CONTEXT ( 'NONE', 'WORKASPACE' ) );
#99 = AXIS2_PLACEMENT_3D ( 'NONE', #79, #265, #193 ) ;
#100 =( NAMED_UNIT ( * ) PLANE_ANGLE_UNIT ( ) SI_UNIT ( $, .RADIAN. ) );
#101 = CARTESIAN_POINT ( 'NONE',  ( 0.000000000000000000, 0.000000000000000000, 0.000000000000000000 ) ) ;
#102 = CARTESIAN_POINT ( 'NONE',  ( -1.469576158976823750E-15, 75.00000000000000000, 0.000000000000000000 ) ) ;
#103 = MANIFOLD_SOLID_BREP ( 'Revolve - Tool Body (Straight Shanked)', #215 ) ;
#104 = CARTESIAN_POINT ( 'NONE',  ( 0.000000000000000000, 0.000000000000000000, 0.000000000000000000 ) ) ;
#105 = DIRECTION ( 'NONE',  ( 0.000000000000000000, 0.000000000000000000, -1.000000000000000000 ) ) ;
#106 = DIRECTION ( 'NONE',  ( -0.000000000000000000, -1.000000000000000000, -0.000000000000000000 ) ) ;
#107 = CARTESIAN_POINT ( 'NONE',  ( 6.000000000000000000, 75.00000000000000000, 7.347880794884119736E-16 ) ) ;
#108 = VERTEX_POINT ( 'NONE', #267 ) ;
#109 =( LENGTH_UNIT ( ) NAMED_UNIT ( * ) SI_UNIT ( .MILLI., .METRE. ) );
#110 = TOROIDAL_SURFACE ( 'NONE', #363, 5.000000000000000000, 0.9999999999999995559 ) ;
#111 = STYLED_ITEM ( 'NONE', ( #81 ), #311 ) ;
#112 = DIRECTION ( 'NONE',  ( -0.000000000000000000, -1.000000000000000000, -0.000000000000000000 ) ) ;
#113 = VERTEX_POINT ( 'NONE', #74 ) ;
#114 =( NAMED_UNIT ( * ) SI_UNIT ( $, .STERADIAN. ) SOLID_ANGLE_UNIT ( ) );
#115 = PRESENTATION_LAYER_ASSIGNMENT (  '', '', ( #336 ) ) ;
#116 = AXIS2_PLACEMENT_3D ( 'NONE', #56, #112, #225 ) ;
#117 = CARTESIAN_POINT ( 'NONE',  ( 0.000000000000000000, 0.000000000000000000, 0.000000000000000000 ) ) ;
#118 = ORIENTED_EDGE ( 'NONE', *, *, #174, .F. ) ;
#119 =( GEOMETRIC_REPRESENTATION_CONTEXT ( 3 ) GLOBAL_UNCERTAINTY_ASSIGNED_CONTEXT ( ( #361 ) ) GLOBAL_UNIT_ASSIGNED_CONTEXT ( ( #369, #249, #91 ) ) REPRESENTATION_CONTEXT ( 'NONE', 'WORKASPACE' ) );
#120 = STYLED_ITEM ( 'NONE', ( #254 ), #226 ) ;
#121 = FACE_OUTER_BOUND ( 'NONE', #298, .T. ) ;
#122 = DIRECTION ( 'NONE',  ( -1.000000000000000000, 0.000000000000000000, 0.000000000000000000 ) ) ;
#123 = SURFACE_STYLE_USAGE ( .BOTH. , #145 ) ;
#124 = CARTESIAN_POINT ( 'NONE',  ( 6.000000000000000000, 75.00000000000000000, 0.000000000000000000 ) ) ;
#125 = ORIENTED_EDGE ( 'NONE', *, *, #23, .F. ) ;
#126 = AXIS2_PLACEMENT_3D ( 'NONE', #101, #55, #334 ) ;
#127 =( LENGTH_UNIT ( ) NAMED_UNIT ( * ) SI_UNIT ( .MILLI., .METRE. ) );
#128 = CARTESIAN_POINT ( 'NONE',  ( 0.000000000000000000, 18.00000000000000000, -6.000000000000000000 ) ) ;
#129 = DIRECTION ( 'NONE',  ( -1.208874916035850209E-16, 1.000000000000000000, 0.000000000000000000 ) ) ;
#130 = EDGE_CURVE ( 'NONE', #113, #312, #4, .T. ) ;
#131 = DIRECTION ( 'NONE',  ( 0.000000000000000000, 0.000000000000000000, -1.000000000000000000 ) ) ;
#132 = FILL_AREA_STYLE_COLOUR ( '', #71 ) ;
#133 = DIRECTION ( 'NONE',  ( 0.000000000000000000, 0.000000000000000000, -1.000000000000000000 ) ) ;
#134 = CYLINDRICAL_SURFACE ( 'NONE', #99, 5.999999999999998224 ) ;
#135 = ORIENTED_EDGE ( 'NONE', *, *, #331, .F. ) ;
#136 = COLOUR_RGB ( '',0.7921568627450980005, 0.8196078431372548767, 0.9333333333333333481 ) ;
#137 = EDGE_CURVE ( 'NONE', #286, #2, #88, .T. ) ;
#138 = COLOUR_RGB ( '',1.000000000000000000, 0.000000000000000000, 0.000000000000000000 ) ;
#139 = FILL_AREA_STYLE ('',( #343 ) ) ;
#140 = CLOSED_SHELL ( 'NONE', ( #188, #168, #7, #147, #227, #311 ) ) ;
#141 = VECTOR ( 'NONE', #247, 1000.000000000000000 ) ;
#142 = ORIENTED_EDGE ( 'NONE', *, *, #219, .T. ) ;
#143 = CARTESIAN_POINT ( 'NONE',  ( -6.000000000000003553, 75.00000000000000000, 0.000000000000000000 ) ) ;
#144 = ORIENTED_EDGE ( 'NONE', *, *, #16, .F. ) ;
#145 = SURFACE_SIDE_STYLE ('',( #282 ) ) ;
#146 = EDGE_LOOP ( 'NONE', ( #212, #339, #118, #263 ) ) ;
#147 = ADVANCED_FACE ( 'NONE', ( #11 ), #157, .T. ) ;
#148 =( NAMED_UNIT ( * ) SI_UNIT ( $, .STERADIAN. ) SOLID_ANGLE_UNIT ( ) );
#149 = MECHANICAL_DESIGN_GEOMETRIC_PRESENTATION_REPRESENTATION (  '', ( #368 ), #98 ) ;
#150 = DIRECTION ( 'NONE',  ( -1.208874916035850209E-16, 1.000000000000000000, -0.000000000000000000 ) ) ;
#151 = EDGE_LOOP ( 'NONE', ( #253, #9, #36, #43 ) ) ;
#152 = UNCERTAINTY_MEASURE_WITH_UNIT (LENGTH_MEASURE( 1.000000000000000082E-05 ), #289, 'distance_accuracy_value', 'NONE');
#153 = ORIENTED_EDGE ( 'NONE', *, *, #137, .T. ) ;
#154 = ORIENTED_EDGE ( 'NONE', *, *, #293, .T. ) ;
#155 = AXIS2_PLACEMENT_3D ( 'NONE', #180, #41, #122 ) ;
#156 = PRODUCT_DEFINITION ( 'UNKNOWN', '', #365, #30 ) ;
#157 = TOROIDAL_SURFACE ( 'NONE', #40, 5.000000000000000000, 0.9999999999999995559 ) ;
#158 = DIRECTION ( 'NONE',  ( -0.000000000000000000, -1.000000000000000000, -0.000000000000000000 ) ) ;
#159 = FILL_AREA_STYLE ('',( #220 ) ) ;
#160 = EDGE_CURVE ( 'NONE', #179, #169, #243, .T. ) ;
#161 =( NAMED_UNIT ( * ) SI_UNIT ( $, .STERADIAN. ) SOLID_ANGLE_UNIT ( ) );
#162 = CIRCLE ( 'NONE', #97, 5.999999999999994671 ) ;
#163 =( GEOMETRIC_REPRESENTATION_CONTEXT ( 3 ) GLOBAL_UNCERTAINTY_ASSIGNED_CONTEXT ( ( #292 ) ) GLOBAL_UNIT_ASSIGNED_CONTEXT ( ( #342, #232, #114 ) ) REPRESENTATION_CONTEXT ( 'NONE', 'WORKASPACE' ) );
#164 =( LENGTH_UNIT ( ) NAMED_UNIT ( * ) SI_UNIT ( .MILLI., .METRE. ) );
#165 = ORIENTED_EDGE ( 'NONE', *, *, #307, .T. ) ;
#166 = DIRECTION ( 'NONE',  ( 0.000000000000000000, 0.000000000000000000, -1.000000000000000000 ) ) ;
#167 = DIRECTION ( 'NONE',  ( -0.000000000000000000, -1.000000000000000000, -0.000000000000000000 ) ) ;
#168 = ADVANCED_FACE ( 'NONE', ( #354 ), #110, .T. ) ;
#169 = VERTEX_POINT ( 'NONE', #194 ) ;
#170 = AXIS2_PLACEMENT_3D ( 'NONE', #240, #242, #184 ) ;
#171 = PRESENTATION_LAYER_ASSIGNMENT (  '', '', ( #204 ) ) ;
#172 = APPLICATION_PROTOCOL_DEFINITION ( 'draft international standard', 'automotive_design', 1998, #266 ) ;
#173 = FILL_AREA_STYLE ('',( #315 ) ) ;
#174 = EDGE_CURVE ( 'NONE', #169, #113, #272, .T. ) ;
#175 = CYLINDRICAL_SURFACE ( 'NONE', #126, 6.000000000000000000 ) ;
#176 = ORIENTED_EDGE ( 'NONE', *, *, #130, .F. ) ;
#177 = CIRCLE ( 'NONE', #322, 6.000000000000000000 ) ;
#178 = EDGE_LOOP ( 'NONE', ( #176, #262, #83, #68 ) ) ;
#179 = VERTEX_POINT ( 'NONE', #128 ) ;
#180 = CARTESIAN_POINT ( 'NONE',  ( -1.469576158976823750E-15, 75.00000000000000000, 0.000000000000000000 ) ) ;
#181 =( GEOMETRIC_REPRESENTATION_CONTEXT ( 3 ) GLOBAL_UNCERTAINTY_ASSIGNED_CONTEXT ( ( #53 ) ) GLOBAL_UNIT_ASSIGNED_CONTEXT ( ( #96, #8, #325 ) ) REPRESENTATION_CONTEXT ( 'NONE', 'WORKASPACE' ) );
#182 = LINE ( 'NONE', #326, #203 ) ;
#183 = VERTEX_POINT ( 'NONE', #57 ) ;
#184 = DIRECTION ( 'NONE',  ( -1.000000000000000000, 0.000000000000000000, 0.000000000000000000 ) ) ;
#185 = PRESENTATION_LAYER_ASSIGNMENT (  '', '', ( #368 ) ) ;
#186 = FACE_OUTER_BOUND ( 'NONE', #208, .T. ) ;
#187 = PRODUCT_DEFINITION_SHAPE ( 'NONE', 'NONE',  #156 ) ;
#188 = ADVANCED_FACE ( 'NONE', ( #330 ), #218, .T. ) ;
#189 = CARTESIAN_POINT ( 'NONE',  ( 0.000000000000000000, 18.00000000000000000, 0.000000000000000000 ) ) ;
#190 = FILL_AREA_STYLE ('',( #80 ) ) ;
#191 = CIRCLE ( 'NONE', #82, 5.000000000000000000 ) ;
#192 = ORIENTED_EDGE ( 'NONE', *, *, #219, .F. ) ;
#193 = DIRECTION ( 'NONE',  ( -1.000000000000000000, 0.000000000000000000, 0.000000000000000000 ) ) ;
#194 = CARTESIAN_POINT ( 'NONE',  ( 0.000000000000000000, 1.000000000000000000, -6.000000000000000000 ) ) ;
#195 = ORIENTED_EDGE ( 'NONE', *, *, #331, .T. ) ;
#196 = DIRECTION ( 'NONE',  ( -0.000000000000000000, -1.000000000000000000, -0.000000000000000000 ) ) ;
#197 = VERTEX_POINT ( 'NONE', #305 ) ;
#198 =( GEOMETRIC_REPRESENTATION_CONTEXT ( 3 ) GLOBAL_UNCERTAINTY_ASSIGNED_CONTEXT ( ( #333 ) ) GLOBAL_UNIT_ASSIGNED_CONTEXT ( ( #264, #100, #319 ) ) REPRESENTATION_CONTEXT ( 'NONE', 'WORKASPACE' ) );
#199 =( GEOMETRIC_REPRESENTATION_CONTEXT ( 3 ) GLOBAL_UNCERTAINTY_ASSIGNED_CONTEXT ( ( #275 ) ) GLOBAL_UNIT_ASSIGNED_CONTEXT ( ( #164, #26, #161 ) ) REPRESENTATION_CONTEXT ( 'NONE', 'WORKASPACE' ) );
#200 =( GEOMETRIC_REPRESENTATION_CONTEXT ( 3 ) GLOBAL_UNCERTAINTY_ASSIGNED_CONTEXT ( ( #12 ) ) GLOBAL_UNIT_ASSIGNED_CONTEXT ( ( #109, #29, #89 ) ) REPRESENTATION_CONTEXT ( 'NONE', 'WORKASPACE' ) );
#201 = PRODUCT_CONTEXT ( 'NONE', #266, 'mechanical' ) ;
#202 = DIRECTION ( 'NONE',  ( -1.000000000000000000, 0.000000000000000000, 0.000000000000000000 ) ) ;
#203 = VECTOR ( 'NONE', #42, 1000.000000000000000 ) ;
#204 = STYLED_ITEM ( 'NONE', ( #310 ), #168 ) ;
#205 = SURFACE_SIDE_STYLE ('',( #313 ) ) ;
#206 = STYLED_ITEM ( 'NONE', ( #348 ), #147 ) ;
#207 = ADVANCED_FACE ( 'NONE', ( #341 ), #50, .F. ) ;
#208 = EDGE_LOOP ( 'NONE', ( #370, #192 ) ) ;
#209 = CARTESIAN_POINT ( 'NONE',  ( 6.123233995736766282E-16, 1.000000000000000000, 5.000000000000000000 ) ) ;
#210 = EDGE_LOOP ( 'NONE', ( #224, #142, #73, #366 ) ) ;
#211 = SURFACE_SIDE_STYLE ('',( #352 ) ) ;
#212 = ORIENTED_EDGE ( 'NONE', *, *, #358, .T. ) ;
#213 = PRESENTATION_STYLE_ASSIGNMENT (( #123 ) ) ;
#214 = CARTESIAN_POINT ( 'NONE',  ( 0.000000000000000000, 1.000000000000000000, 0.000000000000000000 ) ) ;
#215 = CLOSED_SHELL ( 'NONE', ( #340, #207, #27, #62 ) ) ;
#216 =( GEOMETRIC_REPRESENTATION_CONTEXT ( 3 ) GLOBAL_UNCERTAINTY_ASSIGNED_CONTEXT ( ( #221 ) ) GLOBAL_UNIT_ASSIGNED_CONTEXT ( ( #17, #335, #270 ) ) REPRESENTATION_CONTEXT ( 'NONE', 'WORKASPACE' ) );
#217 = SURFACE_STYLE_USAGE ( .BOTH. , #269 ) ;
#218 = CYLINDRICAL_SURFACE ( 'NONE', #116, 6.000000000000000000 ) ;
#219 = EDGE_CURVE ( 'NONE', #183, #179, #177, .T. ) ;
#220 = FILL_AREA_STYLE_COLOUR ( '', #92 ) ;
#221 = UNCERTAINTY_MEASURE_WITH_UNIT (LENGTH_MEASURE( 1.000000000000000082E-05 ), #17, 'distance_accuracy_value', 'NONE');
#222 = AXIS2_PLACEMENT_3D ( 'NONE', #124, #236, #14 ) ;
#223 = AXIS2_PLACEMENT_3D ( 'NONE', #209, #69, #295 ) ;
#224 = ORIENTED_EDGE ( 'NONE', *, *, #238, .F. ) ;
#225 = DIRECTION ( 'NONE',  ( 0.000000000000000000, 0.000000000000000000, -1.000000000000000000 ) ) ;
#226 = MANIFOLD_SOLID_BREP ( 'Revolve - Cutting Edge', #140 ) ;
#227 = ADVANCED_FACE ( 'NONE', ( #59 ), #175, .T. ) ;
#228 = PRESENTATION_LAYER_ASSIGNMENT (  '', '', ( #75 ) ) ;
#229 = DIRECTION ( 'NONE',  ( 1.000000000000000000, 0.000000000000000000, 0.000000000000000000 ) ) ;
#230 = MECHANICAL_DESIGN_GEOMETRIC_PRESENTATION_REPRESENTATION (  '', ( #111 ), #356 ) ;
#231 = ORIENTED_EDGE ( 'NONE', *, *, #293, .F. ) ;
#232 =( NAMED_UNIT ( * ) PLANE_ANGLE_UNIT ( ) SI_UNIT ( $, .RADIAN. ) );
#233 = ORIENTED_EDGE ( 'NONE', *, *, #137, .F. ) ;
#234 = MECHANICAL_DESIGN_GEOMETRIC_PRESENTATION_REPRESENTATION (  '', ( #120 ), #163 ) ;
#235 = ADVANCED_BREP_SHAPE_REPRESENTATION ( '59527', ( #226, #103, #67 ), #200 ) ;
#236 = DIRECTION ( 'NONE',  ( 1.208874916035850209E-16, -1.000000000000000000, 0.000000000000000000 ) ) ;
#237 = FILL_AREA_STYLE ('',( #290 ) ) ;
#238 = EDGE_CURVE ( 'NONE', #183, #113, #306, .T. ) ;
#239 = PRESENTATION_LAYER_ASSIGNMENT (  '', '', ( #206 ) ) ;
#240 = CARTESIAN_POINT ( 'NONE',  ( -1.469576158976823750E-15, 75.00000000000000000, 0.000000000000000000 ) ) ;
#241 = EDGE_LOOP ( 'NONE', ( #259, #153 ) ) ;
#242 = DIRECTION ( 'NONE',  ( -1.208874916035850209E-16, 1.000000000000000000, -0.000000000000000000 ) ) ;
#243 = LINE ( 'NONE', #22, #32 ) ;
#244 = CARTESIAN_POINT ( 'NONE',  ( 0.000000000000000000, 1.000000000000000000, 0.000000000000000000 ) ) ;
#245 =( NAMED_UNIT ( * ) PLANE_ANGLE_UNIT ( ) SI_UNIT ( $, .RADIAN. ) );
#246 = DIRECTION ( 'NONE',  ( -1.000000000000000000, -1.208874916035850209E-16, 0.000000000000000000 ) ) ;
#247 = DIRECTION ( 'NONE',  ( -0.000000000000000000, -1.000000000000000000, -0.000000000000000000 ) ) ;
#248 = SURFACE_STYLE_FILL_AREA ( #49 ) ;
#249 =( NAMED_UNIT ( * ) PLANE_ANGLE_UNIT ( ) SI_UNIT ( $, .RADIAN. ) );
#250 = DIRECTION ( 'NONE',  ( -0.000000000000000000, -1.000000000000000000, -0.000000000000000000 ) ) ;
#251 = DIRECTION ( 'NONE',  ( -0.000000000000000000, -1.000000000000000000, -0.000000000000000000 ) ) ;
#252 = AXIS2_PLACEMENT_3D ( 'NONE', #102, #150, #323 ) ;
#253 = ORIENTED_EDGE ( 'NONE', *, *, #16, .T. ) ;
#254 = PRESENTATION_STYLE_ASSIGNMENT (( #317 ) ) ;
#255 = DIRECTION ( 'NONE',  ( 0.000000000000000000, 0.000000000000000000, 1.000000000000000000 ) ) ;
#256 = COLOUR_RGB ( '',1.000000000000000000, 0.000000000000000000, 0.000000000000000000 ) ;
#257 = SURFACE_STYLE_USAGE ( .BOTH. , #54 ) ;
#258 = DIRECTION ( 'NONE',  ( -1.000000000000000000, 0.000000000000000000, 0.000000000000000000 ) ) ;
#259 = ORIENTED_EDGE ( 'NONE', *, *, #95, .T. ) ;
#260 = MECHANICAL_DESIGN_GEOMETRIC_PRESENTATION_REPRESENTATION (  '', ( #75 ), #216 ) ;
#261 = FACE_OUTER_BOUND ( 'NONE', #241, .T. ) ;
#262 = ORIENTED_EDGE ( 'NONE', *, *, #20, .T. ) ;
#263 = ORIENTED_EDGE ( 'NONE', *, *, #160, .F. ) ;
#264 =( LENGTH_UNIT ( ) NAMED_UNIT ( * ) SI_UNIT ( .MILLI., .METRE. ) );
#265 = DIRECTION ( 'NONE',  ( -1.208874916035850209E-16, 1.000000000000000000, -0.000000000000000000 ) ) ;
#266 = APPLICATION_CONTEXT ( 'automotive_design' ) ;
#267 = CARTESIAN_POINT ( 'NONE',  ( -5.999999999999989342, 18.00000000000000355, 0.000000000000000000 ) ) ;
#268 = SURFACE_STYLE_USAGE ( .BOTH. , #357 ) ;
#269 = SURFACE_SIDE_STYLE ('',( #13 ) ) ;
#270 =( NAMED_UNIT ( * ) SI_UNIT ( $, .STERADIAN. ) SOLID_ANGLE_UNIT ( ) );
#271 = COLOUR_RGB ( '',1.000000000000000000, 0.000000000000000000, 0.000000000000000000 ) ;
#272 = CIRCLE ( 'NONE', #19, 6.000000000000000000 ) ;
#273 = CIRCLE ( 'NONE', #61, 5.999999999999994671 ) ;
#274 = DIRECTION ( 'NONE',  ( 0.000000000000000000, 0.000000000000000000, -1.000000000000000000 ) ) ;
#275 = UNCERTAINTY_MEASURE_WITH_UNIT (LENGTH_MEASURE( 1.000000000000000082E-05 ), #164, 'distance_accuracy_value', 'NONE');
#276 = EDGE_LOOP ( 'NONE', ( #144, #135 ) ) ;
#277 = CARTESIAN_POINT ( 'NONE',  ( 0.000000000000000000, 0.000000000000000000, 0.000000000000000000 ) ) ;
#278 = SURFACE_STYLE_USAGE ( .BOTH. , #360 ) ;
#279 = CARTESIAN_POINT ( 'NONE',  ( 5.421010862427522170E-15, 18.00000000000000355, 0.000000000000000000 ) ) ;
#280 = DIRECTION ( 'NONE',  ( -0.000000000000000000, -1.000000000000000000, -0.000000000000000000 ) ) ;
#281 = SHAPE_DEFINITION_REPRESENTATION ( #187, #235 ) ;
#282 = SURFACE_STYLE_FILL_AREA ( #173 ) ;
#283 = EDGE_CURVE ( 'NONE', #35, #286, #47, .T. ) ;
#284 = FILL_AREA_STYLE_COLOUR ( '', #271 ) ;
#285 = CIRCLE ( 'NONE', #337, 5.000000000000000000 ) ;
#286 = VERTEX_POINT ( 'NONE', #107 ) ;
#287 = APPLICATION_CONTEXT ( 'automotive_design' ) ;
#288 = FILL_AREA_STYLE ('',( #284 ) ) ;
#289 =( LENGTH_UNIT ( ) NAMED_UNIT ( * ) SI_UNIT ( .MILLI., .METRE. ) );
#290 = FILL_AREA_STYLE_COLOUR ( '', #364 ) ;
#291 = EDGE_LOOP ( 'NONE', ( #309, #195, #318, #233 ) ) ;
#292 = UNCERTAINTY_MEASURE_WITH_UNIT (LENGTH_MEASURE( 1.000000000000000082E-05 ), #342, 'distance_accuracy_value', 'NONE');
#293 = EDGE_CURVE ( 'NONE', #197, #312, #191, .T. ) ;
#294 = MECHANICAL_DESIGN_GEOMETRIC_PRESENTATION_REPRESENTATION (  '', ( #204 ), #199 ) ;
#295 = DIRECTION ( 'NONE',  ( -1.224646799147352468E-16, 0.000000000000000000, -1.000000000000000000 ) ) ;
#296 = ORIENTED_EDGE ( 'NONE', *, *, #130, .T. ) ;
#297 = PRESENTATION_STYLE_ASSIGNMENT (( #302 ) ) ;
#298 = EDGE_LOOP ( 'NONE', ( #154, #165 ) ) ;
#299 = CARTESIAN_POINT ( 'NONE',  ( 6.000000000000000000, 18.00000000000000355, 7.347880794884119736E-16 ) ) ;
#300 = AXIS2_PLACEMENT_3D ( 'NONE', #90, #202, #316 ) ;
#301 = AXIS2_PLACEMENT_3D ( 'NONE', #189, #250, #131 ) ;
#302 = SURFACE_STYLE_USAGE ( .BOTH. , #211 ) ;
#303 = PRODUCT ( '59527', '59527', '', ( #201 ) ) ;
#304 = PLANE ( 'NONE',  #72 ) ;
#305 = CARTESIAN_POINT ( 'NONE',  ( 0.000000000000000000, 0.000000000000000000, -5.000000000000000000 ) ) ;
#306 = LINE ( 'NONE', #353, #141 ) ;
#307 = EDGE_CURVE ( 'NONE', #312, #197, #285, .T. ) ;
#308 = DIRECTION ( 'NONE',  ( 0.000000000000000000, -1.000000000000000000, -0.000000000000000000 ) ) ;
#309 = ORIENTED_EDGE ( 'NONE', *, *, #283, .F. ) ;
#310 = PRESENTATION_STYLE_ASSIGNMENT (( #278 ) ) ;
#311 = ADVANCED_FACE ( 'NONE', ( #186 ), #304, .T. ) ;
#312 = VERTEX_POINT ( 'NONE', #362 ) ;
#313 = SURFACE_STYLE_FILL_AREA ( #139 ) ;
#314 = CIRCLE ( 'NONE', #301, 6.000000000000000000 ) ;
#315 = FILL_AREA_STYLE_COLOUR ( '', #138 ) ;
#316 = DIRECTION ( 'NONE',  ( 0.000000000000000000, 0.000000000000000000, 1.000000000000000000 ) ) ;
#317 = SURFACE_STYLE_USAGE ( .BOTH. , #205 ) ;
#318 = ORIENTED_EDGE ( 'NONE', *, *, #37, .T. ) ;
#319 =( NAMED_UNIT ( * ) SI_UNIT ( $, .STERADIAN. ) SOLID_ANGLE_UNIT ( ) );
#320 = PRODUCT_RELATED_PRODUCT_CATEGORY ( 'part', '', ( #303 ) ) ;
#321 = MECHANICAL_DESIGN_GEOMETRIC_PRESENTATION_REPRESENTATION (  '', ( #336 ), #119 ) ;
#322 = AXIS2_PLACEMENT_3D ( 'NONE', #85, #196, #33 ) ;
#323 = DIRECTION ( 'NONE',  ( -1.000000000000000000, 0.000000000000000000, 0.000000000000000000 ) ) ;
#324 = EDGE_LOOP ( 'NONE', ( #351, #296, #231, #125 ) ) ;
#325 =( NAMED_UNIT ( * ) SI_UNIT ( $, .STERADIAN. ) SOLID_ANGLE_UNIT ( ) );
#326 = CARTESIAN_POINT ( 'NONE',  ( -6.000000000000000000, 75.00000000000000000, 0.000000000000000000 ) ) ;
#327 = AXIS2_PLACEMENT_3D ( 'NONE', #28, #63, #344 ) ;
#328 = DIRECTION ( 'NONE',  ( 0.000000000000000000, 0.000000000000000000, -1.000000000000000000 ) ) ;
#329 = DIRECTION ( 'NONE',  ( 0.000000000000000000, 1.000000000000000000, 0.000000000000000000 ) ) ;
#330 = FACE_OUTER_BOUND ( 'NONE', #146, .T. ) ;
#331 = EDGE_CURVE ( 'NONE', #35, #108, #273, .T. ) ;
#332 = PRESENTATION_STYLE_ASSIGNMENT (( #268 ) ) ;
#333 = UNCERTAINTY_MEASURE_WITH_UNIT (LENGTH_MEASURE( 1.000000000000000082E-05 ), #264, 'distance_accuracy_value', 'NONE');
#334 = DIRECTION ( 'NONE',  ( 0.000000000000000000, 0.000000000000000000, -1.000000000000000000 ) ) ;
#335 =( NAMED_UNIT ( * ) PLANE_ANGLE_UNIT ( ) SI_UNIT ( $, .RADIAN. ) );
#336 = STYLED_ITEM ( 'NONE', ( #38 ), #7 ) ;
#337 = AXIS2_PLACEMENT_3D ( 'NONE', #277, #158, #166 ) ;
#338 = PRESENTATION_LAYER_ASSIGNMENT (  '', '', ( #111 ) ) ;
#339 = ORIENTED_EDGE ( 'NONE', *, *, #238, .T. ) ;
#340 = ADVANCED_FACE ( 'NONE', ( #15 ), #134, .T. ) ;
#341 = FACE_OUTER_BOUND ( 'NONE', #276, .T. ) ;
#342 =( LENGTH_UNIT ( ) NAMED_UNIT ( * ) SI_UNIT ( .MILLI., .METRE. ) );
#343 = FILL_AREA_STYLE_COLOUR ( '', #66 ) ;
#344 = DIRECTION ( 'NONE',  ( 0.000000000000000000, 0.000000000000000000, -1.000000000000000000 ) ) ;
#345 = SURFACE_STYLE_FILL_AREA ( #288 ) ;
#346 = STYLED_ITEM ( 'NONE', ( #297 ), #103 ) ;
#347 = PLANE ( 'NONE',  #51 ) ;
#348 = PRESENTATION_STYLE_ASSIGNMENT (( #5 ) ) ;
#349 = PRESENTATION_LAYER_ASSIGNMENT (  '', '', ( #120 ) ) ;
#350 = FILL_AREA_STYLE_COLOUR ( '', #136 ) ;
#351 = ORIENTED_EDGE ( 'NONE', *, *, #174, .T. ) ;
#352 = SURFACE_STYLE_FILL_AREA ( #94 ) ;
#353 = CARTESIAN_POINT ( 'NONE',  ( 7.347880794884119736E-16, 0.000000000000000000, 6.000000000000000000 ) ) ;
#354 = FACE_OUTER_BOUND ( 'NONE', #324, .T. ) ;
#355 = DIRECTION ( 'NONE',  ( -1.208874916035850209E-16, 1.000000000000000000, -0.000000000000000000 ) ) ;
#356 =( GEOMETRIC_REPRESENTATION_CONTEXT ( 3 ) GLOBAL_UNCERTAINTY_ASSIGNED_CONTEXT ( ( #25 ) ) GLOBAL_UNIT_ASSIGNED_CONTEXT ( ( #127, #245, #84 ) ) REPRESENTATION_CONTEXT ( 'NONE', 'WORKASPACE' ) );
#357 = SURFACE_SIDE_STYLE ('',( #248 ) ) ;
#358 = EDGE_CURVE ( 'NONE', #179, #183, #314, .T. ) ;
#359 = CARTESIAN_POINT ( 'NONE',  ( 0.000000000000000000, 18.00000000000000000, 0.000000000000000000 ) ) ;
#360 = SURFACE_SIDE_STYLE ('',( #31 ) ) ;
#361 = UNCERTAINTY_MEASURE_WITH_UNIT (LENGTH_MEASURE( 1.000000000000000082E-05 ), #369, 'distance_accuracy_value', 'NONE');
#362 = CARTESIAN_POINT ( 'NONE',  ( 6.735557395310443009E-16, 0.000000000000000000, 5.000000000000000000 ) ) ;
#363 = AXIS2_PLACEMENT_3D ( 'NONE', #244, #167, #105 ) ;
#364 = COLOUR_RGB ( '',1.000000000000000000, 0.000000000000000000, 0.000000000000000000 ) ;
#365 = PRODUCT_DEFINITION_FORMATION_WITH_SPECIFIED_SOURCE ( 'ANY', '', #303, .NOT_KNOWN. ) ;
#366 = ORIENTED_EDGE ( 'NONE', *, *, #20, .F. ) ;
#367 = CARTESIAN_POINT ( 'NONE',  ( 0.000000000000000000, 0.000000000000000000, 0.000000000000000000 ) ) ;
#368 = STYLED_ITEM ( 'NONE', ( #213 ), #227 ) ;
#369 =( LENGTH_UNIT ( ) NAMED_UNIT ( * ) SI_UNIT ( .MILLI., .METRE. ) );
#370 = ORIENTED_EDGE ( 'NONE', *, *, #358, .F. ) ;
ENDSEC;
END-ISO-10303-21;
