ISO-10303-21;
HEADER;
FILE_DESCRIPTION (( 'STEP AP214' ),
    '1' );
FILE_NAME ('Micro_GELM-180-3.STEP',
    '2021-09-01T18:39:01',
    ( '' ),
    ( '' ),
    'SwSTEP 2.0',
    'SolidWorks 2020',
    '' );
FILE_SCHEMA (( 'AUTOMOTIVE_DESIGN' ));
ENDSEC;

DATA;
#1 = ORIENTED_EDGE ( 'NONE', *, *, #210, .F. ) ;
#2 = FACE_OUTER_BOUND ( 'NONE', #148, .T. ) ;
#3 = STYLED_ITEM ( 'NONE', ( #89 ), #297 ) ;
#4 = FACE_OUTER_BOUND ( 'NONE', #211, .T. ) ;
#5 = AXIS2_PLACEMENT_3D ( 'NONE', #181, #188, #270 ) ;
#6 = CARTESIAN_POINT ( 'NONE',  ( 3.618544121753573079E-16, 0.0000000000000000000, 2.954765508122786155 ) ) ;
#7 = ADVANCED_FACE ( 'NONE', ( #204 ), #134, .F. ) ;
#8 = ORIENTED_EDGE ( 'NONE', *, *, #95, .F. ) ;
#9 = DIRECTION ( 'NONE',  ( 0.0000000000000000000, 0.0000000000000000000, -1.000000000000000000 ) ) ;
#10 = COLOUR_RGB ( '',0.7921568627450980005, 0.8196078431372548767, 0.9333333333333333481 ) ;
#11 = ORIENTED_EDGE ( 'NONE', *, *, #171, .F. ) ;
#12 = ADVANCED_FACE ( 'NONE', ( #45 ), #103, .T. ) ;
#13 = ORIENTED_EDGE ( 'NONE', *, *, #287, .T. ) ;
#14 = ORIENTED_EDGE ( 'NONE', *, *, #88, .F. ) ;
#15 = PRESENTATION_LAYER_ASSIGNMENT (  '', '', ( #3 ) ) ;
#16 = CYLINDRICAL_SURFACE ( 'NONE', #5, 0.3539761694999999930 ) ;
#17 =( NAMED_UNIT ( * ) PLANE_ANGLE_UNIT ( ) SI_UNIT ( $, .RADIAN. ) );
#18 = PRODUCT_RELATED_PRODUCT_CATEGORY ( 'part', '', ( #99 ) ) ;
#19 =( CONVERSION_BASED_UNIT ( 'INCH', #166 ) LENGTH_UNIT ( ) NAMED_UNIT ( #183 ) );
#20 =( NAMED_UNIT ( * ) SI_UNIT ( $, .STERADIAN. ) SOLID_ANGLE_UNIT ( ) );
#21 = ORIENTED_EDGE ( 'NONE', *, *, #118, .F. ) ;
#22 = FACE_OUTER_BOUND ( 'NONE', #131, .T. ) ;
#23 = UNCERTAINTY_MEASURE_WITH_UNIT (LENGTH_MEASURE( 1.000000000000000082E-05 ), #238, 'distance_accuracy_value', 'NONE');
#24 = COLOUR_RGB ( '',0.7921568627450980005, 0.8196078431372548767, 0.9333333333333333481 ) ;
#25 = DIRECTION ( 'NONE',  ( 1.224646799147353207E-16, 0.0000000000000000000, 1.000000000000000000 ) ) ;
#26 = ADVANCED_FACE ( 'NONE', ( #22 ), #108, .T. ) ;
#27 = LINE ( 'NONE', #97, #136 ) ;
#28 = AXIS2_PLACEMENT_3D ( 'NONE', #92, #25, #216 ) ;
#29 = VERTEX_POINT ( 'NONE', #293 ) ;
#30 = DIRECTION ( 'NONE',  ( -1.000000000000000000, 0.0000000000000000000, 0.0000000000000000000 ) ) ;
#31 = CARTESIAN_POINT ( 'NONE',  ( 0.0000000000000000000, 0.0000000000000000000, 5.890512000000001969 ) ) ;
#32 = AXIS2_PLACEMENT_3D ( 'NONE', #213, #64, #254 ) ;
#33 = VECTOR ( 'NONE', #120, 39.37007874015748854 ) ;
#34 = ORIENTED_EDGE ( 'NONE', *, *, #62, .F. ) ;
#35 = LINE ( 'NONE', #247, #180 ) ;
#36 = ORIENTED_EDGE ( 'NONE', *, *, #165, .T. ) ;
#37 = ORIENTED_EDGE ( 'NONE', *, *, #110, .F. ) ;
#38 = VECTOR ( 'NONE', #219, 39.37007874015748143 ) ;
#39 = DIRECTION ( 'NONE',  ( -1.224646799147353207E-16, -0.0000000000000000000, -1.000000000000000000 ) ) ;
#40 = CARTESIAN_POINT ( 'NONE',  ( 0.3543305000000003258, 4.339297126652816661E-17, 2.954765508122786155 ) ) ;
#41 = DIRECTION ( 'NONE',  ( 0.1736481776669313859, 0.0000000000000000000, 0.9848077530122077983 ) ) ;
#42 = EDGE_CURVE ( 'NONE', #29, #149, #228, .T. ) ;
#43 = AXIS2_PLACEMENT_3D ( 'NONE', #190, #50, #115 ) ;
#44 = PRODUCT_CONTEXT ( 'NONE', #152, 'mechanical' ) ;
#45 = FACE_OUTER_BOUND ( 'NONE', #252, .T. ) ;
#46 = DIRECTION ( 'NONE',  ( 1.000000000000000000, 0.0000000000000000000, 0.0000000000000000000 ) ) ;
#47 = AXIS2_PLACEMENT_3D ( 'NONE', #144, #285, #146 ) ;
#48 = SURFACE_SIDE_STYLE ('',( #137 ) ) ;
#49 = SURFACE_STYLE_USAGE ( .BOTH. , #259 ) ;
#50 = DIRECTION ( 'NONE',  ( 0.0000000000000000000, 0.0000000000000000000, 1.000000000000000000 ) ) ;
#51 = CARTESIAN_POINT ( 'NONE',  ( 0.3393305000000013671, 4.155600106780726413E-17, 5.905511999999999873 ) ) ;
#52 = CARTESIAN_POINT ( 'NONE',  ( -0.3393305000000013671, 0.0000000000000000000, 5.905511999999999873 ) ) ;
#53 = AXIS2_PLACEMENT_3D ( 'NONE', #182, #295, #251 ) ;
#54 = DIRECTION ( 'NONE',  ( -1.224646799147353207E-16, -0.0000000000000000000, -1.000000000000000000 ) ) ;
#55 = DIRECTION ( 'NONE',  ( 0.0000000000000000000, 0.0000000000000000000, -1.000000000000000000 ) ) ;
#56 = EDGE_CURVE ( 'NONE', #29, #66, #296, .T. ) ;
#57 = ORIENTED_EDGE ( 'NONE', *, *, #266, .T. ) ;
#58 = AXIS2_PLACEMENT_3D ( 'NONE', #186, #65, #46 ) ;
#59 = VERTEX_POINT ( 'NONE', #231 ) ;
#60 = ADVANCED_FACE ( 'NONE', ( #2 ), #16, .T. ) ;
#61 = DIRECTION ( 'NONE',  ( -0.0000000000000000000, -0.0000000000000000000, -1.000000000000000000 ) ) ;
#62 = EDGE_CURVE ( 'NONE', #246, #69, #299, .T. ) ;
#63 = AXIS2_PLACEMENT_3D ( 'NONE', #193, #170, #265 ) ;
#64 = DIRECTION ( 'NONE',  ( -1.224646799147353207E-16, -0.0000000000000000000, -1.000000000000000000 ) ) ;
#65 = DIRECTION ( 'NONE',  ( 0.0000000000000000000, 0.0000000000000000000, 1.000000000000000000 ) ) ;
#66 = VERTEX_POINT ( 'NONE', #224 ) ;
#67 = CIRCLE ( 'NONE', #175, 0.3539761694999999930 ) ;
#68 = FILL_AREA_STYLE_COLOUR ( '', #10 ) ;
#69 = VERTEX_POINT ( 'NONE', #178 ) ;
#70 = ORIENTED_EDGE ( 'NONE', *, *, #88, .T. ) ;
#71 = DIRECTION ( 'NONE',  ( -1.224646799147353207E-16, -0.0000000000000000000, -1.000000000000000000 ) ) ;
#72 =( GEOMETRIC_REPRESENTATION_CONTEXT ( 3 ) GLOBAL_UNCERTAINTY_ASSIGNED_CONTEXT ( ( #91 ) ) GLOBAL_UNIT_ASSIGNED_CONTEXT ( ( #19, #236, #274 ) ) REPRESENTATION_CONTEXT ( 'NONE', 'WORKASPACE' ) );
#73 = DIRECTION ( 'NONE',  ( -1.224646799147353207E-16, -0.0000000000000000000, -1.000000000000000000 ) ) ;
#74 = CARTESIAN_POINT ( 'NONE',  ( 0.3393305000000013671, 4.247448616716769688E-17, 5.905511999999999873 ) ) ;
#75 = CARTESIAN_POINT ( 'NONE',  ( 5.308792230367967873E-33, 0.0000000000000000000, 4.334957829526159343E-17 ) ) ;
#76 = VECTOR ( 'NONE', #41, 39.37007874015748143 ) ;
#77 = CARTESIAN_POINT ( 'NONE',  ( 0.0000000000000000000, 0.0000000000000000000, 5.890512000000001969 ) ) ;
#78 = PRODUCT_DEFINITION_SHAPE ( 'NONE', 'NONE',  #255 ) ;
#79 = DIMENSIONAL_EXPONENTS ( 1.000000000000000000, 0.0000000000000000000, 0.0000000000000000000, 0.0000000000000000000, 0.0000000000000000000, 0.0000000000000000000, 0.0000000000000000000 ) ;
#80 = ORIENTED_EDGE ( 'NONE', *, *, #101, .T. ) ;
#81 = CONICAL_SURFACE ( 'NONE', #28, 0.3539761694999999930, 0.1745329251994338915 ) ;
#82 = CARTESIAN_POINT ( 'NONE',  ( 0.3539761695000003261, 0.0000000000000000000, 2.952755999999999936 ) ) ;
#83 = LINE ( 'NONE', #250, #100 ) ;
#84 = STYLED_ITEM ( 'NONE', ( #237 ), #132 ) ;
#85 = EDGE_LOOP ( 'NONE', ( #245, #195 ) ) ;
#86 = CARTESIAN_POINT ( 'NONE',  ( -0.3393305000000013671, 0.0000000000000000000, 5.905511999999999873 ) ) ;
#87 = DIRECTION ( 'NONE',  ( -1.000000000000000000, 0.0000000000000000000, 0.0000000000000000000 ) ) ;
#88 = EDGE_CURVE ( 'NONE', #66, #160, #35, .T. ) ;
#89 = PRESENTATION_STYLE_ASSIGNMENT (( #280 ) ) ;
#90 = ORIENTED_EDGE ( 'NONE', *, *, #62, .T. ) ;
#91 = UNCERTAINTY_MEASURE_WITH_UNIT (LENGTH_MEASURE( 1.000000000000000082E-05 ), #19, 'distance_accuracy_value', 'NONE');
#92 = CARTESIAN_POINT ( 'NONE',  ( 3.616083184063142379E-16, 0.0000000000000000000, 2.952755999999999936 ) ) ;
#93 = FILL_AREA_STYLE ('',( #68 ) ) ;
#94 = LINE ( 'NONE', #124, #276 ) ;
#95 = EDGE_CURVE ( 'NONE', #59, #160, #130, .T. ) ;
#96 = FILL_AREA_STYLE ('',( #217 ) ) ;
#97 = CARTESIAN_POINT ( 'NONE',  ( 0.3539761694999999930, 4.334957829526159343E-17, -4.334957829526159343E-17 ) ) ;
#98 = DIRECTION ( 'NONE',  ( -1.224646799147353207E-16, -0.0000000000000000000, -1.000000000000000000 ) ) ;
#99 = PRODUCT ( 'Micro_GELM-180-3', 'Micro_GELM-180-3', '', ( #44 ) ) ;
#100 = VECTOR ( 'NONE', #39, 39.37007874015748143 ) ;
#101 = EDGE_CURVE ( 'NONE', #111, #59, #263, .T. ) ;
#102 = ORIENTED_EDGE ( 'NONE', *, *, #156, .F. ) ;
#103 = CYLINDRICAL_SURFACE ( 'NONE', #198, 0.3543304999999999927 ) ;
#104 = EDGE_LOOP ( 'NONE', ( #1, #57, #153, #21 ) ) ;
#105 = CONICAL_SURFACE ( 'NONE', #63, 0.3393305000000013671, 0.7853981633974482790 ) ;
#106 = DIRECTION ( 'NONE',  ( -1.000000000000000000, 0.0000000000000000000, 0.0000000000000000000 ) ) ;
#107 = APPLICATION_PROTOCOL_DEFINITION ( 'draft international standard', 'automotive_design', 1998, #209 ) ;
#108 = PLANE ( 'NONE',  #150 ) ;
#109 = SHAPE_DEFINITION_REPRESENTATION ( #78, #297 ) ;
#110 = EDGE_CURVE ( 'NONE', #246, #111, #253, .T. ) ;
#111 = VERTEX_POINT ( 'NONE', #52 ) ;
#112 = CONICAL_SURFACE ( 'NONE', #53, 0.3539761694999999930, 0.1745329251994338915 ) ;
#113 =( LENGTH_UNIT ( ) NAMED_UNIT ( * ) SI_UNIT ( $, .METRE. ) );
#114 = ADVANCED_FACE ( 'NONE', ( #262 ), #192, .T. ) ;
#115 = DIRECTION ( 'NONE',  ( 1.000000000000000000, 0.0000000000000000000, 0.0000000000000000000 ) ) ;
#116 = CLOSED_SHELL ( 'NONE', ( #202, #140, #233, #12, #114, #26, #283, #151, #60, #7 ) ) ;
#117 = ORIENTED_EDGE ( 'NONE', *, *, #159, .T. ) ;
#118 = EDGE_CURVE ( 'NONE', #149, #160, #184, .T. ) ;
#119 =( NAMED_UNIT ( * ) SI_UNIT ( $, .STERADIAN. ) SOLID_ANGLE_UNIT ( ) );
#120 = DIRECTION ( 'NONE',  ( -0.7071067811865474617, 0.0000000000000000000, -0.7071067811865474617 ) ) ;
#121 = CARTESIAN_POINT ( 'NONE',  ( 0.0000000000000000000, 0.0000000000000000000, 5.905511999999999873 ) ) ;
#122 = EDGE_CURVE ( 'NONE', #111, #246, #191, .T. ) ;
#123 = ORIENTED_EDGE ( 'NONE', *, *, #110, .T. ) ;
#124 = CARTESIAN_POINT ( 'NONE',  ( 0.3543304999999999927, 4.339297126652812347E-17, 5.905511999999999873 ) ) ;
#125 = ORIENTED_EDGE ( 'NONE', *, *, #118, .T. ) ;
#126 = CARTESIAN_POINT ( 'NONE',  ( 0.3539761694999999930, 4.334957829526159343E-17, 0.0000000000000000000 ) ) ;
#127 = ORIENTED_EDGE ( 'NONE', *, *, #156, .T. ) ;
#128 = AXIS2_PLACEMENT_3D ( 'NONE', #221, #281, #106 ) ;
#129 = DIRECTION ( 'NONE',  ( 1.000000000000000000, 0.0000000000000000000, 0.0000000000000000000 ) ) ;
#130 = LINE ( 'NONE', #172, #38 ) ;
#131 = EDGE_LOOP ( 'NONE', ( #177, #123 ) ) ;
#132 = MANIFOLD_SOLID_BREP ( 'Cut-Revolve1', #116 ) ;
#133 = DIMENSIONAL_EXPONENTS ( 1.000000000000000000, 0.0000000000000000000, 0.0000000000000000000, 0.0000000000000000000, 0.0000000000000000000, 0.0000000000000000000, 0.0000000000000000000 ) ;
#134 = PLANE ( 'NONE',  #248 ) ;
#135 = DIRECTION ( 'NONE',  ( 1.000000000000000000, 0.0000000000000000000, -0.0000000000000000000 ) ) ;
#136 = VECTOR ( 'NONE', #54, 39.37007874015748143 ) ;
#137 = SURFACE_STYLE_FILL_AREA ( #93 ) ;
#138 = ORIENTED_EDGE ( 'NONE', *, *, #122, .F. ) ;
#139 = DIRECTION ( 'NONE',  ( 0.0000000000000000000, 0.0000000000000000000, 1.000000000000000000 ) ) ;
#140 = ADVANCED_FACE ( 'NONE', ( #215 ), #81, .T. ) ;
#141 =( GEOMETRIC_REPRESENTATION_CONTEXT ( 3 ) GLOBAL_UNCERTAINTY_ASSIGNED_CONTEXT ( ( #23 ) ) GLOBAL_UNIT_ASSIGNED_CONTEXT ( ( #238, #173, #119 ) ) REPRESENTATION_CONTEXT ( 'NONE', 'WORKASPACE' ) );
#142 = EDGE_CURVE ( 'NONE', #160, #149, #294, .T. ) ;
#143 = LENGTH_MEASURE_WITH_UNIT ( LENGTH_MEASURE( 0.02539999999999999897 ), #260 );
#144 = CARTESIAN_POINT ( 'NONE',  ( 0.0000000000000000000, 0.0000000000000000000, 0.0000000000000000000 ) ) ;
#145 = PRODUCT_DEFINITION_FORMATION_WITH_SPECIFIED_SOURCE ( 'ANY', '', #99, .NOT_KNOWN. ) ;
#146 = DIRECTION ( 'NONE',  ( -1.000000000000000000, 0.0000000000000000000, 1.224646799147353207E-16 ) ) ;
#147 = DIRECTION ( 'NONE',  ( 1.000000000000000000, 0.0000000000000000000, 0.0000000000000000000 ) ) ;
#148 = EDGE_LOOP ( 'NONE', ( #256, #286, #127, #200 ) ) ;
#149 = VERTEX_POINT ( 'NONE', #40 ) ;
#150 = AXIS2_PLACEMENT_3D ( 'NONE', #275, #187, #185 ) ;
#151 = ADVANCED_FACE ( 'NONE', ( #155 ), #112, .T. ) ;
#152 = APPLICATION_CONTEXT ( 'automotive_design' ) ;
#153 = ORIENTED_EDGE ( 'NONE', *, *, #95, .T. ) ;
#154 = ORIENTED_EDGE ( 'NONE', *, *, #42, .F. ) ;
#155 = FACE_OUTER_BOUND ( 'NONE', #203, .T. ) ;
#156 = EDGE_CURVE ( 'NONE', #66, #291, #83, .T. ) ;
#157 = CIRCLE ( 'NONE', #199, 0.3543304999999999927 ) ;
#158 =( CONVERSION_BASED_UNIT ( 'INCH', #272 ) LENGTH_UNIT ( ) NAMED_UNIT ( #79 ) );
#159 = EDGE_CURVE ( 'NONE', #66, #29, #205, .T. ) ;
#160 = VERTEX_POINT ( 'NONE', #264 ) ;
#161 = CARTESIAN_POINT ( 'NONE',  ( 3.616083184063142379E-16, 0.0000000000000000000, 2.952755999999999936 ) ) ;
#162 = SURFACE_STYLE_FILL_AREA ( #96 ) ;
#163 = CARTESIAN_POINT ( 'NONE',  ( 0.0000000000000000000, 0.0000000000000000000, 0.0000000000000000000 ) ) ;
#164 = EDGE_LOOP ( 'NONE', ( #34, #138, #80, #269 ) ) ;
#165 = EDGE_CURVE ( 'NONE', #29, #292, #27, .T. ) ;
#166 = LENGTH_MEASURE_WITH_UNIT ( LENGTH_MEASURE( 0.02539999999999999897 ), #113 );
#167 = DIRECTION ( 'NONE',  ( 1.000000000000000000, 0.0000000000000000000, 0.0000000000000000000 ) ) ;
#168 = ORIENTED_EDGE ( 'NONE', *, *, #101, .F. ) ;
#169 = PRESENTATION_LAYER_ASSIGNMENT (  '', '', ( #84 ) ) ;
#170 = DIRECTION ( 'NONE',  ( 0.0000000000000000000, 0.0000000000000000000, -1.000000000000000000 ) ) ;
#171 = EDGE_CURVE ( 'NONE', #291, #292, #67, .T. ) ;
#172 = CARTESIAN_POINT ( 'NONE',  ( -0.3543304999999999927, 0.0000000000000000000, 5.905511999999999873 ) ) ;
#173 =( NAMED_UNIT ( * ) PLANE_ANGLE_UNIT ( ) SI_UNIT ( $, .RADIAN. ) );
#174 = CARTESIAN_POINT ( 'NONE',  ( 3.618544121753573079E-16, 0.0000000000000000000, 2.954765508122786155 ) ) ;
#175 = AXIS2_PLACEMENT_3D ( 'NONE', #225, #73, #239 ) ;
#176 = DIRECTION ( 'NONE',  ( 1.000000000000000000, 0.0000000000000000000, 0.0000000000000000000 ) ) ;
#177 = ORIENTED_EDGE ( 'NONE', *, *, #122, .T. ) ;
#178 = CARTESIAN_POINT ( 'NONE',  ( 0.3543304999999999927, 4.339297126652812347E-17, 5.890512000000001969 ) ) ;
#179 = ORIENTED_EDGE ( 'NONE', *, *, #287, .F. ) ;
#180 = VECTOR ( 'NONE', #288, 39.37007874015747433 ) ;
#181 = CARTESIAN_POINT ( 'NONE',  ( 0.0000000000000000000, 0.0000000000000000000, 0.0000000000000000000 ) ) ;
#182 = CARTESIAN_POINT ( 'NONE',  ( 3.616083184063142379E-16, 0.0000000000000000000, 2.952755999999999936 ) ) ;
#183 = DIMENSIONAL_EXPONENTS ( 1.000000000000000000, 0.0000000000000000000, 0.0000000000000000000, 0.0000000000000000000, 0.0000000000000000000, 0.0000000000000000000, 0.0000000000000000000 ) ;
#184 = CIRCLE ( 'NONE', #220, 0.3543304999999999927 ) ;
#185 = DIRECTION ( 'NONE',  ( 1.000000000000000000, 0.0000000000000000000, -0.0000000000000000000 ) ) ;
#186 = CARTESIAN_POINT ( 'NONE',  ( 0.0000000000000000000, 0.0000000000000000000, 5.905511999999999873 ) ) ;
#187 = DIRECTION ( 'NONE',  ( 0.0000000000000000000, 0.0000000000000000000, 1.000000000000000000 ) ) ;
#188 = DIRECTION ( 'NONE',  ( -1.224646799147353207E-16, -0.0000000000000000000, -1.000000000000000000 ) ) ;
#189 = UNCERTAINTY_MEASURE_WITH_UNIT (LENGTH_MEASURE( 1.000000000000000082E-05 ), #158, 'distance_accuracy_value', 'NONE');
#190 = CARTESIAN_POINT ( 'NONE',  ( 0.0000000000000000000, 0.0000000000000000000, 5.905511999999999873 ) ) ;
#191 = CIRCLE ( 'NONE', #58, 0.3393305000000013671 ) ;
#192 = CYLINDRICAL_SURFACE ( 'NONE', #128, 0.3543304999999999927 ) ;
#193 = CARTESIAN_POINT ( 'NONE',  ( 0.0000000000000000000, 0.0000000000000000000, 5.905511999999999873 ) ) ;
#194 = CYLINDRICAL_SURFACE ( 'NONE', #47, 0.3539761694999999930 ) ;
#195 = ORIENTED_EDGE ( 'NONE', *, *, #261, .T. ) ;
#196 = FACE_OUTER_BOUND ( 'NONE', #267, .T. ) ;
#197 = DIRECTION ( 'NONE',  ( -1.224646799147353207E-16, -0.0000000000000000000, -1.000000000000000000 ) ) ;
#198 = AXIS2_PLACEMENT_3D ( 'NONE', #232, #61, #87 ) ;
#199 = AXIS2_PLACEMENT_3D ( 'NONE', #77, #226, #176 ) ;
#200 = ORIENTED_EDGE ( 'NONE', *, *, #261, .F. ) ;
#201 = DIRECTION ( 'NONE',  ( 0.7071067811865474617, 8.659560562354932858E-17, -0.7071067811865474617 ) ) ;
#202 = ADVANCED_FACE ( 'NONE', ( #196 ), #194, .T. ) ;
#203 = EDGE_LOOP ( 'NONE', ( #14, #249, #243, #125 ) ) ;
#204 = FACE_OUTER_BOUND ( 'NONE', #85, .T. ) ;
#205 = CIRCLE ( 'NONE', #268, 0.3539761694999999930 ) ;
#206 = DIRECTION ( 'NONE',  ( 0.0000000000000000000, 0.0000000000000000000, 1.000000000000000000 ) ) ;
#207 =( LENGTH_UNIT ( ) NAMED_UNIT ( * ) SI_UNIT ( $, .METRE. ) );
#208 = MECHANICAL_DESIGN_GEOMETRIC_PRESENTATION_REPRESENTATION (  '', ( #3 ), #72 ) ;
#209 = APPLICATION_CONTEXT ( 'automotive_design' ) ;
#210 = EDGE_CURVE ( 'NONE', #69, #149, #94, .T. ) ;
#211 = EDGE_LOOP ( 'NONE', ( #37, #90, #179, #168 ) ) ;
#212 = DIRECTION ( 'NONE',  ( -1.224646799147353207E-16, -0.0000000000000000000, -1.000000000000000000 ) ) ;
#213 = CARTESIAN_POINT ( 'NONE',  ( 3.616083184063142379E-16, 0.0000000000000000000, 2.952755999999999936 ) ) ;
#214 = CONICAL_SURFACE ( 'NONE', #290, 0.3393305000000013671, 0.7853981633974482790 ) ;
#215 = FACE_OUTER_BOUND ( 'NONE', #278, .T. ) ;
#216 = DIRECTION ( 'NONE',  ( 1.000000000000000000, 0.0000000000000000000, 0.0000000000000000000 ) ) ;
#217 = FILL_AREA_STYLE_COLOUR ( '', #24 ) ;
#218 = APPLICATION_PROTOCOL_DEFINITION ( 'draft international standard', 'automotive_design', 1998, #152 ) ;
#219 = DIRECTION ( 'NONE',  ( -0.0000000000000000000, -0.0000000000000000000, -1.000000000000000000 ) ) ;
#220 = AXIS2_PLACEMENT_3D ( 'NONE', #6, #71, #235 ) ;
#221 = CARTESIAN_POINT ( 'NONE',  ( 0.0000000000000000000, 0.0000000000000000000, 5.905511999999999873 ) ) ;
#222 = CARTESIAN_POINT ( 'NONE',  ( -0.3539761694999999930, 0.0000000000000000000, 8.669915659052318686E-17 ) ) ;
#223 = ORIENTED_EDGE ( 'NONE', *, *, #159, .F. ) ;
#224 = CARTESIAN_POINT ( 'NONE',  ( -0.3539761694999996600, 4.337127478089486461E-17, 2.952755999999999936 ) ) ;
#225 = CARTESIAN_POINT ( 'NONE',  ( 5.308792230367967873E-33, 0.0000000000000000000, 4.334957829526159343E-17 ) ) ;
#226 = DIRECTION ( 'NONE',  ( 0.0000000000000000000, 0.0000000000000000000, -1.000000000000000000 ) ) ;
#227 = ORIENTED_EDGE ( 'NONE', *, *, #142, .T. ) ;
#228 = LINE ( 'NONE', #82, #76 ) ;
#229 = CIRCLE ( 'NONE', #234, 0.3543304999999999927 ) ;
#230 = MECHANICAL_DESIGN_GEOMETRIC_PRESENTATION_REPRESENTATION (  '', ( #84 ), #241 ) ;
#231 = CARTESIAN_POINT ( 'NONE',  ( -0.3543304999999999927, 0.0000000000000000000, 5.890512000000001969 ) ) ;
#232 = CARTESIAN_POINT ( 'NONE',  ( 0.0000000000000000000, 0.0000000000000000000, 5.905511999999999873 ) ) ;
#233 = ADVANCED_FACE ( 'NONE', ( #4 ), #214, .T. ) ;
#234 = AXIS2_PLACEMENT_3D ( 'NONE', #31, #55, #147 ) ;
#235 = DIRECTION ( 'NONE',  ( 1.000000000000000000, 0.0000000000000000000, 0.0000000000000000000 ) ) ;
#236 =( NAMED_UNIT ( * ) PLANE_ANGLE_UNIT ( ) SI_UNIT ( $, .RADIAN. ) );
#237 = PRESENTATION_STYLE_ASSIGNMENT (( #49 ) ) ;
#238 =( CONVERSION_BASED_UNIT ( 'INCH', #143 ) LENGTH_UNIT ( ) NAMED_UNIT ( #133 ) );
#239 = DIRECTION ( 'NONE',  ( -1.000000000000000000, 0.0000000000000000000, 1.224646799147353207E-16 ) ) ;
#240 = ORIENTED_EDGE ( 'NONE', *, *, #210, .T. ) ;
#241 =( GEOMETRIC_REPRESENTATION_CONTEXT ( 3 ) GLOBAL_UNCERTAINTY_ASSIGNED_CONTEXT ( ( #189 ) ) GLOBAL_UNIT_ASSIGNED_CONTEXT ( ( #158, #17, #20 ) ) REPRESENTATION_CONTEXT ( 'NONE', 'WORKASPACE' ) );
#242 = DIRECTION ( 'NONE',  ( -0.0000000000000000000, -0.0000000000000000000, -1.000000000000000000 ) ) ;
#243 = ORIENTED_EDGE ( 'NONE', *, *, #42, .T. ) ;
#244 = FACE_OUTER_BOUND ( 'NONE', #164, .T. ) ;
#245 = ORIENTED_EDGE ( 'NONE', *, *, #171, .T. ) ;
#246 = VERTEX_POINT ( 'NONE', #74 ) ;
#247 = CARTESIAN_POINT ( 'NONE',  ( -0.3539761694999996600, 4.334957829526159343E-17, 2.952755999999999936 ) ) ;
#248 = AXIS2_PLACEMENT_3D ( 'NONE', #163, #206, #135 ) ;
#249 = ORIENTED_EDGE ( 'NONE', *, *, #56, .F. ) ;
#250 = CARTESIAN_POINT ( 'NONE',  ( -0.3539761694999999930, 0.0000000000000000000, 4.334957829526159343E-17 ) ) ;
#251 = DIRECTION ( 'NONE',  ( 1.000000000000000000, 0.0000000000000000000, 0.0000000000000000000 ) ) ;
#252 = EDGE_LOOP ( 'NONE', ( #13, #240, #273, #8 ) ) ;
#253 = CIRCLE ( 'NONE', #43, 0.3393305000000013671 ) ;
#254 = DIRECTION ( 'NONE',  ( -1.000000000000000000, 0.0000000000000000000, 0.0000000000000000000 ) ) ;
#255 = PRODUCT_DEFINITION ( 'UNKNOWN', '', #145, #279 ) ;
#256 = ORIENTED_EDGE ( 'NONE', *, *, #165, .F. ) ;
#257 = DIRECTION ( 'NONE',  ( -1.000000000000000000, 0.0000000000000000000, 0.0000000000000000000 ) ) ;
#258 = AXIS2_PLACEMENT_3D ( 'NONE', #174, #197, #129 ) ;
#259 = SURFACE_SIDE_STYLE ('',( #162 ) ) ;
#260 =( LENGTH_UNIT ( ) NAMED_UNIT ( * ) SI_UNIT ( $, .METRE. ) );
#261 = EDGE_CURVE ( 'NONE', #292, #291, #271, .T. ) ;
#262 = FACE_OUTER_BOUND ( 'NONE', #104, .T. ) ;
#263 = LINE ( 'NONE', #86, #33 ) ;
#264 = CARTESIAN_POINT ( 'NONE',  ( -0.3543304999999996596, 0.0000000000000000000, 2.954765508122786155 ) ) ;
#265 = DIRECTION ( 'NONE',  ( -1.000000000000000000, 0.0000000000000000000, 0.0000000000000000000 ) ) ;
#266 = EDGE_CURVE ( 'NONE', #69, #59, #157, .T. ) ;
#267 = EDGE_LOOP ( 'NONE', ( #117, #36, #11, #102 ) ) ;
#268 = AXIS2_PLACEMENT_3D ( 'NONE', #161, #212, #257 ) ;
#269 = ORIENTED_EDGE ( 'NONE', *, *, #266, .F. ) ;
#270 = DIRECTION ( 'NONE',  ( -1.000000000000000000, 0.0000000000000000000, 1.224646799147353207E-16 ) ) ;
#271 = CIRCLE ( 'NONE', #298, 0.3539761694999999930 ) ;
#272 = LENGTH_MEASURE_WITH_UNIT ( LENGTH_MEASURE( 0.02539999999999999897 ), #207 );
#273 = ORIENTED_EDGE ( 'NONE', *, *, #142, .F. ) ;
#274 =( NAMED_UNIT ( * ) SI_UNIT ( $, .STERADIAN. ) SOLID_ANGLE_UNIT ( ) );
#275 = CARTESIAN_POINT ( 'NONE',  ( 0.0000000000000000000, 0.0000000000000000000, 5.905511999999999873 ) ) ;
#276 = VECTOR ( 'NONE', #242, 39.37007874015748143 ) ;
#277 = CARTESIAN_POINT ( 'NONE',  ( 0.0000000000000000000, 0.0000000000000000000, 0.0000000000000000000 ) ) ;
#278 = EDGE_LOOP ( 'NONE', ( #223, #70, #227, #154 ) ) ;
#279 = PRODUCT_DEFINITION_CONTEXT ( 'detailed design', #209, 'design' ) ;
#280 = SURFACE_STYLE_USAGE ( .BOTH. , #48 ) ;
#281 = DIRECTION ( 'NONE',  ( -0.0000000000000000000, -0.0000000000000000000, -1.000000000000000000 ) ) ;
#282 = VECTOR ( 'NONE', #201, 39.37007874015748854 ) ;
#283 = ADVANCED_FACE ( 'NONE', ( #244 ), #105, .T. ) ;
#284 = AXIS2_PLACEMENT_3D ( 'NONE', #277, #139, #167 ) ;
#285 = DIRECTION ( 'NONE',  ( -1.224646799147353207E-16, -0.0000000000000000000, -1.000000000000000000 ) ) ;
#286 = ORIENTED_EDGE ( 'NONE', *, *, #56, .T. ) ;
#287 = EDGE_CURVE ( 'NONE', #59, #69, #229, .T. ) ;
#288 = DIRECTION ( 'NONE',  ( -0.1736481776669311916, 2.126576849575783316E-17, 0.9848077530122080203 ) ) ;
#289 = DIRECTION ( 'NONE',  ( -1.000000000000000000, 0.0000000000000000000, 1.224646799147353207E-16 ) ) ;
#290 = AXIS2_PLACEMENT_3D ( 'NONE', #121, #9, #30 ) ;
#291 = VERTEX_POINT ( 'NONE', #222 ) ;
#292 = VERTEX_POINT ( 'NONE', #126 ) ;
#293 = CARTESIAN_POINT ( 'NONE',  ( 0.3539761695000003261, 0.0000000000000000000, 2.952755999999999936 ) ) ;
#294 = CIRCLE ( 'NONE', #258, 0.3543304999999999927 ) ;
#295 = DIRECTION ( 'NONE',  ( 1.224646799147353207E-16, 0.0000000000000000000, 1.000000000000000000 ) ) ;
#296 = CIRCLE ( 'NONE', #32, 0.3539761694999999930 ) ;
#297 = ADVANCED_BREP_SHAPE_REPRESENTATION ( 'Micro_GELM-180-3', ( #132, #284 ), #141 ) ;
#298 = AXIS2_PLACEMENT_3D ( 'NONE', #75, #98, #289 ) ;
#299 = LINE ( 'NONE', #51, #282 ) ;
ENDSEC;
END-ISO-10303-21;
