ISO-10303-21;
HEADER;
FILE_DESCRIPTION (( 'STEP AP214' ),
    '1' );
FILE_NAME ('Micro_AMRM-015-2.STEP',
    '2021-09-01T17:14:27',
    ( '' ),
    ( '' ),
    'SwSTEP 2.0',
    'SolidWorks 2020',
    '' );
FILE_SCHEMA (( 'AUTOMOTIVE_DESIGN' ));
ENDSEC;

DATA;
#1 = EDGE_CURVE ( 'NONE', #65, #218, #243, .T. ) ;
#2 = LENGTH_MEASURE_WITH_UNIT ( LENGTH_MEASURE( 0.02539999999999999897 ), #60 );
#3 = STYLED_ITEM ( 'NONE', ( #44 ), #210 ) ;
#4 = AXIS2_PLACEMENT_3D ( 'NONE', #56, #126, #259 ) ;
#5 = CARTESIAN_POINT ( 'NONE',  ( 0.06374000000000018540, 8.724383797125754882E-18, 1.968503999999999809 ) ) ;
#6 = DIRECTION ( 'NONE',  ( 0.0000000000000000000, 0.0000000000000000000, -1.000000000000000000 ) ) ;
#7 = FACE_OUTER_BOUND ( 'NONE', #106, .T. ) ;
#8 = VECTOR ( 'NONE', #26, 39.37007874015748143 ) ;
#9 = LINE ( 'NONE', #283, #257 ) ;
#10 = DIRECTION ( 'NONE',  ( 1.224646799147353207E-16, 0.0000000000000000000, 1.000000000000000000 ) ) ;
#11 = PRESENTATION_LAYER_ASSIGNMENT (  '', '', ( #3 ) ) ;
#12 = FACE_OUTER_BOUND ( 'NONE', #178, .T. ) ;
#13 = DIRECTION ( 'NONE',  ( 0.0000000000000000000, 0.0000000000000000000, 1.000000000000000000 ) ) ;
#14 = ORIENTED_EDGE ( 'NONE', *, *, #37, .F. ) ;
#15 = PLANE ( 'NONE',  #82 ) ;
#16 = ORIENTED_EDGE ( 'NONE', *, *, #111, .T. ) ;
#17 = CONICAL_SURFACE ( 'NONE', #30, 0.06374000000000018540, 0.7853981633974528309 ) ;
#18 =( NAMED_UNIT ( * ) PLANE_ANGLE_UNIT ( ) SI_UNIT ( $, .RADIAN. ) );
#19 = ORIENTED_EDGE ( 'NONE', *, *, #294, .T. ) ;
#20 = ORIENTED_EDGE ( 'NONE', *, *, #198, .F. ) ;
#21 = SURFACE_STYLE_FILL_AREA ( #293 ) ;
#22 = VERTEX_POINT ( 'NONE', #153 ) ;
#23 = EDGE_CURVE ( 'NONE', #268, #200, #289, .T. ) ;
#24 = SHAPE_DEFINITION_REPRESENTATION ( #249, #210 ) ;
#25 = ADVANCED_FACE ( 'NONE', ( #109 ), #253, .T. ) ;
#26 = DIRECTION ( 'NONE',  ( -1.224646799147353207E-16, -0.0000000000000000000, -1.000000000000000000 ) ) ;
#27 = DIRECTION ( 'NONE',  ( -1.000000000000000000, 0.0000000000000000000, 0.0000000000000000000 ) ) ;
#28 = SURFACE_SIDE_STYLE ('',( #229 ) ) ;
#29 = PRESENTATION_LAYER_ASSIGNMENT (  '', '', ( #157 ) ) ;
#30 = AXIS2_PLACEMENT_3D ( 'NONE', #190, #6, #27 ) ;
#31 = CARTESIAN_POINT ( 'NONE',  ( 5.445017438126882659E-17, 0.0000000000000000000, 0.4446194153218638867 ) ) ;
#32 = DIRECTION ( 'NONE',  ( 0.0000000000000000000, 0.0000000000000000000, 1.000000000000000000 ) ) ;
#33 = LINE ( 'NONE', #125, #49 ) ;
#34 = DIRECTION ( 'NONE',  ( -1.000000000000000000, 0.0000000000000000000, 0.0000000000000000000 ) ) ;
#35 = ORIENTED_EDGE ( 'NONE', *, *, #111, .F. ) ;
#36 = DIRECTION ( 'NONE',  ( 0.0000000000000000000, 0.0000000000000000000, -1.000000000000000000 ) ) ;
#37 = EDGE_CURVE ( 'NONE', #173, #65, #95, .T. ) ;
#38 = VERTEX_POINT ( 'NONE', #5 ) ;
#39 = UNCERTAINTY_MEASURE_WITH_UNIT (LENGTH_MEASURE( 1.000000000000000082E-05 ), #222, 'distance_accuracy_value', 'NONE');
#40 = EDGE_LOOP ( 'NONE', ( #154, #288, #19, #85 ) ) ;
#41 = AXIS2_PLACEMENT_3D ( 'NONE', #69, #94, #48 ) ;
#42 = DIRECTION ( 'NONE',  ( -1.224646799147353207E-16, -0.0000000000000000000, -1.000000000000000000 ) ) ;
#43 = ORIENTED_EDGE ( 'NONE', *, *, #182, .F. ) ;
#44 = PRESENTATION_STYLE_ASSIGNMENT (( #273 ) ) ;
#45 = ADVANCED_FACE ( 'NONE', ( #165 ), #17, .T. ) ;
#46 = APPLICATION_PROTOCOL_DEFINITION ( 'draft international standard', 'automotive_design', 1998, #117 ) ;
#47 = EDGE_CURVE ( 'NONE', #266, #86, #271, .T. ) ;
#48 = DIRECTION ( 'NONE',  ( -1.000000000000000000, 0.0000000000000000000, 1.224646799147352961E-16 ) ) ;
#49 = VECTOR ( 'NONE', #78, 39.37007874015748143 ) ;
#50 = FACE_OUTER_BOUND ( 'NONE', #297, .T. ) ;
#51 = EDGE_CURVE ( 'NONE', #218, #216, #207, .T. ) ;
#52 = CYLINDRICAL_SURFACE ( 'NONE', #119, 0.02949797250000000398 ) ;
#53 = DIRECTION ( 'NONE',  ( -1.000000000000000000, 0.0000000000000000000, 1.224646799147352961E-16 ) ) ;
#54 = CYLINDRICAL_SURFACE ( 'NONE', #169, 0.02949797250000000398 ) ;
#55 = DIRECTION ( 'NONE',  ( 1.000000000000000000, 0.0000000000000000000, -0.0000000000000000000 ) ) ;
#56 = CARTESIAN_POINT ( 'NONE',  ( 0.0000000000000000000, 0.0000000000000000000, 1.968503999999999809 ) ) ;
#57 = EDGE_CURVE ( 'NONE', #200, #266, #134, .T. ) ;
#58 = CARTESIAN_POINT ( 'NONE',  ( 0.02949797250000000398, 3.612459760346164844E-18, -3.612459760346164844E-18 ) ) ;
#59 = EDGE_LOOP ( 'NONE', ( #238, #133, #265, #263 ) ) ;
#60 =( LENGTH_UNIT ( ) NAMED_UNIT ( * ) SI_UNIT ( $, .METRE. ) );
#61 = ORIENTED_EDGE ( 'NONE', *, *, #51, .T. ) ;
#62 = DIRECTION ( 'NONE',  ( -1.224646799147353207E-16, -0.0000000000000000000, -1.000000000000000000 ) ) ;
#63 = EDGE_LOOP ( 'NONE', ( #145, #290, #292, #43 ) ) ;
#64 = ORIENTED_EDGE ( 'NONE', *, *, #57, .T. ) ;
#65 = VERTEX_POINT ( 'NONE', #275 ) ;
#66 =( NAMED_UNIT ( * ) SI_UNIT ( $, .STERADIAN. ) SOLID_ANGLE_UNIT ( ) );
#67 = AXIS2_PLACEMENT_3D ( 'NONE', #255, #228, #208 ) ;
#68 = DIRECTION ( 'NONE',  ( -1.224646799147353207E-16, -0.0000000000000000000, -1.000000000000000000 ) ) ;
#69 = CARTESIAN_POINT ( 'NONE',  ( 4.423987282556545948E-34, 0.0000000000000000000, 3.612459760346164844E-18 ) ) ;
#70 = AXIS2_PLACEMENT_3D ( 'NONE', #104, #261, #191 ) ;
#71 = DIRECTION ( 'NONE',  ( 1.224646799147353207E-16, 0.0000000000000000000, 1.000000000000000000 ) ) ;
#72 = LENGTH_MEASURE_WITH_UNIT ( LENGTH_MEASURE( 0.02539999999999999897 ), #252 );
#73 = CIRCLE ( 'NONE', #251, 0.07874000000000001831 ) ;
#74 = CARTESIAN_POINT ( 'NONE',  ( 0.07874000000000001831, 9.642868896486260050E-18, 1.968503999999999809 ) ) ;
#75 = EDGE_CURVE ( 'NONE', #200, #268, #139, .T. ) ;
#76 = CARTESIAN_POINT ( 'NONE',  ( 0.02949797250000002133, 0.0000000000000000000, 0.1653539999999999732 ) ) ;
#77 = APPLICATION_CONTEXT ( 'automotive_design' ) ;
#78 = DIRECTION ( 'NONE',  ( 0.1736481776669313304, 0.0000000000000000000, 0.9848077530122077983 ) ) ;
#79 = ORIENTED_EDGE ( 'NONE', *, *, #246, .T. ) ;
#80 = AXIS2_PLACEMENT_3D ( 'NONE', #31, #209, #211 ) ;
#81 = CARTESIAN_POINT ( 'NONE',  ( 0.07874000000000007382, 9.642868896486266213E-18, 0.4446194153218638867 ) ) ;
#82 = AXIS2_PLACEMENT_3D ( 'NONE', #286, #194, #55 ) ;
#83 = EDGE_LOOP ( 'NONE', ( #103, #16 ) ) ;
#84 = CARTESIAN_POINT ( 'NONE',  ( 0.0000000000000000000, 0.0000000000000000000, 0.0000000000000000000 ) ) ;
#85 = ORIENTED_EDGE ( 'NONE', *, *, #182, .T. ) ;
#86 = VERTEX_POINT ( 'NONE', #93 ) ;
#87 =( GEOMETRIC_REPRESENTATION_CONTEXT ( 3 ) GLOBAL_UNCERTAINTY_ASSIGNED_CONTEXT ( ( #188 ) ) GLOBAL_UNIT_ASSIGNED_CONTEXT ( ( #155, #202, #66 ) ) REPRESENTATION_CONTEXT ( 'NONE', 'WORKASPACE' ) );
#88 = ORIENTED_EDGE ( 'NONE', *, *, #118, .F. ) ;
#89 = FILL_AREA_STYLE_COLOUR ( '', #267 ) ;
#90 = DIRECTION ( 'NONE',  ( 0.0000000000000000000, 0.0000000000000000000, 1.000000000000000000 ) ) ;
#91 = MECHANICAL_DESIGN_GEOMETRIC_PRESENTATION_REPRESENTATION (  '', ( #157 ), #298 ) ;
#92 = VECTOR ( 'NONE', #239, 39.37007874015748143 ) ;
#93 = CARTESIAN_POINT ( 'NONE',  ( 0.02949797250000000398, 3.612459760346164844E-18, 0.0000000000000000000 ) ) ;
#94 = DIRECTION ( 'NONE',  ( -1.224646799147353207E-16, -0.0000000000000000000, -1.000000000000000000 ) ) ;
#95 = CIRCLE ( 'NONE', #231, 0.07874000000000001831 ) ;
#96 =( NAMED_UNIT ( * ) SI_UNIT ( $, .STERADIAN. ) SOLID_ANGLE_UNIT ( ) );
#97 = FACE_OUTER_BOUND ( 'NONE', #201, .T. ) ;
#98 = AXIS2_PLACEMENT_3D ( 'NONE', #234, #144, #149 ) ;
#99 = CARTESIAN_POINT ( 'NONE',  ( 0.0000000000000000000, 0.0000000000000000000, 1.953504000000000129 ) ) ;
#100 = DIRECTION ( 'NONE',  ( -0.1736481776669311639, 2.126576849575782392E-17, 0.9848077530122080203 ) ) ;
#101 = DIMENSIONAL_EXPONENTS ( 1.000000000000000000, 0.0000000000000000000, 0.0000000000000000000, 0.0000000000000000000, 0.0000000000000000000, 0.0000000000000000000, 0.0000000000000000000 ) ;
#102 = CARTESIAN_POINT ( 'NONE',  ( -0.07873999999999996280, 0.0000000000000000000, 0.4446194153218638867 ) ) ;
#103 = ORIENTED_EDGE ( 'NONE', *, *, #47, .T. ) ;
#104 = CARTESIAN_POINT ( 'NONE',  ( 0.0000000000000000000, 0.0000000000000000000, 1.968503999999999809 ) ) ;
#105 = VECTOR ( 'NONE', #163, 39.37007874015748143 ) ;
#106 = EDGE_LOOP ( 'NONE', ( #132, #224, #64, #35 ) ) ;
#107 = PRODUCT_DEFINITION_CONTEXT ( 'detailed design', #117, 'design' ) ;
#108 = EDGE_LOOP ( 'NONE', ( #262, #79, #20, #88 ) ) ;
#109 = FACE_OUTER_BOUND ( 'NONE', #59, .T. ) ;
#110 = AXIS2_PLACEMENT_3D ( 'NONE', #212, #10, #192 ) ;
#111 = EDGE_CURVE ( 'NONE', #86, #266, #124, .T. ) ;
#112 = ORIENTED_EDGE ( 'NONE', *, *, #47, .F. ) ;
#113 =( LENGTH_UNIT ( ) NAMED_UNIT ( * ) SI_UNIT ( $, .METRE. ) );
#114 = FILL_AREA_STYLE_COLOUR ( '', #274 ) ;
#115 = CARTESIAN_POINT ( 'NONE',  ( -0.02949797250000000398, 0.0000000000000000000, 3.612459760346164844E-18 ) ) ;
#116 = ADVANCED_FACE ( 'NONE', ( #50 ), #232, .T. ) ;
#117 = APPLICATION_CONTEXT ( 'automotive_design' ) ;
#118 = EDGE_CURVE ( 'NONE', #22, #65, #279, .T. ) ;
#119 = AXIS2_PLACEMENT_3D ( 'NONE', #137, #186, #256 ) ;
#120 =( NAMED_UNIT ( * ) PLANE_ANGLE_UNIT ( ) SI_UNIT ( $, .RADIAN. ) );
#121 = CARTESIAN_POINT ( 'NONE',  ( 0.0000000000000000000, 0.0000000000000000000, 1.968503999999999809 ) ) ;
#122 = FACE_OUTER_BOUND ( 'NONE', #83, .T. ) ;
#123 = VECTOR ( 'NONE', #237, 39.37007874015748143 ) ;
#124 = CIRCLE ( 'NONE', #247, 0.02949797250000000398 ) ;
#125 = CARTESIAN_POINT ( 'NONE',  ( 0.02949797250000002133, 0.0000000000000000000, 0.1653539999999999732 ) ) ;
#126 = DIRECTION ( 'NONE',  ( 0.0000000000000000000, 0.0000000000000000000, 1.000000000000000000 ) ) ;
#127 = ADVANCED_FACE ( 'NONE', ( #7 ), #52, .T. ) ;
#128 = EDGE_LOOP ( 'NONE', ( #147, #176, #197, #14 ) ) ;
#129 = LINE ( 'NONE', #146, #162 ) ;
#130 = ORIENTED_EDGE ( 'NONE', *, *, #223, .T. ) ;
#131 = ORIENTED_EDGE ( 'NONE', *, *, #75, .T. ) ;
#132 = ORIENTED_EDGE ( 'NONE', *, *, #195, .F. ) ;
#133 = ORIENTED_EDGE ( 'NONE', *, *, #254, .T. ) ;
#134 = LINE ( 'NONE', #115, #8 ) ;
#135 = AXIS2_PLACEMENT_3D ( 'NONE', #287, #235, #34 ) ;
#136 = CARTESIAN_POINT ( 'NONE',  ( 0.0000000000000000000, 0.0000000000000000000, 1.968503999999999809 ) ) ;
#137 = CARTESIAN_POINT ( 'NONE',  ( 0.0000000000000000000, 0.0000000000000000000, 0.0000000000000000000 ) ) ;
#138 = PRESENTATION_STYLE_ASSIGNMENT (( #141 ) ) ;
#139 = CIRCLE ( 'NONE', #67, 0.02949797249999999704 ) ;
#140 = CONICAL_SURFACE ( 'NONE', #110, 0.02949797249999999704, 0.1745329251994338360 ) ;
#141 = SURFACE_STYLE_USAGE ( .BOTH. , #28 ) ;
#142 = DIRECTION ( 'NONE',  ( 1.000000000000000000, 0.0000000000000000000, 0.0000000000000000000 ) ) ;
#143 = LINE ( 'NONE', #74, #123 ) ;
#144 = DIRECTION ( 'NONE',  ( -1.224646799147353207E-16, -0.0000000000000000000, -1.000000000000000000 ) ) ;
#145 = ORIENTED_EDGE ( 'NONE', *, *, #254, .F. ) ;
#146 = CARTESIAN_POINT ( 'NONE',  ( -0.02949797249999997623, 3.612459760346164844E-18, 0.1653539999999999732 ) ) ;
#147 = ORIENTED_EDGE ( 'NONE', *, *, #246, .F. ) ;
#148 = VECTOR ( 'NONE', #179, 39.37007874015748143 ) ;
#149 = DIRECTION ( 'NONE',  ( 1.000000000000000000, 0.0000000000000000000, 0.0000000000000000000 ) ) ;
#150 = MANIFOLD_SOLID_BREP ( 'Cut-Revolve1', #280 ) ;
#151 = ORIENTED_EDGE ( 'NONE', *, *, #57, .F. ) ;
#152 = PRODUCT_DEFINITION_FORMATION_WITH_SPECIFIED_SOURCE ( 'ANY', '', #227, .NOT_KNOWN. ) ;
#153 = CARTESIAN_POINT ( 'NONE',  ( -0.06374000000000018540, 0.0000000000000000000, 1.968503999999999809 ) ) ;
#154 = ORIENTED_EDGE ( 'NONE', *, *, #183, .F. ) ;
#155 =( CONVERSION_BASED_UNIT ( 'INCH', #2 ) LENGTH_UNIT ( ) NAMED_UNIT ( #101 ) );
#156 = PRODUCT_CONTEXT ( 'NONE', #77, 'mechanical' ) ;
#157 = STYLED_ITEM ( 'NONE', ( #138 ), #150 ) ;
#158 = CONICAL_SURFACE ( 'NONE', #70, 0.06374000000000018540, 0.7853981633974528309 ) ;
#159 = AXIS2_PLACEMENT_3D ( 'NONE', #136, #187, #230 ) ;
#160 = DIRECTION ( 'NONE',  ( 1.000000000000000000, 0.0000000000000000000, 0.0000000000000000000 ) ) ;
#161 = CARTESIAN_POINT ( 'NONE',  ( -0.06374000000000018540, 0.0000000000000000000, 1.968503999999999809 ) ) ;
#162 = VECTOR ( 'NONE', #100, 39.37007874015747433 ) ;
#163 = DIRECTION ( 'NONE',  ( -0.7071067811865507924, 0.0000000000000000000, -0.7071067811865443531 ) ) ;
#164 = PRODUCT_DEFINITION ( 'UNKNOWN', '', #152, #107 ) ;
#165 = FACE_OUTER_BOUND ( 'NONE', #128, .T. ) ;
#166 = CARTESIAN_POINT ( 'NONE',  ( 4.423987282556545948E-34, 0.0000000000000000000, 3.612459760346164844E-18 ) ) ;
#167 = ADVANCED_FACE ( 'NONE', ( #97 ), #54, .T. ) ;
#168 = CIRCLE ( 'NONE', #4, 0.06374000000000018540 ) ;
#169 = AXIS2_PLACEMENT_3D ( 'NONE', #84, #62, #215 ) ;
#170 = CARTESIAN_POINT ( 'NONE',  ( -0.02949797250000000398, 0.0000000000000000000, 7.224919520692329689E-18 ) ) ;
#171 = CYLINDRICAL_SURFACE ( 'NONE', #135, 0.07874000000000001831 ) ;
#172 = FACE_OUTER_BOUND ( 'NONE', #108, .T. ) ;
#173 = VERTEX_POINT ( 'NONE', #177 ) ;
#174 = AXIS2_PLACEMENT_3D ( 'NONE', #278, #71, #160 ) ;
#175 = CARTESIAN_POINT ( 'NONE',  ( 0.0000000000000000000, 0.0000000000000000000, 0.0000000000000000000 ) ) ;
#176 = ORIENTED_EDGE ( 'NONE', *, *, #206, .F. ) ;
#177 = CARTESIAN_POINT ( 'NONE',  ( 0.07874000000000001831, 9.642868896486260050E-18, 1.953504000000000129 ) ) ;
#178 = EDGE_LOOP ( 'NONE', ( #220, #130 ) ) ;
#179 = DIRECTION ( 'NONE',  ( -0.0000000000000000000, -0.0000000000000000000, -1.000000000000000000 ) ) ;
#180 =( NAMED_UNIT ( * ) SI_UNIT ( $, .STERADIAN. ) SOLID_ANGLE_UNIT ( ) );
#181 = ORIENTED_EDGE ( 'NONE', *, *, #195, .T. ) ;
#182 = EDGE_CURVE ( 'NONE', #216, #218, #219, .T. ) ;
#183 = EDGE_CURVE ( 'NONE', #200, #218, #129, .T. ) ;
#184 = SURFACE_SIDE_STYLE ('',( #21 ) ) ;
#185 = MECHANICAL_DESIGN_GEOMETRIC_PRESENTATION_REPRESENTATION (  '', ( #3 ), #284 ) ;
#186 = DIRECTION ( 'NONE',  ( -1.224646799147353207E-16, -0.0000000000000000000, -1.000000000000000000 ) ) ;
#187 = DIRECTION ( 'NONE',  ( -0.0000000000000000000, -0.0000000000000000000, -1.000000000000000000 ) ) ;
#188 = UNCERTAINTY_MEASURE_WITH_UNIT (LENGTH_MEASURE( 1.000000000000000082E-05 ), #155, 'distance_accuracy_value', 'NONE');
#189 = DIRECTION ( 'NONE',  ( 1.000000000000000000, 0.0000000000000000000, 0.0000000000000000000 ) ) ;
#190 = CARTESIAN_POINT ( 'NONE',  ( 0.0000000000000000000, 0.0000000000000000000, 1.968503999999999809 ) ) ;
#191 = DIRECTION ( 'NONE',  ( -1.000000000000000000, 0.0000000000000000000, 0.0000000000000000000 ) ) ;
#192 = DIRECTION ( 'NONE',  ( 1.000000000000000000, 0.0000000000000000000, 0.0000000000000000000 ) ) ;
#193 = ADVANCED_FACE ( 'NONE', ( #172 ), #158, .T. ) ;
#194 = DIRECTION ( 'NONE',  ( 0.0000000000000000000, 0.0000000000000000000, 1.000000000000000000 ) ) ;
#195 = EDGE_CURVE ( 'NONE', #268, #86, #264, .T. ) ;
#196 = DIRECTION ( 'NONE',  ( 0.7071067811865507924, 8.659560562354973534E-17, -0.7071067811865443531 ) ) ;
#197 = ORIENTED_EDGE ( 'NONE', *, *, #118, .T. ) ;
#198 = EDGE_CURVE ( 'NONE', #65, #173, #73, .T. ) ;
#199 = FACE_OUTER_BOUND ( 'NONE', #63, .T. ) ;
#200 = VERTEX_POINT ( 'NONE', #242 ) ;
#201 = EDGE_LOOP ( 'NONE', ( #131, #181, #112, #151 ) ) ;
#202 =( NAMED_UNIT ( * ) PLANE_ANGLE_UNIT ( ) SI_UNIT ( $, .RADIAN. ) );
#203 = ORIENTED_EDGE ( 'NONE', *, *, #75, .F. ) ;
#204 = AXIS2_PLACEMENT_3D ( 'NONE', #121, #32, #142 ) ;
#205 =( CONVERSION_BASED_UNIT ( 'INCH', #72 ) LENGTH_UNIT ( ) NAMED_UNIT ( #285 ) );
#206 = EDGE_CURVE ( 'NONE', #22, #38, #168, .T. ) ;
#207 = CIRCLE ( 'NONE', #80, 0.07874000000000001831 ) ;
#208 = DIRECTION ( 'NONE',  ( -1.000000000000000000, 0.0000000000000000000, 0.0000000000000000000 ) ) ;
#209 = DIRECTION ( 'NONE',  ( -1.224646799147353207E-16, -0.0000000000000000000, -1.000000000000000000 ) ) ;
#210 = ADVANCED_BREP_SHAPE_REPRESENTATION ( 'Micro_AMRM-015-2', ( #150, #277 ), #87 ) ;
#211 = DIRECTION ( 'NONE',  ( 1.000000000000000000, 0.0000000000000000000, 0.0000000000000000000 ) ) ;
#212 = CARTESIAN_POINT ( 'NONE',  ( 2.025002468262114287E-17, 0.0000000000000000000, 0.1653539999999999732 ) ) ;
#213 = PLANE ( 'NONE',  #236 ) ;
#214 = FACE_OUTER_BOUND ( 'NONE', #40, .T. ) ;
#215 = DIRECTION ( 'NONE',  ( -1.000000000000000000, 0.0000000000000000000, 1.224646799147352961E-16 ) ) ;
#216 = VERTEX_POINT ( 'NONE', #81 ) ;
#217 = DIRECTION ( 'NONE',  ( 1.000000000000000000, 0.0000000000000000000, 0.0000000000000000000 ) ) ;
#218 = VERTEX_POINT ( 'NONE', #102 ) ;
#219 = CIRCLE ( 'NONE', #98, 0.07874000000000001831 ) ;
#220 = ORIENTED_EDGE ( 'NONE', *, *, #206, .T. ) ;
#221 = DIRECTION ( 'NONE',  ( -1.000000000000000000, 0.0000000000000000000, 0.0000000000000000000 ) ) ;
#222 =( CONVERSION_BASED_UNIT ( 'INCH', #225 ) LENGTH_UNIT ( ) NAMED_UNIT ( #296 ) );
#223 = EDGE_CURVE ( 'NONE', #38, #22, #272, .T. ) ;
#224 = ORIENTED_EDGE ( 'NONE', *, *, #23, .T. ) ;
#225 = LENGTH_MEASURE_WITH_UNIT ( LENGTH_MEASURE( 0.02539999999999999897 ), #113 );
#226 = DIRECTION ( 'NONE',  ( 1.000000000000000000, 0.0000000000000000000, 0.0000000000000000000 ) ) ;
#227 = PRODUCT ( 'Micro_AMRM-015-2', 'Micro_AMRM-015-2', '', ( #156 ) ) ;
#228 = DIRECTION ( 'NONE',  ( -1.224646799147353207E-16, -0.0000000000000000000, -1.000000000000000000 ) ) ;
#229 = SURFACE_STYLE_FILL_AREA ( #276 ) ;
#230 = DIRECTION ( 'NONE',  ( -1.000000000000000000, 0.0000000000000000000, 0.0000000000000000000 ) ) ;
#231 = AXIS2_PLACEMENT_3D ( 'NONE', #250, #282, #189 ) ;
#232 = CONICAL_SURFACE ( 'NONE', #174, 0.02949797249999999704, 0.1745329251994338360 ) ;
#233 = ADVANCED_FACE ( 'NONE', ( #122 ), #213, .F. ) ;
#234 = CARTESIAN_POINT ( 'NONE',  ( 5.445017438126882659E-17, 0.0000000000000000000, 0.4446194153218638867 ) ) ;
#235 = DIRECTION ( 'NONE',  ( -0.0000000000000000000, -0.0000000000000000000, -1.000000000000000000 ) ) ;
#236 = AXIS2_PLACEMENT_3D ( 'NONE', #175, #13, #260 ) ;
#237 = DIRECTION ( 'NONE',  ( -0.0000000000000000000, -0.0000000000000000000, -1.000000000000000000 ) ) ;
#238 = ORIENTED_EDGE ( 'NONE', *, *, #198, .T. ) ;
#239 = DIRECTION ( 'NONE',  ( -1.224646799147353207E-16, -0.0000000000000000000, -1.000000000000000000 ) ) ;
#240 = ADVANCED_FACE ( 'NONE', ( #214 ), #140, .T. ) ;
#241 = ORIENTED_EDGE ( 'NONE', *, *, #294, .F. ) ;
#242 = CARTESIAN_POINT ( 'NONE',  ( -0.02949797249999997623, 6.627664328416212832E-18, 0.1653539999999999732 ) ) ;
#243 = LINE ( 'NONE', #295, #148 ) ;
#244 = CARTESIAN_POINT ( 'NONE',  ( 2.025002468262114287E-17, 0.0000000000000000000, 0.1653539999999999732 ) ) ;
#245 = ORIENTED_EDGE ( 'NONE', *, *, #183, .T. ) ;
#246 = EDGE_CURVE ( 'NONE', #38, #173, #9, .T. ) ;
#247 = AXIS2_PLACEMENT_3D ( 'NONE', #166, #68, #53 ) ;
#248 = PRODUCT_RELATED_PRODUCT_CATEGORY ( 'part', '', ( #227 ) ) ;
#249 = PRODUCT_DEFINITION_SHAPE ( 'NONE', 'NONE',  #164 ) ;
#250 = CARTESIAN_POINT ( 'NONE',  ( 0.0000000000000000000, 0.0000000000000000000, 1.953504000000000129 ) ) ;
#251 = AXIS2_PLACEMENT_3D ( 'NONE', #99, #36, #217 ) ;
#252 =( LENGTH_UNIT ( ) NAMED_UNIT ( * ) SI_UNIT ( $, .METRE. ) );
#253 = CYLINDRICAL_SURFACE ( 'NONE', #159, 0.07874000000000001831 ) ;
#254 = EDGE_CURVE ( 'NONE', #173, #216, #143, .T. ) ;
#255 = CARTESIAN_POINT ( 'NONE',  ( 2.025002468262114287E-17, 0.0000000000000000000, 0.1653539999999999732 ) ) ;
#256 = DIRECTION ( 'NONE',  ( -1.000000000000000000, 0.0000000000000000000, 1.224646799147352961E-16 ) ) ;
#257 = VECTOR ( 'NONE', #196, 39.37007874015748143 ) ;
#258 = ADVANCED_FACE ( 'NONE', ( #12 ), #15, .T. ) ;
#259 = DIRECTION ( 'NONE',  ( 1.000000000000000000, 0.0000000000000000000, 0.0000000000000000000 ) ) ;
#260 = DIRECTION ( 'NONE',  ( 1.000000000000000000, 0.0000000000000000000, -0.0000000000000000000 ) ) ;
#261 = DIRECTION ( 'NONE',  ( 0.0000000000000000000, 0.0000000000000000000, -1.000000000000000000 ) ) ;
#262 = ORIENTED_EDGE ( 'NONE', *, *, #223, .F. ) ;
#263 = ORIENTED_EDGE ( 'NONE', *, *, #1, .F. ) ;
#264 = LINE ( 'NONE', #58, #92 ) ;
#265 = ORIENTED_EDGE ( 'NONE', *, *, #51, .F. ) ;
#266 = VERTEX_POINT ( 'NONE', #170 ) ;
#267 = COLOUR_RGB ( '',0.7921568627450980005, 0.8196078431372548767, 0.9333333333333333481 ) ;
#268 = VERTEX_POINT ( 'NONE', #76 ) ;
#269 = APPLICATION_PROTOCOL_DEFINITION ( 'draft international standard', 'automotive_design', 1998, #77 ) ;
#270 = UNCERTAINTY_MEASURE_WITH_UNIT (LENGTH_MEASURE( 1.000000000000000082E-05 ), #205, 'distance_accuracy_value', 'NONE');
#271 = CIRCLE ( 'NONE', #41, 0.02949797250000000398 ) ;
#272 = CIRCLE ( 'NONE', #204, 0.06374000000000018540 ) ;
#273 = SURFACE_STYLE_USAGE ( .BOTH. , #184 ) ;
#274 = COLOUR_RGB ( '',0.7921568627450980005, 0.8196078431372548767, 0.9333333333333333481 ) ;
#275 = CARTESIAN_POINT ( 'NONE',  ( -0.07874000000000001831, 0.0000000000000000000, 1.953504000000000129 ) ) ;
#276 = FILL_AREA_STYLE ('',( #114 ) ) ;
#277 = AXIS2_PLACEMENT_3D ( 'NONE', #299, #90, #226 ) ;
#278 = CARTESIAN_POINT ( 'NONE',  ( 2.025002468262114287E-17, 0.0000000000000000000, 0.1653539999999999732 ) ) ;
#279 = LINE ( 'NONE', #161, #105 ) ;
#280 = CLOSED_SHELL ( 'NONE', ( #167, #116, #193, #25, #281, #258, #45, #240, #127, #233 ) ) ;
#281 = ADVANCED_FACE ( 'NONE', ( #199 ), #171, .T. ) ;
#282 = DIRECTION ( 'NONE',  ( 0.0000000000000000000, 0.0000000000000000000, -1.000000000000000000 ) ) ;
#283 = CARTESIAN_POINT ( 'NONE',  ( 0.06374000000000018540, 7.805898697765251255E-18, 1.968503999999999809 ) ) ;
#284 =( GEOMETRIC_REPRESENTATION_CONTEXT ( 3 ) GLOBAL_UNCERTAINTY_ASSIGNED_CONTEXT ( ( #39 ) ) GLOBAL_UNIT_ASSIGNED_CONTEXT ( ( #222, #18, #180 ) ) REPRESENTATION_CONTEXT ( 'NONE', 'WORKASPACE' ) );
#285 = DIMENSIONAL_EXPONENTS ( 1.000000000000000000, 0.0000000000000000000, 0.0000000000000000000, 0.0000000000000000000, 0.0000000000000000000, 0.0000000000000000000, 0.0000000000000000000 ) ;
#286 = CARTESIAN_POINT ( 'NONE',  ( 0.0000000000000000000, 0.0000000000000000000, 1.968503999999999809 ) ) ;
#287 = CARTESIAN_POINT ( 'NONE',  ( 0.0000000000000000000, 0.0000000000000000000, 1.968503999999999809 ) ) ;
#288 = ORIENTED_EDGE ( 'NONE', *, *, #23, .F. ) ;
#289 = CIRCLE ( 'NONE', #291, 0.02949797249999999704 ) ;
#290 = ORIENTED_EDGE ( 'NONE', *, *, #37, .T. ) ;
#291 = AXIS2_PLACEMENT_3D ( 'NONE', #244, #42, #221 ) ;
#292 = ORIENTED_EDGE ( 'NONE', *, *, #1, .T. ) ;
#293 = FILL_AREA_STYLE ('',( #89 ) ) ;
#294 = EDGE_CURVE ( 'NONE', #268, #216, #33, .T. ) ;
#295 = CARTESIAN_POINT ( 'NONE',  ( -0.07874000000000001831, 0.0000000000000000000, 1.968503999999999809 ) ) ;
#296 = DIMENSIONAL_EXPONENTS ( 1.000000000000000000, 0.0000000000000000000, 0.0000000000000000000, 0.0000000000000000000, 0.0000000000000000000, 0.0000000000000000000, 0.0000000000000000000 ) ;
#297 = EDGE_LOOP ( 'NONE', ( #203, #245, #61, #241 ) ) ;
#298 =( GEOMETRIC_REPRESENTATION_CONTEXT ( 3 ) GLOBAL_UNCERTAINTY_ASSIGNED_CONTEXT ( ( #270 ) ) GLOBAL_UNIT_ASSIGNED_CONTEXT ( ( #205, #120, #96 ) ) REPRESENTATION_CONTEXT ( 'NONE', 'WORKASPACE' ) );
#299 = CARTESIAN_POINT ( 'NONE',  ( 0.0000000000000000000, 0.0000000000000000000, 0.0000000000000000000 ) ) ;
ENDSEC;
END-ISO-10303-21;
