ISO-10303-21;
HEADER;
FILE_DESCRIPTION (( 'STEP AP214' ),
    '1' );
FILE_NAME ('44247W.STEP',
    '2023-06-22T19:48:05',
    ( '' ),
    ( '' ),
    'SwSTEP 2.0',
    'SolidWorks 2023',
    '' );
FILE_SCHEMA (( 'AUTOMOTIVE_DESIGN' ));
ENDSEC;

DATA;
#1 = FILL_AREA_STYLE ('',( #148 ) ) ;
#2 = FILL_AREA_STYLE ('',( #253 ) ) ;
#3 = CIRCLE ( 'NONE', #282, 0.1875000000000000278 ) ;
#4 = DIRECTION ( 'NONE',  ( -3.061616997868380553E-17, 1.000000000000000000, -0.000000000000000000 ) ) ;
#5 = PRODUCT_DEFINITION_FORMATION_WITH_SPECIFIED_SOURCE ( 'ANY', '', #217, .NOT_KNOWN. ) ;
#6 = LENGTH_MEASURE_WITH_UNIT ( LENGTH_MEASURE( 0.02539999999999999897 ), #230 );
#7 = SURFACE_STYLE_USAGE ( .BOTH. , #187 ) ;
#8 =( CONVERSION_BASED_UNIT ( 'INCH', #98 ) LENGTH_UNIT ( ) NAMED_UNIT ( #171 ) );
#9 = SURFACE_STYLE_FILL_AREA ( #106 ) ;
#10 = AXIS2_PLACEMENT_3D ( 'NONE', #244, #198, #247 ) ;
#11 = EDGE_CURVE ( 'NONE', #153, #223, #296, .T. ) ;
#12 = DIRECTION ( 'NONE',  ( -3.061616997868380553E-17, 1.000000000000000000, -0.000000000000000000 ) ) ;
#13 = CARTESIAN_POINT ( 'NONE',  ( -6.123233995736759873E-17, 3.500000000000000000, 0.000000000000000000 ) ) ;
#14 = VERTEX_POINT ( 'NONE', #303 ) ;
#15 =( CONVERSION_BASED_UNIT ( 'INCH', #278 ) LENGTH_UNIT ( ) NAMED_UNIT ( #138 ) );
#16 = AXIS2_PLACEMENT_3D ( 'NONE', #182, #130, #236 ) ;
#17 = FILL_AREA_STYLE ('',( #63 ) ) ;
#18 = DIRECTION ( 'NONE',  ( -0.000000000000000000, -1.000000000000000000, -0.000000000000000000 ) ) ;
#19 = CYLINDRICAL_SURFACE ( 'NONE', #40, 0.1875000000000000555 ) ;
#20 =( NAMED_UNIT ( * ) PLANE_ANGLE_UNIT ( ) SI_UNIT ( $, .RADIAN. ) );
#21 = PRESENTATION_STYLE_ASSIGNMENT (( #123 ) ) ;
#22 = AXIS2_PLACEMENT_3D ( 'NONE', #255, #264, #183 ) ;
#23 = CARTESIAN_POINT ( 'NONE',  ( -6.123233995736759873E-17, 3.500000000000000000, 0.000000000000000000 ) ) ;
#24 = CARTESIAN_POINT ( 'NONE',  ( 0.000000000000000000, 0.000000000000000000, -0.1875000000000000278 ) ) ;
#25 =( GEOMETRIC_REPRESENTATION_CONTEXT ( 3 ) GLOBAL_UNCERTAINTY_ASSIGNED_CONTEXT ( ( #101 ) ) GLOBAL_UNIT_ASSIGNED_CONTEXT ( ( #15, #267, #263 ) ) REPRESENTATION_CONTEXT ( 'NONE', 'WORKASPACE' ) );
#26 = CARTESIAN_POINT ( 'NONE',  ( 0.1875000000000000555, 3.500000000000000000, 0.000000000000000000 ) ) ;
#27 = CLOSED_SHELL ( 'NONE', ( #113, #195, #93, #129 ) ) ;
#28 = PRESENTATION_STYLE_ASSIGNMENT (( #276 ) ) ;
#29 = LINE ( 'NONE', #233, #257 ) ;
#30 = AXIS2_PLACEMENT_3D ( 'NONE', #216, #184, #62 ) ;
#31 = UNCERTAINTY_MEASURE_WITH_UNIT (LENGTH_MEASURE( 1.000000000000000082E-05 ), #301, 'distance_accuracy_value', 'NONE');
#32 = PRODUCT_RELATED_PRODUCT_CATEGORY ( 'part', '', ( #217 ) ) ;
#33 = MECHANICAL_DESIGN_GEOMETRIC_PRESENTATION_REPRESENTATION (  '', ( #97 ), #158 ) ;
#34 =( NAMED_UNIT ( * ) SI_UNIT ( $, .STERADIAN. ) SOLID_ANGLE_UNIT ( ) );
#35 =( NAMED_UNIT ( * ) PLANE_ANGLE_UNIT ( ) SI_UNIT ( $, .RADIAN. ) );
#36 = CARTESIAN_POINT ( 'NONE',  ( 0.1875000000000000555, 3.500000000000000000, 2.296212748401288342E-17 ) ) ;
#37 = PRESENTATION_LAYER_ASSIGNMENT (  '', '', ( #43 ) ) ;
#38 = CARTESIAN_POINT ( 'NONE',  ( 0.000000000000000000, 1.500000000000000222, 0.000000000000000000 ) ) ;
#39 = EDGE_CURVE ( 'NONE', #46, #223, #290, .T. ) ;
#40 = AXIS2_PLACEMENT_3D ( 'NONE', #173, #75, #144 ) ;
#41 = CARTESIAN_POINT ( 'NONE',  ( 0.000000000000000000, 1.500000000000000222, 0.000000000000000000 ) ) ;
#42 = VECTOR ( 'NONE', #12, 39.37007874015748143 ) ;
#43 = STYLED_ITEM ( 'NONE', ( #160 ), #266 ) ;
#44 = CARTESIAN_POINT ( 'NONE',  ( 0.000000000000000000, 0.000000000000000000, 0.000000000000000000 ) ) ;
#45 = EDGE_LOOP ( 'NONE', ( #87, #174, #70, #157 ) ) ;
#46 = VERTEX_POINT ( 'NONE', #291 ) ;
#47 = LINE ( 'NONE', #71, #152 ) ;
#48 = SHAPE_DEFINITION_REPRESENTATION ( #256, #232 ) ;
#49 =( NAMED_UNIT ( * ) PLANE_ANGLE_UNIT ( ) SI_UNIT ( $, .RADIAN. ) );
#50 = STYLED_ITEM ( 'NONE', ( #21 ), #93 ) ;
#51 = FACE_OUTER_BOUND ( 'NONE', #100, .T. ) ;
#52 = FACE_OUTER_BOUND ( 'NONE', #45, .T. ) ;
#53 = CYLINDRICAL_SURFACE ( 'NONE', #128, 0.1875000000000000833 ) ;
#54 = EDGE_CURVE ( 'NONE', #212, #169, #47, .T. ) ;
#55 = CIRCLE ( 'NONE', #30, 0.1875000000000000555 ) ;
#56 =( CONVERSION_BASED_UNIT ( 'INCH', #206 ) LENGTH_UNIT ( ) NAMED_UNIT ( #135 ) );
#57 = APPLICATION_CONTEXT ( 'automotive_design' ) ;
#58 = CIRCLE ( 'NONE', #67, 0.1875000000000000555 ) ;
#59 = DIRECTION ( 'NONE',  ( -0.000000000000000000, -1.000000000000000000, -0.000000000000000000 ) ) ;
#60 = PRODUCT_CONTEXT ( 'NONE', #57, 'mechanical' ) ;
#61 = PRESENTATION_STYLE_ASSIGNMENT (( #7 ) ) ;
#62 = DIRECTION ( 'NONE',  ( 0.000000000000000000, 0.000000000000000000, -1.000000000000000000 ) ) ;
#63 = FILL_AREA_STYLE_COLOUR ( '', #141 ) ;
#64 = EDGE_CURVE ( 'NONE', #14, #212, #234, .T. ) ;
#65 = AXIS2_PLACEMENT_3D ( 'NONE', #26, #78, #207 ) ;
#66 = FILL_AREA_STYLE ('',( #287 ) ) ;
#67 = AXIS2_PLACEMENT_3D ( 'NONE', #41, #4, #208 ) ;
#68 = PLANE ( 'NONE',  #92 ) ;
#69 = ORIENTED_EDGE ( 'NONE', *, *, #165, .T. ) ;
#70 = ORIENTED_EDGE ( 'NONE', *, *, #39, .T. ) ;
#71 = CARTESIAN_POINT ( 'NONE',  ( 0.000000000000000000, 0.000000000000000000, -0.1875000000000000555 ) ) ;
#72 = ORIENTED_EDGE ( 'NONE', *, *, #277, .F. ) ;
#73 = MECHANICAL_DESIGN_GEOMETRIC_PRESENTATION_REPRESENTATION (  '', ( #146 ), #125 ) ;
#74 = ADVANCED_FACE ( 'NONE', ( #220 ), #68, .F. ) ;
#75 = DIRECTION ( 'NONE',  ( -0.000000000000000000, -1.000000000000000000, -0.000000000000000000 ) ) ;
#76 = DIRECTION ( 'NONE',  ( -0.000000000000000000, -1.000000000000000000, -0.000000000000000000 ) ) ;
#77 = ORIENTED_EDGE ( 'NONE', *, *, #107, .T. ) ;
#78 = DIRECTION ( 'NONE',  ( 3.061616997868380553E-17, -1.000000000000000000, 0.000000000000000000 ) ) ;
#79 = FILL_AREA_STYLE_COLOUR ( '', #185 ) ;
#80 = VERTEX_POINT ( 'NONE', #222 ) ;
#81 = SURFACE_STYLE_USAGE ( .BOTH. , #259 ) ;
#82 = SURFACE_SIDE_STYLE ('',( #88 ) ) ;
#83 = APPLICATION_PROTOCOL_DEFINITION ( 'draft international standard', 'automotive_design', 1998, #57 ) ;
#84 = DIRECTION ( 'NONE',  ( 0.000000000000000000, -0.000000000000000000, 1.000000000000000000 ) ) ;
#85 = CARTESIAN_POINT ( 'NONE',  ( -0.1875000000000001388, 3.500000000000000000, 0.000000000000000000 ) ) ;
#86 = DIRECTION ( 'NONE',  ( -1.000000000000000000, 0.000000000000000000, 0.000000000000000000 ) ) ;
#87 = ORIENTED_EDGE ( 'NONE', *, *, #227, .F. ) ;
#88 = SURFACE_STYLE_FILL_AREA ( #17 ) ;
#89 = LENGTH_MEASURE_WITH_UNIT ( LENGTH_MEASURE( 0.02539999999999999897 ), #104 );
#90 = ADVANCED_FACE ( 'NONE', ( #167 ), #139, .T. ) ;
#91 = ORIENTED_EDGE ( 'NONE', *, *, #228, .F. ) ;
#92 = AXIS2_PLACEMENT_3D ( 'NONE', #118, #170, #197 ) ;
#93 = ADVANCED_FACE ( 'NONE', ( #241 ), #19, .T. ) ;
#94 = FACE_OUTER_BOUND ( 'NONE', #224, .T. ) ;
#95 = ADVANCED_FACE ( 'NONE', ( #52 ), #53, .T. ) ;
#96 = SURFACE_SIDE_STYLE ('',( #268 ) ) ;
#97 = STYLED_ITEM ( 'NONE', ( #279 ), #129 ) ;
#98 = LENGTH_MEASURE_WITH_UNIT ( LENGTH_MEASURE( 0.02539999999999999897 ), #154 );
#99 = AXIS2_PLACEMENT_3D ( 'NONE', #38, #109, #84 ) ;
#100 = EDGE_LOOP ( 'NONE', ( #120, #178 ) ) ;
#101 = UNCERTAINTY_MEASURE_WITH_UNIT (LENGTH_MEASURE( 1.000000000000000082E-05 ), #15, 'distance_accuracy_value', 'NONE');
#102 = PRESENTATION_LAYER_ASSIGNMENT (  '', '', ( #50 ) ) ;
#103 =( GEOMETRIC_REPRESENTATION_CONTEXT ( 3 ) GLOBAL_UNCERTAINTY_ASSIGNED_CONTEXT ( ( #31 ) ) GLOBAL_UNIT_ASSIGNED_CONTEXT ( ( #301, #297, #188 ) ) REPRESENTATION_CONTEXT ( 'NONE', 'WORKASPACE' ) );
#104 =( LENGTH_UNIT ( ) NAMED_UNIT ( * ) SI_UNIT ( $, .METRE. ) );
#105 = PRODUCT_DEFINITION_CONTEXT ( 'detailed design', #309, 'design' ) ;
#106 = FILL_AREA_STYLE ('',( #79 ) ) ;
#107 = EDGE_CURVE ( 'NONE', #169, #176, #3, .T. ) ;
#108 = UNCERTAINTY_MEASURE_WITH_UNIT (LENGTH_MEASURE( 1.000000000000000082E-05 ), #214, 'distance_accuracy_value', 'NONE');
#109 = DIRECTION ( 'NONE',  ( 0.000000000000000000, 1.000000000000000000, 0.000000000000000000 ) ) ;
#110 = CIRCLE ( 'NONE', #111, 0.1875000000000001110 ) ;
#111 = AXIS2_PLACEMENT_3D ( 'NONE', #231, #289, #190 ) ;
#112 = DIRECTION ( 'NONE',  ( -1.000000000000000000, 0.000000000000000000, 0.000000000000000000 ) ) ;
#113 = ADVANCED_FACE ( 'NONE', ( #94 ), #226, .T. ) ;
#114 = CLOSED_SHELL ( 'NONE', ( #90, #74, #95, #172 ) ) ;
#115 = PRESENTATION_LAYER_ASSIGNMENT (  '', '', ( #180 ) ) ;
#116 = DIRECTION ( 'NONE',  ( 0.000000000000000000, 0.000000000000000000, 1.000000000000000000 ) ) ;
#117 = ORIENTED_EDGE ( 'NONE', *, *, #246, .F. ) ;
#118 = CARTESIAN_POINT ( 'NONE',  ( 8.787654976534311230E-35, 1.500000000000000222, 0.000000000000000000 ) ) ;
#119 = CIRCLE ( 'NONE', #22, 0.1875000000000000555 ) ;
#120 = ORIENTED_EDGE ( 'NONE', *, *, #246, .T. ) ;
#121 = DIRECTION ( 'NONE',  ( -1.000000000000000000, 0.000000000000000000, 0.000000000000000000 ) ) ;
#122 = ORIENTED_EDGE ( 'NONE', *, *, #165, .F. ) ;
#123 = SURFACE_STYLE_USAGE ( .BOTH. , #96 ) ;
#124 = PLANE ( 'NONE',  #65 ) ;
#125 =( GEOMETRIC_REPRESENTATION_CONTEXT ( 3 ) GLOBAL_UNCERTAINTY_ASSIGNED_CONTEXT ( ( #199 ) ) GLOBAL_UNIT_ASSIGNED_CONTEXT ( ( #8, #258, #159 ) ) REPRESENTATION_CONTEXT ( 'NONE', 'WORKASPACE' ) );
#126 = SURFACE_STYLE_FILL_AREA ( #1 ) ;
#127 = DIRECTION ( 'NONE',  ( 0.000000000000000000, 0.000000000000000000, -1.000000000000000000 ) ) ;
#128 = AXIS2_PLACEMENT_3D ( 'NONE', #23, #149, #121 ) ;
#129 = ADVANCED_FACE ( 'NONE', ( #131 ), #213, .T. ) ;
#130 = DIRECTION ( 'NONE',  ( 0.000000000000000000, -1.000000000000000000, -0.000000000000000000 ) ) ;
#131 = FACE_OUTER_BOUND ( 'NONE', #292, .T. ) ;
#132 =( GEOMETRIC_REPRESENTATION_CONTEXT ( 3 ) GLOBAL_UNCERTAINTY_ASSIGNED_CONTEXT ( ( #108 ) ) GLOBAL_UNIT_ASSIGNED_CONTEXT ( ( #214, #35, #302 ) ) REPRESENTATION_CONTEXT ( 'NONE', 'WORKASPACE' ) );
#133 = COLOUR_RGB ( '',1.000000000000000000, 0.000000000000000000, 0.000000000000000000 ) ;
#134 = LENGTH_MEASURE_WITH_UNIT ( LENGTH_MEASURE( 0.02539999999999999897 ), #288 );
#135 = DIMENSIONAL_EXPONENTS ( 1.000000000000000000, 0.000000000000000000, 0.000000000000000000, 0.000000000000000000, 0.000000000000000000, 0.000000000000000000, 0.000000000000000000 ) ;
#136 = ORIENTED_EDGE ( 'NONE', *, *, #277, .T. ) ;
#137 = DIRECTION ( 'NONE',  ( -0.000000000000000000, -1.000000000000000000, -0.000000000000000000 ) ) ;
#138 = DIMENSIONAL_EXPONENTS ( 1.000000000000000000, 0.000000000000000000, 0.000000000000000000, 0.000000000000000000, 0.000000000000000000, 0.000000000000000000, 0.000000000000000000 ) ;
#139 = CYLINDRICAL_SURFACE ( 'NONE', #200, 0.1875000000000000833 ) ;
#140 = EDGE_LOOP ( 'NONE', ( #122, #168, #240, #179 ) ) ;
#141 = COLOUR_RGB ( '',0.7921568627450980005, 0.8196078431372548767, 0.9333333333333333481 ) ;
#142 = UNCERTAINTY_MEASURE_WITH_UNIT (LENGTH_MEASURE( 1.000000000000000082E-05 ), #237, 'distance_accuracy_value', 'NONE');
#143 = ORIENTED_EDGE ( 'NONE', *, *, #151, .F. ) ;
#144 = DIRECTION ( 'NONE',  ( 0.000000000000000000, 0.000000000000000000, -1.000000000000000000 ) ) ;
#145 = ORIENTED_EDGE ( 'NONE', *, *, #248, .T. ) ;
#146 = STYLED_ITEM ( 'NONE', ( #294 ), #195 ) ;
#147 = PRODUCT_DEFINITION ( 'UNKNOWN', '', #5, #105 ) ;
#148 = FILL_AREA_STYLE_COLOUR ( '', #251 ) ;
#149 = DIRECTION ( 'NONE',  ( -3.061616997868380553E-17, 1.000000000000000000, -0.000000000000000000 ) ) ;
#150 = SURFACE_SIDE_STYLE ('',( #205 ) ) ;
#151 = EDGE_CURVE ( 'NONE', #46, #80, #119, .T. ) ;
#152 = VECTOR ( 'NONE', #18, 39.37007874015748143 ) ;
#153 = VERTEX_POINT ( 'NONE', #36 ) ;
#154 =( LENGTH_UNIT ( ) NAMED_UNIT ( * ) SI_UNIT ( $, .METRE. ) );
#155 =( LENGTH_UNIT ( ) NAMED_UNIT ( * ) SI_UNIT ( $, .METRE. ) );
#156 = LENGTH_MEASURE_WITH_UNIT ( LENGTH_MEASURE( 0.02539999999999999897 ), #155 );
#157 = ORIENTED_EDGE ( 'NONE', *, *, #11, .F. ) ;
#158 =( GEOMETRIC_REPRESENTATION_CONTEXT ( 3 ) GLOBAL_UNCERTAINTY_ASSIGNED_CONTEXT ( ( #142 ) ) GLOBAL_UNIT_ASSIGNED_CONTEXT ( ( #237, #280, #34 ) ) REPRESENTATION_CONTEXT ( 'NONE', 'WORKASPACE' ) );
#159 =( NAMED_UNIT ( * ) SI_UNIT ( $, .STERADIAN. ) SOLID_ANGLE_UNIT ( ) );
#160 = PRESENTATION_STYLE_ASSIGNMENT (( #196 ) ) ;
#161 = LINE ( 'NONE', #265, #42 ) ;
#162 = AXIS2_PLACEMENT_3D ( 'NONE', #261, #59, #127 ) ;
#163 = DIRECTION ( 'NONE',  ( -3.061616997868380553E-17, 1.000000000000000000, -0.000000000000000000 ) ) ;
#164 = DIMENSIONAL_EXPONENTS ( 1.000000000000000000, 0.000000000000000000, 0.000000000000000000, 0.000000000000000000, 0.000000000000000000, 0.000000000000000000, 0.000000000000000000 ) ;
#165 = EDGE_CURVE ( 'NONE', #14, #176, #29, .T. ) ;
#166 = MANIFOLD_SOLID_BREP ( 'Revolve - Tool Body (Straight Shanked)', #114 ) ;
#167 = FACE_OUTER_BOUND ( 'NONE', #273, .T. ) ;
#168 = ORIENTED_EDGE ( 'NONE', *, *, #64, .T. ) ;
#169 = VERTEX_POINT ( 'NONE', #24 ) ;
#170 = DIRECTION ( 'NONE',  ( -3.061616997868380553E-17, 1.000000000000000000, 0.000000000000000000 ) ) ;
#171 = DIMENSIONAL_EXPONENTS ( 1.000000000000000000, 0.000000000000000000, 0.000000000000000000, 0.000000000000000000, 0.000000000000000000, 0.000000000000000000, 0.000000000000000000 ) ;
#172 = ADVANCED_FACE ( 'NONE', ( #51 ), #124, .F. ) ;
#173 = CARTESIAN_POINT ( 'NONE',  ( 0.000000000000000000, 0.000000000000000000, 0.000000000000000000 ) ) ;
#174 = ORIENTED_EDGE ( 'NONE', *, *, #228, .T. ) ;
#175 = PRESENTATION_LAYER_ASSIGNMENT (  '', '', ( #97 ) ) ;
#176 = VERTEX_POINT ( 'NONE', #181 ) ;
#177 = DIRECTION ( 'NONE',  ( 0.000000000000000000, 0.000000000000000000, -1.000000000000000000 ) ) ;
#178 = ORIENTED_EDGE ( 'NONE', *, *, #11, .T. ) ;
#179 = ORIENTED_EDGE ( 'NONE', *, *, #248, .F. ) ;
#180 = STYLED_ITEM ( 'NONE', ( #28 ), #113 ) ;
#181 = CARTESIAN_POINT ( 'NONE',  ( 2.296212748401287726E-17, 0.000000000000000000, 0.1875000000000000278 ) ) ;
#182 = CARTESIAN_POINT ( 'NONE',  ( 0.000000000000000000, 0.000000000000000000, 0.000000000000000000 ) ) ;
#183 = DIRECTION ( 'NONE',  ( -1.000000000000000000, 0.000000000000000000, 0.000000000000000000 ) ) ;
#184 = DIRECTION ( 'NONE',  ( -0.000000000000000000, -1.000000000000000000, -0.000000000000000000 ) ) ;
#185 = COLOUR_RGB ( '',0.7921568627450980005, 0.8196078431372548767, 0.9333333333333333481 ) ;
#186 = SURFACE_STYLE_FILL_AREA ( #209 ) ;
#187 = SURFACE_SIDE_STYLE ('',( #9 ) ) ;
#188 =( NAMED_UNIT ( * ) SI_UNIT ( $, .STERADIAN. ) SOLID_ANGLE_UNIT ( ) );
#189 = AXIS2_PLACEMENT_3D ( 'NONE', #44, #116, #299 ) ;
#190 = DIRECTION ( 'NONE',  ( -1.000000000000000000, 0.000000000000000000, 0.000000000000000000 ) ) ;
#191 = APPLICATION_PROTOCOL_DEFINITION ( 'draft international standard', 'automotive_design', 1998, #309 ) ;
#192 = CARTESIAN_POINT ( 'NONE',  ( 0.000000000000000000, 1.500000000000000222, -0.1875000000000000555 ) ) ;
#193 = DIRECTION ( 'NONE',  ( -3.061616997868380553E-17, 1.000000000000000000, -0.000000000000000000 ) ) ;
#194 = MECHANICAL_DESIGN_GEOMETRIC_PRESENTATION_REPRESENTATION (  '', ( #50 ), #218 ) ;
#195 = ADVANCED_FACE ( 'NONE', ( #225 ), #275, .T. ) ;
#196 = SURFACE_STYLE_USAGE ( .BOTH. , #82 ) ;
#197 = DIRECTION ( 'NONE',  ( -1.000000000000000000, -3.061616997868380553E-17, 0.000000000000000000 ) ) ;
#198 = DIRECTION ( 'NONE',  ( -0.000000000000000000, -1.000000000000000000, -0.000000000000000000 ) ) ;
#199 = UNCERTAINTY_MEASURE_WITH_UNIT (LENGTH_MEASURE( 1.000000000000000082E-05 ), #8, 'distance_accuracy_value', 'NONE');
#200 = AXIS2_PLACEMENT_3D ( 'NONE', #13, #193, #112 ) ;
#201 = EDGE_LOOP ( 'NONE', ( #72, #242 ) ) ;
#202 = ORIENTED_EDGE ( 'NONE', *, *, #107, .F. ) ;
#203 = DIMENSIONAL_EXPONENTS ( 1.000000000000000000, 0.000000000000000000, 0.000000000000000000, 0.000000000000000000, 0.000000000000000000, 0.000000000000000000, 0.000000000000000000 ) ;
#204 =( NAMED_UNIT ( * ) SI_UNIT ( $, .STERADIAN. ) SOLID_ANGLE_UNIT ( ) );
#205 = SURFACE_STYLE_FILL_AREA ( #2 ) ;
#206 = LENGTH_MEASURE_WITH_UNIT ( LENGTH_MEASURE( 0.02539999999999999897 ), #215 );
#207 = DIRECTION ( 'NONE',  ( 1.000000000000000000, 3.061616997868380553E-17, 0.000000000000000000 ) ) ;
#208 = DIRECTION ( 'NONE',  ( -1.000000000000000000, 0.000000000000000000, 0.000000000000000000 ) ) ;
#209 = FILL_AREA_STYLE ('',( #239 ) ) ;
#210 = COLOUR_RGB ( '',1.000000000000000000, 0.000000000000000000, 0.000000000000000000 ) ;
#211 = STYLED_ITEM ( 'NONE', ( #61 ), #166 ) ;
#212 = VERTEX_POINT ( 'NONE', #192 ) ;
#213 = PLANE ( 'NONE',  #16 ) ;
#214 =( CONVERSION_BASED_UNIT ( 'INCH', #134 ) LENGTH_UNIT ( ) NAMED_UNIT ( #271 ) );
#215 =( LENGTH_UNIT ( ) NAMED_UNIT ( * ) SI_UNIT ( $, .METRE. ) );
#216 = CARTESIAN_POINT ( 'NONE',  ( 0.000000000000000000, 1.500000000000000222, 0.000000000000000000 ) ) ;
#217 = PRODUCT ( '44247W', '44247W', '', ( #60 ) ) ;
#218 =( GEOMETRIC_REPRESENTATION_CONTEXT ( 3 ) GLOBAL_UNCERTAINTY_ASSIGNED_CONTEXT ( ( #269 ) ) GLOBAL_UNIT_ASSIGNED_CONTEXT ( ( #56, #20, #249 ) ) REPRESENTATION_CONTEXT ( 'NONE', 'WORKASPACE' ) );
#219 = PRESENTATION_LAYER_ASSIGNMENT (  '', '', ( #146 ) ) ;
#220 = FACE_OUTER_BOUND ( 'NONE', #245, .T. ) ;
#221 = UNCERTAINTY_MEASURE_WITH_UNIT (LENGTH_MEASURE( 1.000000000000000082E-05 ), #293, 'distance_accuracy_value', 'NONE');
#222 = CARTESIAN_POINT ( 'NONE',  ( 0.1875000000000000555, 1.500000000000000222, 2.296212748401288342E-17 ) ) ;
#223 = VERTEX_POINT ( 'NONE', #286 ) ;
#224 = EDGE_LOOP ( 'NONE', ( #136, #69, #202, #308 ) ) ;
#225 = FACE_OUTER_BOUND ( 'NONE', #201, .T. ) ;
#226 = CYLINDRICAL_SURFACE ( 'NONE', #162, 0.1875000000000000555 ) ;
#227 = EDGE_CURVE ( 'NONE', #80, #153, #161, .T. ) ;
#228 = EDGE_CURVE ( 'NONE', #80, #46, #58, .T. ) ;
#229 = SURFACE_SIDE_STYLE ('',( #126 ) ) ;
#230 =( LENGTH_UNIT ( ) NAMED_UNIT ( * ) SI_UNIT ( $, .METRE. ) );
#231 = CARTESIAN_POINT ( 'NONE',  ( -6.123233995736759873E-17, 3.500000000000000000, 0.000000000000000000 ) ) ;
#232 = ADVANCED_BREP_SHAPE_REPRESENTATION ( '44247W', ( #266, #166, #189 ), #132 ) ;
#233 = CARTESIAN_POINT ( 'NONE',  ( 2.296212748401288034E-17, 0.000000000000000000, 0.1875000000000000555 ) ) ;
#234 = CIRCLE ( 'NONE', #10, 0.1875000000000000555 ) ;
#235 = PRESENTATION_LAYER_ASSIGNMENT (  '', '', ( #211 ) ) ;
#236 = DIRECTION ( 'NONE',  ( 0.000000000000000000, 0.000000000000000000, -1.000000000000000000 ) ) ;
#237 =( CONVERSION_BASED_UNIT ( 'INCH', #156 ) LENGTH_UNIT ( ) NAMED_UNIT ( #250 ) );
#238 = CARTESIAN_POINT ( 'NONE',  ( -6.123233995736759873E-17, 3.500000000000000000, 0.000000000000000000 ) ) ;
#239 = FILL_AREA_STYLE_COLOUR ( '', #133 ) ;
#240 = ORIENTED_EDGE ( 'NONE', *, *, #54, .T. ) ;
#241 = FACE_OUTER_BOUND ( 'NONE', #140, .T. ) ;
#242 = ORIENTED_EDGE ( 'NONE', *, *, #64, .F. ) ;
#243 = COLOUR_RGB ( '',1.000000000000000000, 0.000000000000000000, 0.000000000000000000 ) ;
#244 = CARTESIAN_POINT ( 'NONE',  ( 0.000000000000000000, 1.500000000000000222, 0.000000000000000000 ) ) ;
#245 = EDGE_LOOP ( 'NONE', ( #143, #91 ) ) ;
#246 = EDGE_CURVE ( 'NONE', #223, #153, #110, .T. ) ;
#247 = DIRECTION ( 'NONE',  ( 0.000000000000000000, 0.000000000000000000, -1.000000000000000000 ) ) ;
#248 = EDGE_CURVE ( 'NONE', #176, #169, #260, .T. ) ;
#249 =( NAMED_UNIT ( * ) SI_UNIT ( $, .STERADIAN. ) SOLID_ANGLE_UNIT ( ) );
#250 = DIMENSIONAL_EXPONENTS ( 1.000000000000000000, 0.000000000000000000, 0.000000000000000000, 0.000000000000000000, 0.000000000000000000, 0.000000000000000000, 0.000000000000000000 ) ;
#251 = COLOUR_RGB ( '',1.000000000000000000, 0.000000000000000000, 0.000000000000000000 ) ;
#252 = SURFACE_STYLE_USAGE ( .BOTH. , #229 ) ;
#253 = FILL_AREA_STYLE_COLOUR ( '', #243 ) ;
#254 = AXIS2_PLACEMENT_3D ( 'NONE', #238, #281, #86 ) ;
#255 = CARTESIAN_POINT ( 'NONE',  ( 0.000000000000000000, 1.500000000000000222, 0.000000000000000000 ) ) ;
#256 = PRODUCT_DEFINITION_SHAPE ( 'NONE', 'NONE',  #147 ) ;
#257 = VECTOR ( 'NONE', #298, 39.37007874015748143 ) ;
#258 =( NAMED_UNIT ( * ) PLANE_ANGLE_UNIT ( ) SI_UNIT ( $, .RADIAN. ) );
#259 = SURFACE_SIDE_STYLE ('',( #186 ) ) ;
#260 = CIRCLE ( 'NONE', #284, 0.1875000000000000278 ) ;
#261 = CARTESIAN_POINT ( 'NONE',  ( 0.000000000000000000, 0.000000000000000000, 0.000000000000000000 ) ) ;
#262 = MECHANICAL_DESIGN_GEOMETRIC_PRESENTATION_REPRESENTATION (  '', ( #43 ), #25 ) ;
#263 =( NAMED_UNIT ( * ) SI_UNIT ( $, .STERADIAN. ) SOLID_ANGLE_UNIT ( ) );
#264 = DIRECTION ( 'NONE',  ( -3.061616997868380553E-17, 1.000000000000000000, -0.000000000000000000 ) ) ;
#265 = CARTESIAN_POINT ( 'NONE',  ( 0.1875000000000000278, 3.500000000000000000, 2.296212748401288342E-17 ) ) ;
#266 = MANIFOLD_SOLID_BREP ( 'Revolve - Cutting Edge', #27 ) ;
#267 =( NAMED_UNIT ( * ) PLANE_ANGLE_UNIT ( ) SI_UNIT ( $, .RADIAN. ) );
#268 = SURFACE_STYLE_FILL_AREA ( #66 ) ;
#269 = UNCERTAINTY_MEASURE_WITH_UNIT (LENGTH_MEASURE( 1.000000000000000082E-05 ), #56, 'distance_accuracy_value', 'NONE');
#270 = ORIENTED_EDGE ( 'NONE', *, *, #227, .T. ) ;
#271 = DIMENSIONAL_EXPONENTS ( 1.000000000000000000, 0.000000000000000000, 0.000000000000000000, 0.000000000000000000, 0.000000000000000000, 0.000000000000000000, 0.000000000000000000 ) ;
#272 = MECHANICAL_DESIGN_GEOMETRIC_PRESENTATION_REPRESENTATION (  '', ( #211 ), #103 ) ;
#273 = EDGE_LOOP ( 'NONE', ( #306, #270, #117, #305 ) ) ;
#274 =( LENGTH_UNIT ( ) NAMED_UNIT ( * ) SI_UNIT ( $, .METRE. ) );
#275 = PLANE ( 'NONE',  #99 ) ;
#276 = SURFACE_STYLE_USAGE ( .BOTH. , #150 ) ;
#277 = EDGE_CURVE ( 'NONE', #212, #14, #55, .T. ) ;
#278 = LENGTH_MEASURE_WITH_UNIT ( LENGTH_MEASURE( 0.02539999999999999897 ), #274 );
#279 = PRESENTATION_STYLE_ASSIGNMENT (( #81 ) ) ;
#280 =( NAMED_UNIT ( * ) PLANE_ANGLE_UNIT ( ) SI_UNIT ( $, .RADIAN. ) );
#281 = DIRECTION ( 'NONE',  ( -3.061616997868380553E-17, 1.000000000000000000, -0.000000000000000000 ) ) ;
#282 = AXIS2_PLACEMENT_3D ( 'NONE', #295, #76, #177 ) ;
#283 = DIRECTION ( 'NONE',  ( 0.000000000000000000, 0.000000000000000000, -1.000000000000000000 ) ) ;
#284 = AXIS2_PLACEMENT_3D ( 'NONE', #300, #137, #283 ) ;
#285 = VECTOR ( 'NONE', #163, 39.37007874015748143 ) ;
#286 = CARTESIAN_POINT ( 'NONE',  ( -0.1875000000000001943, 3.500000000000000000, 0.000000000000000000 ) ) ;
#287 = FILL_AREA_STYLE_COLOUR ( '', #210 ) ;
#288 =( LENGTH_UNIT ( ) NAMED_UNIT ( * ) SI_UNIT ( $, .METRE. ) );
#289 = DIRECTION ( 'NONE',  ( -3.061616997868380553E-17, 1.000000000000000000, -0.000000000000000000 ) ) ;
#290 = LINE ( 'NONE', #85, #285 ) ;
#291 = CARTESIAN_POINT ( 'NONE',  ( -0.1875000000000000555, 1.500000000000000222, 0.000000000000000000 ) ) ;
#292 = EDGE_LOOP ( 'NONE', ( #77, #145 ) ) ;
#293 =( CONVERSION_BASED_UNIT ( 'INCH', #6 ) LENGTH_UNIT ( ) NAMED_UNIT ( #164 ) );
#294 = PRESENTATION_STYLE_ASSIGNMENT (( #252 ) ) ;
#295 = CARTESIAN_POINT ( 'NONE',  ( 0.000000000000000000, 0.000000000000000000, 0.000000000000000000 ) ) ;
#296 = CIRCLE ( 'NONE', #254, 0.1875000000000001110 ) ;
#297 =( NAMED_UNIT ( * ) PLANE_ANGLE_UNIT ( ) SI_UNIT ( $, .RADIAN. ) );
#298 = DIRECTION ( 'NONE',  ( -0.000000000000000000, -1.000000000000000000, -0.000000000000000000 ) ) ;
#299 = DIRECTION ( 'NONE',  ( 1.000000000000000000, 0.000000000000000000, 0.000000000000000000 ) ) ;
#300 = CARTESIAN_POINT ( 'NONE',  ( 0.000000000000000000, 0.000000000000000000, 0.000000000000000000 ) ) ;
#301 =( CONVERSION_BASED_UNIT ( 'INCH', #89 ) LENGTH_UNIT ( ) NAMED_UNIT ( #203 ) );
#302 =( NAMED_UNIT ( * ) SI_UNIT ( $, .STERADIAN. ) SOLID_ANGLE_UNIT ( ) );
#303 = CARTESIAN_POINT ( 'NONE',  ( 2.296212748401288034E-17, 1.500000000000000222, 0.1875000000000000555 ) ) ;
#304 = MECHANICAL_DESIGN_GEOMETRIC_PRESENTATION_REPRESENTATION (  '', ( #180 ), #307 ) ;
#305 = ORIENTED_EDGE ( 'NONE', *, *, #39, .F. ) ;
#306 = ORIENTED_EDGE ( 'NONE', *, *, #151, .T. ) ;
#307 =( GEOMETRIC_REPRESENTATION_CONTEXT ( 3 ) GLOBAL_UNCERTAINTY_ASSIGNED_CONTEXT ( ( #221 ) ) GLOBAL_UNIT_ASSIGNED_CONTEXT ( ( #293, #49, #204 ) ) REPRESENTATION_CONTEXT ( 'NONE', 'WORKASPACE' ) );
#308 = ORIENTED_EDGE ( 'NONE', *, *, #54, .F. ) ;
#309 = APPLICATION_CONTEXT ( 'automotive_design' ) ;
ENDSEC;
END-ISO-10303-21;
