ISO-10303-21;
HEADER;
FILE_DESCRIPTION (( 'STEP AP214' ),
    '1' );
FILE_NAME ('81717.STEP',
    '2023-06-23T03:07:45',
    ( '' ),
    ( '' ),
    'SwSTEP 2.0',
    'SolidWorks 2023',
    '' );
FILE_SCHEMA (( 'AUTOMOTIVE_DESIGN' ));
ENDSEC;

DATA;
#1 = FACE_OUTER_BOUND ( 'NONE', #219, .T. ) ;
#2 =( NAMED_UNIT ( * ) PLANE_ANGLE_UNIT ( ) SI_UNIT ( $, .RADIAN. ) );
#3 =( NAMED_UNIT ( * ) SI_UNIT ( $, .STERADIAN. ) SOLID_ANGLE_UNIT ( ) );
#4 = AXIS2_PLACEMENT_3D ( 'NONE', #90, #20, #224 ) ;
#5 = DIRECTION ( 'NONE',  ( 0.000000000000000000, 0.000000000000000000, -1.000000000000000000 ) ) ;
#6 = COLOUR_RGB ( '',1.000000000000000000, 0.000000000000000000, 0.000000000000000000 ) ;
#7 = AXIS2_PLACEMENT_3D ( 'NONE', #289, #57, #146 ) ;
#8 = DIRECTION ( 'NONE',  ( -1.000000000000000000, 0.000000000000000000, 0.000000000000000000 ) ) ;
#9 =( CONVERSION_BASED_UNIT ( 'INCH', #192 ) LENGTH_UNIT ( ) NAMED_UNIT ( #287 ) );
#10 = ADVANCED_FACE ( 'NONE', ( #40 ), #133, .T. ) ;
#11 = EDGE_LOOP ( 'NONE', ( #15, #270, #61, #176 ) ) ;
#12 = ORIENTED_EDGE ( 'NONE', *, *, #201, .T. ) ;
#13 = AXIS2_PLACEMENT_3D ( 'NONE', #182, #275, #231 ) ;
#14 = MECHANICAL_DESIGN_GEOMETRIC_PRESENTATION_REPRESENTATION (  '', ( #28 ), #124 ) ;
#15 = ORIENTED_EDGE ( 'NONE', *, *, #33, .F. ) ;
#16 = ORIENTED_EDGE ( 'NONE', *, *, #52, .F. ) ;
#17 = PRESENTATION_LAYER_ASSIGNMENT (  '', '', ( #204 ) ) ;
#18 = LINE ( 'NONE', #154, #190 ) ;
#19 = APPLICATION_PROTOCOL_DEFINITION ( 'draft international standard', 'automotive_design', 1998, #81 ) ;
#20 = DIRECTION ( 'NONE',  ( 0.000000000000000000, -1.000000000000000000, -0.000000000000000000 ) ) ;
#21 = UNCERTAINTY_MEASURE_WITH_UNIT (LENGTH_MEASURE( 1.000000000000000082E-05 ), #221, 'distance_accuracy_value', 'NONE');
#22 = DIRECTION ( 'NONE',  ( 1.000000000000000000, 0.000000000000000000, 0.000000000000000000 ) ) ;
#23 =( GEOMETRIC_REPRESENTATION_CONTEXT ( 3 ) GLOBAL_UNCERTAINTY_ASSIGNED_CONTEXT ( ( #230 ) ) GLOBAL_UNIT_ASSIGNED_CONTEXT ( ( #77, #137, #198 ) ) REPRESENTATION_CONTEXT ( 'NONE', 'WORKASPACE' ) );
#24 = FILL_AREA_STYLE ('',( #42 ) ) ;
#25 =( LENGTH_UNIT ( ) NAMED_UNIT ( * ) SI_UNIT ( $, .METRE. ) );
#26 = DIRECTION ( 'NONE',  ( -1.224646799147353454E-16, 1.000000000000000000, -0.000000000000000000 ) ) ;
#27 = SURFACE_STYLE_USAGE ( .BOTH. , #187 ) ;
#28 = STYLED_ITEM ( 'NONE', ( #284 ), #306 ) ;
#29 = FILL_AREA_STYLE_COLOUR ( '', #6 ) ;
#30 = EDGE_CURVE ( 'NONE', #239, #218, #99, .T. ) ;
#31 = CARTESIAN_POINT ( 'NONE',  ( 0.000000000000000000, 0.000000000000000000, -0.3750000000000000555 ) ) ;
#32 = FILL_AREA_STYLE_COLOUR ( '', #100 ) ;
#33 = EDGE_CURVE ( 'NONE', #297, #292, #184, .T. ) ;
#34 = PRESENTATION_STYLE_ASSIGNMENT (( #87 ) ) ;
#35 = DIRECTION ( 'NONE',  ( 0.000000000000000000, 0.000000000000000000, -1.000000000000000000 ) ) ;
#36 = DIRECTION ( 'NONE',  ( -1.000000000000000000, 0.000000000000000000, 0.000000000000000000 ) ) ;
#37 = LENGTH_MEASURE_WITH_UNIT ( LENGTH_MEASURE( 0.02539999999999999897 ), #56 );
#38 = ORIENTED_EDGE ( 'NONE', *, *, #246, .T. ) ;
#39 = MECHANICAL_DESIGN_GEOMETRIC_PRESENTATION_REPRESENTATION (  '', ( #110 ), #130 ) ;
#40 = FACE_OUTER_BOUND ( 'NONE', #85, .T. ) ;
#41 = EDGE_LOOP ( 'NONE', ( #175, #151 ) ) ;
#42 = FILL_AREA_STYLE_COLOUR ( '', #260 ) ;
#43 = MECHANICAL_DESIGN_GEOMETRIC_PRESENTATION_REPRESENTATION (  '', ( #204 ), #49 ) ;
#44 = SURFACE_STYLE_FILL_AREA ( #24 ) ;
#45 = DIRECTION ( 'NONE',  ( 0.000000000000000000, 0.000000000000000000, -1.000000000000000000 ) ) ;
#46 =( NAMED_UNIT ( * ) SI_UNIT ( $, .STERADIAN. ) SOLID_ANGLE_UNIT ( ) );
#47 = SURFACE_STYLE_USAGE ( .BOTH. , #254 ) ;
#48 = CARTESIAN_POINT ( 'NONE',  ( 0.000000000000000000, 0.000000000000000000, -0.3750000000000000555 ) ) ;
#49 =( GEOMETRIC_REPRESENTATION_CONTEXT ( 3 ) GLOBAL_UNCERTAINTY_ASSIGNED_CONTEXT ( ( #68 ) ) GLOBAL_UNIT_ASSIGNED_CONTEXT ( ( #301, #94, #253 ) ) REPRESENTATION_CONTEXT ( 'NONE', 'WORKASPACE' ) );
#50 = EDGE_CURVE ( 'NONE', #239, #148, #299, .T. ) ;
#51 = UNCERTAINTY_MEASURE_WITH_UNIT (LENGTH_MEASURE( 1.000000000000000082E-05 ), #302, 'distance_accuracy_value', 'NONE');
#52 = EDGE_CURVE ( 'NONE', #241, #150, #18, .T. ) ;
#53 = VECTOR ( 'NONE', #126, 39.37007874015748143 ) ;
#54 = ADVANCED_FACE ( 'NONE', ( #202 ), #117, .F. ) ;
#55 = DIRECTION ( 'NONE',  ( 0.000000000000000000, 0.000000000000000000, -1.000000000000000000 ) ) ;
#56 =( LENGTH_UNIT ( ) NAMED_UNIT ( * ) SI_UNIT ( $, .METRE. ) );
#57 = DIRECTION ( 'NONE',  ( -1.224646799147353454E-16, 1.000000000000000000, -0.000000000000000000 ) ) ;
#58 = MECHANICAL_DESIGN_GEOMETRIC_PRESENTATION_REPRESENTATION (  '', ( #259 ), #266 ) ;
#59 = EDGE_LOOP ( 'NONE', ( #114, #195, #296, #82 ) ) ;
#60 = DIMENSIONAL_EXPONENTS ( 1.000000000000000000, 0.000000000000000000, 0.000000000000000000, 0.000000000000000000, 0.000000000000000000, 0.000000000000000000, 0.000000000000000000 ) ;
#61 = ORIENTED_EDGE ( 'NONE', *, *, #52, .T. ) ;
#62 = AXIS2_PLACEMENT_3D ( 'NONE', #250, #180, #45 ) ;
#63 = CIRCLE ( 'NONE', #131, 0.3750000000000000555 ) ;
#64 = ORIENTED_EDGE ( 'NONE', *, *, #33, .T. ) ;
#65 = DIRECTION ( 'NONE',  ( -1.224646799147353454E-16, 1.000000000000000000, 0.000000000000000000 ) ) ;
#66 =( LENGTH_UNIT ( ) NAMED_UNIT ( * ) SI_UNIT ( $, .METRE. ) );
#67 =( LENGTH_UNIT ( ) NAMED_UNIT ( * ) SI_UNIT ( $, .METRE. ) );
#68 = UNCERTAINTY_MEASURE_WITH_UNIT (LENGTH_MEASURE( 1.000000000000000082E-05 ), #301, 'distance_accuracy_value', 'NONE');
#69 = FILL_AREA_STYLE ('',( #98 ) ) ;
#70 = DIRECTION ( 'NONE',  ( -0.000000000000000000, -1.000000000000000000, -0.000000000000000000 ) ) ;
#71 = PRODUCT_CONTEXT ( 'NONE', #81, 'mechanical' ) ;
#72 = CLOSED_SHELL ( 'NONE', ( #115, #288, #10, #161 ) ) ;
#73 = STYLED_ITEM ( 'NONE', ( #211 ), #288 ) ;
#74 = CARTESIAN_POINT ( 'NONE',  ( 0.3750000000000000555, 6.500000000000000000, 4.592425496802577300E-17 ) ) ;
#75 = CARTESIAN_POINT ( 'NONE',  ( 4.592425496802575451E-17, 4.000000000000000000, 0.3750000000000000555 ) ) ;
#76 = ADVANCED_BREP_SHAPE_REPRESENTATION ( '81717', ( #102, #306, #267 ), #281 ) ;
#77 =( CONVERSION_BASED_UNIT ( 'INCH', #153 ) LENGTH_UNIT ( ) NAMED_UNIT ( #170 ) );
#78 =( LENGTH_UNIT ( ) NAMED_UNIT ( * ) SI_UNIT ( $, .METRE. ) );
#79 = CARTESIAN_POINT ( 'NONE',  ( 0.000000000000000000, 4.000000000000000000, 0.000000000000000000 ) ) ;
#80 = ORIENTED_EDGE ( 'NONE', *, *, #258, .T. ) ;
#81 = APPLICATION_CONTEXT ( 'automotive_design' ) ;
#82 = ORIENTED_EDGE ( 'NONE', *, *, #30, .F. ) ;
#83 = COLOUR_RGB ( '',0.7921568627450980005, 0.8196078431372548767, 0.9333333333333333481 ) ;
#84 = DIMENSIONAL_EXPONENTS ( 1.000000000000000000, 0.000000000000000000, 0.000000000000000000, 0.000000000000000000, 0.000000000000000000, 0.000000000000000000, 0.000000000000000000 ) ;
#85 = EDGE_LOOP ( 'NONE', ( #216, #220, #245, #243 ) ) ;
#86 = DIMENSIONAL_EXPONENTS ( 1.000000000000000000, 0.000000000000000000, 0.000000000000000000, 0.000000000000000000, 0.000000000000000000, 0.000000000000000000, 0.000000000000000000 ) ;
#87 = SURFACE_STYLE_USAGE ( .BOTH. , #264 ) ;
#88 = CARTESIAN_POINT ( 'NONE',  ( 0.000000000000000000, 4.000000000000000000, 0.000000000000000000 ) ) ;
#89 = COLOUR_RGB ( '',1.000000000000000000, 0.000000000000000000, 0.000000000000000000 ) ;
#90 = CARTESIAN_POINT ( 'NONE',  ( 0.000000000000000000, 0.000000000000000000, 0.000000000000000000 ) ) ;
#91 = ADVANCED_FACE ( 'NONE', ( #247 ), #304, .F. ) ;
#92 = CYLINDRICAL_SURFACE ( 'NONE', #121, 0.3750000000000000555 ) ;
#93 = DIRECTION ( 'NONE',  ( 0.000000000000000000, 1.000000000000000000, 0.000000000000000000 ) ) ;
#94 =( NAMED_UNIT ( * ) PLANE_ANGLE_UNIT ( ) SI_UNIT ( $, .RADIAN. ) );
#95 = DIRECTION ( 'NONE',  ( 0.000000000000000000, 0.000000000000000000, 1.000000000000000000 ) ) ;
#96 = COLOUR_RGB ( '',1.000000000000000000, 0.000000000000000000, 0.000000000000000000 ) ;
#97 = MECHANICAL_DESIGN_GEOMETRIC_PRESENTATION_REPRESENTATION (  '', ( #73 ), #145 ) ;
#98 = FILL_AREA_STYLE_COLOUR ( '', #96 ) ;
#99 = LINE ( 'NONE', #48, #286 ) ;
#100 = COLOUR_RGB ( '',1.000000000000000000, 0.000000000000000000, 0.000000000000000000 ) ;
#101 =( NAMED_UNIT ( * ) PLANE_ANGLE_UNIT ( ) SI_UNIT ( $, .RADIAN. ) );
#102 = MANIFOLD_SOLID_BREP ( 'Revolve - Cutting Edge', #72 ) ;
#103 = MECHANICAL_DESIGN_GEOMETRIC_PRESENTATION_REPRESENTATION (  '', ( #294 ), #23 ) ;
#104 = CIRCLE ( 'NONE', #183, 0.3750000000000000555 ) ;
#105 = FACE_OUTER_BOUND ( 'NONE', #11, .T. ) ;
#106 = APPLICATION_CONTEXT ( 'automotive_design' ) ;
#107 = SURFACE_SIDE_STYLE ('',( #291 ) ) ;
#108 = FILL_AREA_STYLE ('',( #171 ) ) ;
#109 = VERTEX_POINT ( 'NONE', #120 ) ;
#110 = STYLED_ITEM ( 'NONE', ( #34 ), #10 ) ;
#111 = AXIS2_PLACEMENT_3D ( 'NONE', #79, #169, #36 ) ;
#112 = EDGE_LOOP ( 'NONE', ( #196, #12 ) ) ;
#113 = CARTESIAN_POINT ( 'NONE',  ( 0.000000000000000000, 0.000000000000000000, 0.000000000000000000 ) ) ;
#114 = ORIENTED_EDGE ( 'NONE', *, *, #50, .T. ) ;
#115 = ADVANCED_FACE ( 'NONE', ( #203 ), #92, .T. ) ;
#116 = PRODUCT_DEFINITION_CONTEXT ( 'detailed design', #106, 'design' ) ;
#117 = PLANE ( 'NONE',  #147 ) ;
#118 = DIRECTION ( 'NONE',  ( -0.000000000000000000, -1.000000000000000000, -0.000000000000000000 ) ) ;
#119 = UNCERTAINTY_MEASURE_WITH_UNIT (LENGTH_MEASURE( 1.000000000000000082E-05 ), #194, 'distance_accuracy_value', 'NONE');
#120 = CARTESIAN_POINT ( 'NONE',  ( 4.592425496802575451E-17, 0.000000000000000000, 0.3750000000000000555 ) ) ;
#121 = AXIS2_PLACEMENT_3D ( 'NONE', #125, #188, #5 ) ;
#122 = SURFACE_SIDE_STYLE ('',( #255 ) ) ;
#123 = CIRCLE ( 'NONE', #244, 0.3750000000000002776 ) ;
#124 =( GEOMETRIC_REPRESENTATION_CONTEXT ( 3 ) GLOBAL_UNCERTAINTY_ASSIGNED_CONTEXT ( ( #283 ) ) GLOBAL_UNIT_ASSIGNED_CONTEXT ( ( #9, #101, #3 ) ) REPRESENTATION_CONTEXT ( 'NONE', 'WORKASPACE' ) );
#125 = CARTESIAN_POINT ( 'NONE',  ( 0.000000000000000000, 0.000000000000000000, 0.000000000000000000 ) ) ;
#126 = DIRECTION ( 'NONE',  ( -0.000000000000000000, -1.000000000000000000, -0.000000000000000000 ) ) ;
#127 = AXIS2_PLACEMENT_3D ( 'NONE', #298, #265, #55 ) ;
#128 = FACE_OUTER_BOUND ( 'NONE', #41, .T. ) ;
#129 = ORIENTED_EDGE ( 'NONE', *, *, #258, .F. ) ;
#130 =( GEOMETRIC_REPRESENTATION_CONTEXT ( 3 ) GLOBAL_UNCERTAINTY_ASSIGNED_CONTEXT ( ( #119 ) ) GLOBAL_UNIT_ASSIGNED_CONTEXT ( ( #194, #308, #222 ) ) REPRESENTATION_CONTEXT ( 'NONE', 'WORKASPACE' ) );
#131 = AXIS2_PLACEMENT_3D ( 'NONE', #88, #235, #8 ) ;
#132 = AXIS2_PLACEMENT_3D ( 'NONE', #179, #274, #155 ) ;
#133 = CYLINDRICAL_SURFACE ( 'NONE', #62, 0.3750000000000000555 ) ;
#134 = EDGE_LOOP ( 'NONE', ( #80, #64, #268, #16 ) ) ;
#135 = LENGTH_MEASURE_WITH_UNIT ( LENGTH_MEASURE( 0.02539999999999999897 ), #172 );
#136 = SURFACE_STYLE_USAGE ( .BOTH. , #138 ) ;
#137 =( NAMED_UNIT ( * ) PLANE_ANGLE_UNIT ( ) SI_UNIT ( $, .RADIAN. ) );
#138 = SURFACE_SIDE_STYLE ('',( #44 ) ) ;
#139 = SHAPE_DEFINITION_REPRESENTATION ( #215, #76 ) ;
#140 = PRESENTATION_STYLE_ASSIGNMENT (( #136 ) ) ;
#141 = EDGE_CURVE ( 'NONE', #150, #292, #123, .T. ) ;
#142 = PRESENTATION_STYLE_ASSIGNMENT (( #47 ) ) ;
#143 = DIRECTION ( 'NONE',  ( -1.224646799147353454E-16, 1.000000000000000000, -0.000000000000000000 ) ) ;
#144 = SURFACE_STYLE_USAGE ( .BOTH. , #122 ) ;
#145 =( GEOMETRIC_REPRESENTATION_CONTEXT ( 3 ) GLOBAL_UNCERTAINTY_ASSIGNED_CONTEXT ( ( #21 ) ) GLOBAL_UNIT_ASSIGNED_CONTEXT ( ( #221, #257, #305 ) ) REPRESENTATION_CONTEXT ( 'NONE', 'WORKASPACE' ) );
#146 = DIRECTION ( 'NONE',  ( -1.000000000000000000, 0.000000000000000000, 0.000000000000000000 ) ) ;
#147 = AXIS2_PLACEMENT_3D ( 'NONE', #279, #65, #256 ) ;
#148 = VERTEX_POINT ( 'NONE', #75 ) ;
#149 = DIRECTION ( 'NONE',  ( -1.224646799147353454E-16, 1.000000000000000000, -0.000000000000000000 ) ) ;
#150 = VERTEX_POINT ( 'NONE', #165 ) ;
#151 = ORIENTED_EDGE ( 'NONE', *, *, #309, .F. ) ;
#152 =( LENGTH_UNIT ( ) NAMED_UNIT ( * ) SI_UNIT ( $, .METRE. ) );
#153 = LENGTH_MEASURE_WITH_UNIT ( LENGTH_MEASURE( 0.02539999999999999897 ), #66 );
#154 = CARTESIAN_POINT ( 'NONE',  ( -0.3750000000000004441, 6.500000000000000000, 0.000000000000000000 ) ) ;
#155 = DIRECTION ( 'NONE',  ( -1.000000000000000000, 0.000000000000000000, 0.000000000000000000 ) ) ;
#156 = LENGTH_MEASURE_WITH_UNIT ( LENGTH_MEASURE( 0.02539999999999999897 ), #67 );
#157 = CARTESIAN_POINT ( 'NONE',  ( 0.000000000000000000, 4.000000000000000000, 0.000000000000000000 ) ) ;
#158 = PRESENTATION_LAYER_ASSIGNMENT (  '', '', ( #294 ) ) ;
#159 = DIRECTION ( 'NONE',  ( 0.000000000000000000, 0.000000000000000000, -1.000000000000000000 ) ) ;
#160 = CARTESIAN_POINT ( 'NONE',  ( 0.000000000000000000, 0.000000000000000000, 0.000000000000000000 ) ) ;
#161 = ADVANCED_FACE ( 'NONE', ( #1 ), #234, .T. ) ;
#162 =( CONVERSION_BASED_UNIT ( 'INCH', #208 ) LENGTH_UNIT ( ) NAMED_UNIT ( #84 ) );
#163 = PRODUCT ( '81717', '81717', '', ( #71 ) ) ;
#164 = SURFACE_STYLE_FILL_AREA ( #233 ) ;
#165 = CARTESIAN_POINT ( 'NONE',  ( -0.3750000000000005551, 6.500000000000000000, 0.000000000000000000 ) ) ;
#166 = PRODUCT_DEFINITION_FORMATION_WITH_SPECIFIED_SOURCE ( 'ANY', '', #163, .NOT_KNOWN. ) ;
#167 = LINE ( 'NONE', #262, #53 ) ;
#168 = DIRECTION ( 'NONE',  ( -0.000000000000000000, -1.000000000000000000, -0.000000000000000000 ) ) ;
#169 = DIRECTION ( 'NONE',  ( -1.224646799147353454E-16, 1.000000000000000000, -0.000000000000000000 ) ) ;
#170 = DIMENSIONAL_EXPONENTS ( 1.000000000000000000, 0.000000000000000000, 0.000000000000000000, 0.000000000000000000, 0.000000000000000000, 0.000000000000000000, 0.000000000000000000 ) ;
#171 = FILL_AREA_STYLE_COLOUR ( '', #89 ) ;
#172 =( LENGTH_UNIT ( ) NAMED_UNIT ( * ) SI_UNIT ( $, .METRE. ) );
#173 = PRODUCT_DEFINITION ( 'UNKNOWN', '', #166, #116 ) ;
#174 = PRESENTATION_LAYER_ASSIGNMENT (  '', '', ( #73 ) ) ;
#175 = ORIENTED_EDGE ( 'NONE', *, *, #50, .F. ) ;
#176 = ORIENTED_EDGE ( 'NONE', *, *, #201, .F. ) ;
#177 = PRESENTATION_LAYER_ASSIGNMENT (  '', '', ( #110 ) ) ;
#178 = FILL_AREA_STYLE ('',( #32 ) ) ;
#179 = CARTESIAN_POINT ( 'NONE',  ( -3.061616997868383634E-16, 6.500000000000000000, 0.000000000000000000 ) ) ;
#180 = DIRECTION ( 'NONE',  ( -0.000000000000000000, -1.000000000000000000, -0.000000000000000000 ) ) ;
#181 = CARTESIAN_POINT ( 'NONE',  ( 0.3750000000000000555, 4.000000000000000000, 4.592425496802577300E-17 ) ) ;
#182 = CARTESIAN_POINT ( 'NONE',  ( 0.3750000000000000555, 6.500000000000000000, 0.000000000000000000 ) ) ;
#183 = AXIS2_PLACEMENT_3D ( 'NONE', #157, #168, #35 ) ;
#184 = LINE ( 'NONE', #205, #217 ) ;
#185 = EDGE_CURVE ( 'NONE', #297, #241, #277, .T. ) ;
#186 = PRESENTATION_LAYER_ASSIGNMENT (  '', '', ( #259 ) ) ;
#187 = SURFACE_SIDE_STYLE ('',( #164 ) ) ;
#188 = DIRECTION ( 'NONE',  ( -0.000000000000000000, -1.000000000000000000, -0.000000000000000000 ) ) ;
#189 = CARTESIAN_POINT ( 'NONE',  ( -3.061616997868383634E-16, 6.500000000000000000, 0.000000000000000000 ) ) ;
#190 = VECTOR ( 'NONE', #273, 39.37007874015748143 ) ;
#191 = AXIS2_PLACEMENT_3D ( 'NONE', #113, #210, #263 ) ;
#192 = LENGTH_MEASURE_WITH_UNIT ( LENGTH_MEASURE( 0.02539999999999999897 ), #78 );
#193 = DIRECTION ( 'NONE',  ( -1.000000000000000000, 0.000000000000000000, 0.000000000000000000 ) ) ;
#194 =( CONVERSION_BASED_UNIT ( 'INCH', #212 ) LENGTH_UNIT ( ) NAMED_UNIT ( #214 ) );
#195 = ORIENTED_EDGE ( 'NONE', *, *, #236, .T. ) ;
#196 = ORIENTED_EDGE ( 'NONE', *, *, #141, .T. ) ;
#197 = SURFACE_STYLE_FILL_AREA ( #108 ) ;
#198 =( NAMED_UNIT ( * ) SI_UNIT ( $, .STERADIAN. ) SOLID_ANGLE_UNIT ( ) );
#199 = FACE_OUTER_BOUND ( 'NONE', #134, .T. ) ;
#200 = CARTESIAN_POINT ( 'NONE',  ( -3.061616997868383634E-16, 6.500000000000000000, 0.000000000000000000 ) ) ;
#201 = EDGE_CURVE ( 'NONE', #292, #150, #228, .T. ) ;
#202 = FACE_OUTER_BOUND ( 'NONE', #290, .T. ) ;
#203 = FACE_OUTER_BOUND ( 'NONE', #59, .T. ) ;
#204 = STYLED_ITEM ( 'NONE', ( #140 ), #102 ) ;
#205 = CARTESIAN_POINT ( 'NONE',  ( 0.3749999999999998890, 6.500000000000000000, 4.592425496802576684E-17 ) ) ;
#206 =( NAMED_UNIT ( * ) PLANE_ANGLE_UNIT ( ) SI_UNIT ( $, .RADIAN. ) );
#207 = PRESENTATION_LAYER_ASSIGNMENT (  '', '', ( #28 ) ) ;
#208 = LENGTH_MEASURE_WITH_UNIT ( LENGTH_MEASURE( 0.02539999999999999897 ), #25 );
#209 = FILL_AREA_STYLE ('',( #29 ) ) ;
#210 = DIRECTION ( 'NONE',  ( -0.000000000000000000, -1.000000000000000000, -0.000000000000000000 ) ) ;
#211 = PRESENTATION_STYLE_ASSIGNMENT (( #272 ) ) ;
#212 = LENGTH_MEASURE_WITH_UNIT ( LENGTH_MEASURE( 0.02539999999999999897 ), #152 );
#213 = CARTESIAN_POINT ( 'NONE',  ( -0.3750000000000000555, 4.000000000000000000, 0.000000000000000000 ) ) ;
#214 = DIMENSIONAL_EXPONENTS ( 1.000000000000000000, 0.000000000000000000, 0.000000000000000000, 0.000000000000000000, 0.000000000000000000, 0.000000000000000000, 0.000000000000000000 ) ;
#215 = PRODUCT_DEFINITION_SHAPE ( 'NONE', 'NONE',  #173 ) ;
#216 = ORIENTED_EDGE ( 'NONE', *, *, #236, .F. ) ;
#217 = VECTOR ( 'NONE', #143, 39.37007874015748143 ) ;
#218 = VERTEX_POINT ( 'NONE', #31 ) ;
#219 = EDGE_LOOP ( 'NONE', ( #38, #271 ) ) ;
#220 = ORIENTED_EDGE ( 'NONE', *, *, #309, .T. ) ;
#221 =( CONVERSION_BASED_UNIT ( 'INCH', #135 ) LENGTH_UNIT ( ) NAMED_UNIT ( #269 ) );
#222 =( NAMED_UNIT ( * ) SI_UNIT ( $, .STERADIAN. ) SOLID_ANGLE_UNIT ( ) );
#223 = ADVANCED_FACE ( 'NONE', ( #199 ), #248, .T. ) ;
#224 = DIRECTION ( 'NONE',  ( 0.000000000000000000, 0.000000000000000000, -1.000000000000000000 ) ) ;
#225 = CARTESIAN_POINT ( 'NONE',  ( 0.000000000000000000, 4.000000000000000000, 0.000000000000000000 ) ) ;
#226 = APPLICATION_PROTOCOL_DEFINITION ( 'draft international standard', 'automotive_design', 1998, #106 ) ;
#227 = DIRECTION ( 'NONE',  ( 0.000000000000000000, -0.000000000000000000, 1.000000000000000000 ) ) ;
#228 = CIRCLE ( 'NONE', #132, 0.3750000000000002776 ) ;
#229 =( NAMED_UNIT ( * ) SI_UNIT ( $, .STERADIAN. ) SOLID_ANGLE_UNIT ( ) );
#230 = UNCERTAINTY_MEASURE_WITH_UNIT (LENGTH_MEASURE( 1.000000000000000082E-05 ), #77, 'distance_accuracy_value', 'NONE');
#231 = DIRECTION ( 'NONE',  ( 1.000000000000000000, 1.224646799147353454E-16, 0.000000000000000000 ) ) ;
#232 = PRESENTATION_STYLE_ASSIGNMENT (( #144 ) ) ;
#233 = FILL_AREA_STYLE ('',( #251 ) ) ;
#234 = PLANE ( 'NONE',  #4 ) ;
#235 = DIRECTION ( 'NONE',  ( -1.224646799147353454E-16, 1.000000000000000000, -0.000000000000000000 ) ) ;
#236 = EDGE_CURVE ( 'NONE', #148, #109, #167, .T. ) ;
#237 = PLANE ( 'NONE',  #252 ) ;
#238 = CLOSED_SHELL ( 'NONE', ( #223, #54, #282, #91 ) ) ;
#239 = VERTEX_POINT ( 'NONE', #303 ) ;
#240 = CYLINDRICAL_SURFACE ( 'NONE', #7, 0.3750000000000001665 ) ;
#241 = VERTEX_POINT ( 'NONE', #213 ) ;
#242 = EDGE_CURVE ( 'NONE', #109, #218, #307, .T. ) ;
#243 = ORIENTED_EDGE ( 'NONE', *, *, #242, .F. ) ;
#244 = AXIS2_PLACEMENT_3D ( 'NONE', #189, #26, #285 ) ;
#245 = ORIENTED_EDGE ( 'NONE', *, *, #30, .T. ) ;
#246 = EDGE_CURVE ( 'NONE', #218, #109, #300, .T. ) ;
#247 = FACE_OUTER_BOUND ( 'NONE', #112, .T. ) ;
#248 = CYLINDRICAL_SURFACE ( 'NONE', #261, 0.3750000000000001665 ) ;
#249 = UNCERTAINTY_MEASURE_WITH_UNIT (LENGTH_MEASURE( 1.000000000000000082E-05 ), #162, 'distance_accuracy_value', 'NONE');
#250 = CARTESIAN_POINT ( 'NONE',  ( 0.000000000000000000, 0.000000000000000000, 0.000000000000000000 ) ) ;
#251 = FILL_AREA_STYLE_COLOUR ( '', #83 ) ;
#252 = AXIS2_PLACEMENT_3D ( 'NONE', #276, #93, #227 ) ;
#253 =( NAMED_UNIT ( * ) SI_UNIT ( $, .STERADIAN. ) SOLID_ANGLE_UNIT ( ) );
#254 = SURFACE_SIDE_STYLE ('',( #278 ) ) ;
#255 = SURFACE_STYLE_FILL_AREA ( #209 ) ;
#256 = DIRECTION ( 'NONE',  ( -1.000000000000000000, -1.224646799147353454E-16, 0.000000000000000000 ) ) ;
#257 =( NAMED_UNIT ( * ) PLANE_ANGLE_UNIT ( ) SI_UNIT ( $, .RADIAN. ) );
#258 = EDGE_CURVE ( 'NONE', #241, #297, #63, .T. ) ;
#259 = STYLED_ITEM ( 'NONE', ( #142 ), #115 ) ;
#260 = COLOUR_RGB ( '',0.7921568627450980005, 0.8196078431372548767, 0.9333333333333333481 ) ;
#261 = AXIS2_PLACEMENT_3D ( 'NONE', #200, #149, #193 ) ;
#262 = CARTESIAN_POINT ( 'NONE',  ( 4.592425496802575451E-17, 0.000000000000000000, 0.3750000000000000555 ) ) ;
#263 = DIRECTION ( 'NONE',  ( 0.000000000000000000, 0.000000000000000000, -1.000000000000000000 ) ) ;
#264 = SURFACE_SIDE_STYLE ('',( #197 ) ) ;
#265 = DIRECTION ( 'NONE',  ( -0.000000000000000000, -1.000000000000000000, -0.000000000000000000 ) ) ;
#266 =( GEOMETRIC_REPRESENTATION_CONTEXT ( 3 ) GLOBAL_UNCERTAINTY_ASSIGNED_CONTEXT ( ( #249 ) ) GLOBAL_UNIT_ASSIGNED_CONTEXT ( ( #162, #206, #229 ) ) REPRESENTATION_CONTEXT ( 'NONE', 'WORKASPACE' ) );
#267 = AXIS2_PLACEMENT_3D ( 'NONE', #160, #95, #22 ) ;
#268 = ORIENTED_EDGE ( 'NONE', *, *, #141, .F. ) ;
#269 = DIMENSIONAL_EXPONENTS ( 1.000000000000000000, 0.000000000000000000, 0.000000000000000000, 0.000000000000000000, 0.000000000000000000, 0.000000000000000000, 0.000000000000000000 ) ;
#270 = ORIENTED_EDGE ( 'NONE', *, *, #185, .T. ) ;
#271 = ORIENTED_EDGE ( 'NONE', *, *, #242, .T. ) ;
#272 = SURFACE_STYLE_USAGE ( .BOTH. , #107 ) ;
#273 = DIRECTION ( 'NONE',  ( -1.224646799147353454E-16, 1.000000000000000000, -0.000000000000000000 ) ) ;
#274 = DIRECTION ( 'NONE',  ( -1.224646799147353454E-16, 1.000000000000000000, -0.000000000000000000 ) ) ;
#275 = DIRECTION ( 'NONE',  ( 1.224646799147353454E-16, -1.000000000000000000, 0.000000000000000000 ) ) ;
#276 = CARTESIAN_POINT ( 'NONE',  ( 0.000000000000000000, 4.000000000000000000, 0.000000000000000000 ) ) ;
#277 = CIRCLE ( 'NONE', #111, 0.3750000000000000555 ) ;
#278 = SURFACE_STYLE_FILL_AREA ( #69 ) ;
#279 = CARTESIAN_POINT ( 'NONE',  ( 2.812049592490984725E-33, 4.000000000000000000, 0.000000000000000000 ) ) ;
#280 = AXIS2_PLACEMENT_3D ( 'NONE', #225, #118, #159 ) ;
#281 =( GEOMETRIC_REPRESENTATION_CONTEXT ( 3 ) GLOBAL_UNCERTAINTY_ASSIGNED_CONTEXT ( ( #51 ) ) GLOBAL_UNIT_ASSIGNED_CONTEXT ( ( #302, #2, #46 ) ) REPRESENTATION_CONTEXT ( 'NONE', 'WORKASPACE' ) );
#282 = ADVANCED_FACE ( 'NONE', ( #105 ), #240, .T. ) ;
#283 = UNCERTAINTY_MEASURE_WITH_UNIT (LENGTH_MEASURE( 1.000000000000000082E-05 ), #9, 'distance_accuracy_value', 'NONE');
#284 = PRESENTATION_STYLE_ASSIGNMENT (( #27 ) ) ;
#285 = DIRECTION ( 'NONE',  ( -1.000000000000000000, 0.000000000000000000, 0.000000000000000000 ) ) ;
#286 = VECTOR ( 'NONE', #70, 39.37007874015748143 ) ;
#287 = DIMENSIONAL_EXPONENTS ( 1.000000000000000000, 0.000000000000000000, 0.000000000000000000, 0.000000000000000000, 0.000000000000000000, 0.000000000000000000, 0.000000000000000000 ) ;
#288 = ADVANCED_FACE ( 'NONE', ( #128 ), #237, .T. ) ;
#289 = CARTESIAN_POINT ( 'NONE',  ( -3.061616997868383634E-16, 6.500000000000000000, 0.000000000000000000 ) ) ;
#290 = EDGE_LOOP ( 'NONE', ( #129, #295 ) ) ;
#291 = SURFACE_STYLE_FILL_AREA ( #178 ) ;
#292 = VERTEX_POINT ( 'NONE', #74 ) ;
#293 = PRODUCT_RELATED_PRODUCT_CATEGORY ( 'part', '', ( #163 ) ) ;
#294 = STYLED_ITEM ( 'NONE', ( #232 ), #161 ) ;
#295 = ORIENTED_EDGE ( 'NONE', *, *, #185, .F. ) ;
#296 = ORIENTED_EDGE ( 'NONE', *, *, #246, .F. ) ;
#297 = VERTEX_POINT ( 'NONE', #181 ) ;
#298 = CARTESIAN_POINT ( 'NONE',  ( 0.000000000000000000, 0.000000000000000000, 0.000000000000000000 ) ) ;
#299 = CIRCLE ( 'NONE', #280, 0.3750000000000000555 ) ;
#300 = CIRCLE ( 'NONE', #127, 0.3750000000000000555 ) ;
#301 =( CONVERSION_BASED_UNIT ( 'INCH', #156 ) LENGTH_UNIT ( ) NAMED_UNIT ( #60 ) );
#302 =( CONVERSION_BASED_UNIT ( 'INCH', #37 ) LENGTH_UNIT ( ) NAMED_UNIT ( #86 ) );
#303 = CARTESIAN_POINT ( 'NONE',  ( 0.000000000000000000, 4.000000000000000000, -0.3750000000000000555 ) ) ;
#304 = PLANE ( 'NONE',  #13 ) ;
#305 =( NAMED_UNIT ( * ) SI_UNIT ( $, .STERADIAN. ) SOLID_ANGLE_UNIT ( ) );
#306 = MANIFOLD_SOLID_BREP ( 'Revolve - Tool Body (Straight Shanked)', #238 ) ;
#307 = CIRCLE ( 'NONE', #191, 0.3750000000000000555 ) ;
#308 =( NAMED_UNIT ( * ) PLANE_ANGLE_UNIT ( ) SI_UNIT ( $, .RADIAN. ) );
#309 = EDGE_CURVE ( 'NONE', #148, #239, #104, .T. ) ;
ENDSEC;
END-ISO-10303-21;
