ISO-10303-21;
HEADER;
FILE_DESCRIPTION (( 'STEP AP214' ),
    '1' );
FILE_NAME ('Micro_SME-013-2.STEP',
    '2021-09-02T10:10:05',
    ( '' ),
    ( '' ),
    'SwSTEP 2.0',
    'SolidWorks 2020',
    '' );
FILE_SCHEMA (( 'AUTOMOTIVE_DESIGN' ));
ENDSEC;

DATA;
#1 = FILL_AREA_STYLE ('',( #133 ) ) ;
#2 = CIRCLE ( 'NONE', #249, 0.006493500000000001007 ) ;
#3 = FACE_OUTER_BOUND ( 'NONE', #114, .T. ) ;
#4 = CARTESIAN_POINT ( 'NONE',  ( 2.326828918379971719E-18, 0.0000000000000000000, 0.01899999999999999953 ) ) ;
#5 = ORIENTED_EDGE ( 'NONE', *, *, #201, .T. ) ;
#6 = EDGE_LOOP ( 'NONE', ( #211, #217, #298, #285 ) ) ;
#7 = AXIS2_PLACEMENT_3D ( 'NONE', #142, #43, #62 ) ;
#8 = VERTEX_POINT ( 'NONE', #261 ) ;
#9 = DIRECTION ( 'NONE',  ( 0.0000000000000000000, 0.0000000000000000000, 1.000000000000000000 ) ) ;
#10 = DIRECTION ( 'NONE',  ( 1.000000000000000000, 0.0000000000000000000, 0.0000000000000000000 ) ) ;
#11 = CARTESIAN_POINT ( 'NONE',  ( 0.0000000000000000000, 0.0000000000000000000, 0.0000000000000000000 ) ) ;
#12 = AXIS2_PLACEMENT_3D ( 'NONE', #30, #126, #129 ) ;
#13 = DIRECTION ( 'NONE',  ( 0.0000000000000000000, 0.0000000000000000000, 1.000000000000000000 ) ) ;
#14 = LINE ( 'NONE', #235, #71 ) ;
#15 = EDGE_CURVE ( 'NONE', #237, #84, #299, .T. ) ;
#16 = DIRECTION ( 'NONE',  ( -1.224646799147353700E-16, -0.0000000000000000000, -1.000000000000000000 ) ) ;
#17 = ORIENTED_EDGE ( 'NONE', *, *, #152, .F. ) ;
#18 = CARTESIAN_POINT ( 'NONE',  ( -0.06250000000000002776, 0.0000000000000000000, 1.485000000000000764 ) ) ;
#19 = AXIS2_PLACEMENT_3D ( 'NONE', #113, #16, #277 ) ;
#20 = CARTESIAN_POINT ( 'NONE',  ( 0.006493500000000003609, 0.0000000000000000000, 0.01899999999999999953 ) ) ;
#21 = ORIENTED_EDGE ( 'NONE', *, *, #246, .T. ) ;
#22 = ORIENTED_EDGE ( 'NONE', *, *, #162, .F. ) ;
#23 = VERTEX_POINT ( 'NONE', #242 ) ;
#24 = AXIS2_PLACEMENT_3D ( 'NONE', #193, #243, #289 ) ;
#25 = CARTESIAN_POINT ( 'NONE',  ( 0.06250000000000002776, 7.654042494670959086E-18, 1.500000000000000222 ) ) ;
#26 = EDGE_CURVE ( 'NONE', #84, #265, #288, .T. ) ;
#27 = ORIENTED_EDGE ( 'NONE', *, *, #112, .F. ) ;
#28 = FACE_OUTER_BOUND ( 'NONE', #68, .T. ) ;
#29 = FACE_OUTER_BOUND ( 'NONE', #180, .T. ) ;
#30 = CARTESIAN_POINT ( 'NONE',  ( 2.326828918379971719E-18, 0.0000000000000000000, 0.01899999999999999953 ) ) ;
#31 = SURFACE_STYLE_USAGE ( .BOTH. , #224 ) ;
#32 = FACE_OUTER_BOUND ( 'NONE', #151, .T. ) ;
#33 = STYLED_ITEM ( 'NONE', ( #154 ), #89 ) ;
#34 = CYLINDRICAL_SURFACE ( 'NONE', #141, 0.06250000000000002776 ) ;
#35 = ADVANCED_FACE ( 'NONE', ( #28 ), #74, .T. ) ;
#36 = UNCERTAINTY_MEASURE_WITH_UNIT (LENGTH_MEASURE( 1.000000000000000082E-05 ), #102, 'distance_accuracy_value', 'NONE');
#37 = APPLICATION_PROTOCOL_DEFINITION ( 'draft international standard', 'automotive_design', 1998, #159 ) ;
#38 = ORIENTED_EDGE ( 'NONE', *, *, #236, .T. ) ;
#39 = CARTESIAN_POINT ( 'NONE',  ( 0.0000000000000000000, 0.0000000000000000000, 0.0000000000000000000 ) ) ;
#40 = ADVANCED_FACE ( 'NONE', ( #29 ), #260, .T. ) ;
#41 = CONICAL_SURFACE ( 'NONE', #263, 0.04750000000000064587, 0.7853981633974466137 ) ;
#42 = VECTOR ( 'NONE', #75, 39.37007874015748143 ) ;
#43 = DIRECTION ( 'NONE',  ( -1.224646799147353700E-16, -0.0000000000000000000, -1.000000000000000000 ) ) ;
#44 = CARTESIAN_POINT ( 'NONE',  ( 0.0000000000000000000, 0.0000000000000000000, 0.0000000000000000000 ) ) ;
#45 = ADVANCED_FACE ( 'NONE', ( #187 ), #41, .T. ) ;
#46 = CARTESIAN_POINT ( 'NONE',  ( 0.0000000000000000000, 0.0000000000000000000, 1.500000000000000222 ) ) ;
#47 = DIRECTION ( 'NONE',  ( -1.224646799147353700E-16, -0.0000000000000000000, -1.000000000000000000 ) ) ;
#48 = ORIENTED_EDGE ( 'NONE', *, *, #220, .F. ) ;
#49 = VERTEX_POINT ( 'NONE', #212 ) ;
#50 = DIRECTION ( 'NONE',  ( -1.000000000000000000, 0.0000000000000000000, 1.224646799147353454E-16 ) ) ;
#51 = AXIS2_PLACEMENT_3D ( 'NONE', #156, #272, #172 ) ;
#52 = DIRECTION ( 'NONE',  ( -1.224646799147353700E-16, -0.0000000000000000000, -1.000000000000000000 ) ) ;
#53 = ADVANCED_FACE ( 'NONE', ( #3 ), #122, .T. ) ;
#54 = CARTESIAN_POINT ( 'NONE',  ( -0.04750000000000064587, 0.0000000000000000000, 1.500000000000000222 ) ) ;
#55 = DIRECTION ( 'NONE',  ( 0.0000000000000000000, 0.0000000000000000000, -1.000000000000000000 ) ) ;
#56 =( GEOMETRIC_REPRESENTATION_CONTEXT ( 3 ) GLOBAL_UNCERTAINTY_ASSIGNED_CONTEXT ( ( #36 ) ) GLOBAL_UNIT_ASSIGNED_CONTEXT ( ( #102, #127, #76 ) ) REPRESENTATION_CONTEXT ( 'NONE', 'WORKASPACE' ) );
#57 = CYLINDRICAL_SURFACE ( 'NONE', #163, 0.06250000000000002776 ) ;
#58 =( LENGTH_UNIT ( ) NAMED_UNIT ( * ) SI_UNIT ( $, .METRE. ) );
#59 = ORIENTED_EDGE ( 'NONE', *, *, #286, .T. ) ;
#60 = CIRCLE ( 'NONE', #105, 0.06250000000000002776 ) ;
#61 = CARTESIAN_POINT ( 'NONE',  ( 0.0000000000000000000, 0.0000000000000000000, 1.500000000000000222 ) ) ;
#62 = DIRECTION ( 'NONE',  ( 1.000000000000000000, 0.0000000000000000000, 0.0000000000000000000 ) ) ;
#63 = ADVANCED_FACE ( 'NONE', ( #121 ), #79, .T. ) ;
#64 = ORIENTED_EDGE ( 'NONE', *, *, #258, .T. ) ;
#65 = DIRECTION ( 'NONE',  ( -1.224646799147353700E-16, -0.0000000000000000000, -1.000000000000000000 ) ) ;
#66 = ORIENTED_EDGE ( 'NONE', *, *, #130, .T. ) ;
#67 = AXIS2_PLACEMENT_3D ( 'NONE', #197, #13, #106 ) ;
#68 = EDGE_LOOP ( 'NONE', ( #171, #257 ) ) ;
#69 = EDGE_LOOP ( 'NONE', ( #189, #118, #66, #48 ) ) ;
#70 = MECHANICAL_DESIGN_GEOMETRIC_PRESENTATION_REPRESENTATION (  '', ( #33 ), #56 ) ;
#71 = VECTOR ( 'NONE', #139, 39.37007874015748854 ) ;
#72 = DIRECTION ( 'NONE',  ( -1.000000000000000000, 0.0000000000000000000, 0.0000000000000000000 ) ) ;
#73 = SHAPE_DEFINITION_REPRESENTATION ( #94, #161 ) ;
#74 = PLANE ( 'NONE',  #85 ) ;
#75 = DIRECTION ( 'NONE',  ( -1.224646799147353700E-16, -0.0000000000000000000, -1.000000000000000000 ) ) ;
#76 =( NAMED_UNIT ( * ) SI_UNIT ( $, .STERADIAN. ) SOLID_ANGLE_UNIT ( ) );
#77 = FILL_AREA_STYLE ('',( #157 ) ) ;
#78 = LINE ( 'NONE', #176, #42 ) ;
#79 = CONICAL_SURFACE ( 'NONE', #169, 0.04750000000000064587, 0.7853981633974466137 ) ;
#80 = PRESENTATION_LAYER_ASSIGNMENT (  '', '', ( #177 ) ) ;
#81 =( NAMED_UNIT ( * ) SI_UNIT ( $, .STERADIAN. ) SOLID_ANGLE_UNIT ( ) );
#82 = DIRECTION ( 'NONE',  ( -1.224646799147353700E-16, -0.0000000000000000000, -1.000000000000000000 ) ) ;
#83 = ORIENTED_EDGE ( 'NONE', *, *, #273, .F. ) ;
#84 = VERTEX_POINT ( 'NONE', #98 ) ;
#85 = AXIS2_PLACEMENT_3D ( 'NONE', #46, #101, #221 ) ;
#86 = AXIS2_PLACEMENT_3D ( 'NONE', #198, #9, #10 ) ;
#87 = ADVANCED_FACE ( 'NONE', ( #32 ), #196, .T. ) ;
#88 = CARTESIAN_POINT ( 'NONE',  ( 2.326828918379971719E-18, 0.0000000000000000000, 0.01899999999999999953 ) ) ;
#89 = MANIFOLD_SOLID_BREP ( 'Cut-Revolve1', #131 ) ;
#90 = LENGTH_MEASURE_WITH_UNIT ( LENGTH_MEASURE( 0.02539999999999999897 ), #58 );
#91 = EDGE_CURVE ( 'NONE', #192, #8, #199, .T. ) ;
#92 = PRODUCT_CONTEXT ( 'NONE', #159, 'mechanical' ) ;
#93 =( GEOMETRIC_REPRESENTATION_CONTEXT ( 3 ) GLOBAL_UNCERTAINTY_ASSIGNED_CONTEXT ( ( #185 ) ) GLOBAL_UNIT_ASSIGNED_CONTEXT ( ( #253, #183, #81 ) ) REPRESENTATION_CONTEXT ( 'NONE', 'WORKASPACE' ) );
#94 = PRODUCT_DEFINITION_SHAPE ( 'NONE', 'NONE',  #137 ) ;
#95 = ORIENTED_EDGE ( 'NONE', *, *, #236, .F. ) ;
#96 = LENGTH_MEASURE_WITH_UNIT ( LENGTH_MEASURE( 0.02539999999999999897 ), #264 );
#97 = VERTEX_POINT ( 'NONE', #103 ) ;
#98 = CARTESIAN_POINT ( 'NONE',  ( 0.06250000000000002776, 7.654042494670959086E-18, 1.485000000000000764 ) ) ;
#99 = PRODUCT_DEFINITION_FORMATION_WITH_SPECIFIED_SOURCE ( 'ANY', '', #117, .NOT_KNOWN. ) ;
#100 = ORIENTED_EDGE ( 'NONE', *, *, #276, .T. ) ;
#101 = DIRECTION ( 'NONE',  ( 0.0000000000000000000, 0.0000000000000000000, 1.000000000000000000 ) ) ;
#102 =( CONVERSION_BASED_UNIT ( 'INCH', #250 ) LENGTH_UNIT ( ) NAMED_UNIT ( #119 ) );
#103 = CARTESIAN_POINT ( 'NONE',  ( 0.04750000000000064587, 6.735557395310483192E-18, 1.500000000000000222 ) ) ;
#104 = FACE_OUTER_BOUND ( 'NONE', #204, .T. ) ;
#105 = AXIS2_PLACEMENT_3D ( 'NONE', #270, #55, #222 ) ;
#106 = DIRECTION ( 'NONE',  ( 1.000000000000000000, 0.0000000000000000000, 0.0000000000000000000 ) ) ;
#107 = DIRECTION ( 'NONE',  ( -1.224646799147353700E-16, -0.0000000000000000000, -1.000000000000000000 ) ) ;
#108 = ORIENTED_EDGE ( 'NONE', *, *, #220, .T. ) ;
#109 = DIRECTION ( 'NONE',  ( -1.000000000000000000, 0.0000000000000000000, 0.0000000000000000000 ) ) ;
#110 = AXIS2_PLACEMENT_3D ( 'NONE', #280, #111, #136 ) ;
#111 = DIRECTION ( 'NONE',  ( 0.0000000000000000000, 0.0000000000000000000, 1.000000000000000000 ) ) ;
#112 = EDGE_CURVE ( 'NONE', #230, #265, #292, .T. ) ;
#113 = CARTESIAN_POINT ( 'NONE',  ( 4.122511928827411493E-17, 0.0000000000000000000, 0.3366286452304176890 ) ) ;
#114 = EDGE_LOOP ( 'NONE', ( #216, #208, #267, #108 ) ) ;
#115 = DIRECTION ( 'NONE',  ( 0.0000000000000000000, 0.0000000000000000000, -1.000000000000000000 ) ) ;
#116 = AXIS2_PLACEMENT_3D ( 'NONE', #11, #52, #50 ) ;
#117 = PRODUCT ( 'Micro_SME-013-2', 'Micro_SME-013-2', '', ( #92 ) ) ;
#118 = ORIENTED_EDGE ( 'NONE', *, *, #152, .T. ) ;
#119 = DIMENSIONAL_EXPONENTS ( 1.000000000000000000, 0.0000000000000000000, 0.0000000000000000000, 0.0000000000000000000, 0.0000000000000000000, 0.0000000000000000000, 0.0000000000000000000 ) ;
#120 = DIRECTION ( 'NONE',  ( -1.000000000000000000, 0.0000000000000000000, 0.0000000000000000000 ) ) ;
#121 = FACE_OUTER_BOUND ( 'NONE', #143, .T. ) ;
#122 = CONICAL_SURFACE ( 'NONE', #227, 0.006493500000000001007, 0.1745329251994338637 ) ;
#123 = SURFACE_STYLE_USAGE ( .BOTH. , #215 ) ;
#124 = DIRECTION ( 'NONE',  ( -1.000000000000000000, 0.0000000000000000000, 1.224646799147353454E-16 ) ) ;
#125 = PRODUCT_RELATED_PRODUCT_CATEGORY ( 'part', '', ( #117 ) ) ;
#126 = DIRECTION ( 'NONE',  ( 1.224646799147353700E-16, 0.0000000000000000000, 1.000000000000000000 ) ) ;
#127 =( NAMED_UNIT ( * ) PLANE_ANGLE_UNIT ( ) SI_UNIT ( $, .RADIAN. ) );
#128 = DIRECTION ( 'NONE',  ( -0.7071067811865462405, 0.0000000000000000000, -0.7071067811865486830 ) ) ;
#129 = DIRECTION ( 'NONE',  ( 1.000000000000000000, 0.0000000000000000000, 0.0000000000000000000 ) ) ;
#130 = EDGE_CURVE ( 'NONE', #237, #49, #175, .T. ) ;
#131 = CLOSED_SHELL ( 'NONE', ( #40, #144, #45, #178, #213, #35, #63, #53, #87, #295 ) ) ;
#132 = FACE_OUTER_BOUND ( 'NONE', #134, .T. ) ;
#133 = FILL_AREA_STYLE_COLOUR ( '', #271 ) ;
#134 = EDGE_LOOP ( 'NONE', ( #233, #138, #95, #239 ) ) ;
#135 = VECTOR ( 'NONE', #181, 39.37007874015747433 ) ;
#136 = DIRECTION ( 'NONE',  ( 1.000000000000000000, 0.0000000000000000000, 0.0000000000000000000 ) ) ;
#137 = PRODUCT_DEFINITION ( 'UNKNOWN', '', #99, #281 ) ;
#138 = ORIENTED_EDGE ( 'NONE', *, *, #26, .T. ) ;
#139 = DIRECTION ( 'NONE',  ( 0.7071067811865462405, 8.659560562354916834E-17, -0.7071067811865486830 ) ) ;
#140 = DIRECTION ( 'NONE',  ( 0.0000000000000000000, 0.0000000000000000000, 1.000000000000000000 ) ) ;
#141 = AXIS2_PLACEMENT_3D ( 'NONE', #61, #202, #228 ) ;
#142 = CARTESIAN_POINT ( 'NONE',  ( 4.122511928827411493E-17, 0.0000000000000000000, 0.3366286452304176890 ) ) ;
#143 = EDGE_LOOP ( 'NONE', ( #164, #22, #252, #17 ) ) ;
#144 = ADVANCED_FACE ( 'NONE', ( #104 ), #153, .T. ) ;
#145 = ORIENTED_EDGE ( 'NONE', *, *, #91, .F. ) ;
#146 = DIRECTION ( 'NONE',  ( 1.224646799147353700E-16, 0.0000000000000000000, 1.000000000000000000 ) ) ;
#147 =( NAMED_UNIT ( * ) PLANE_ANGLE_UNIT ( ) SI_UNIT ( $, .RADIAN. ) );
#148 = CARTESIAN_POINT ( 'NONE',  ( 0.0000000000000000000, 0.0000000000000000000, 1.500000000000000222 ) ) ;
#149 = ORIENTED_EDGE ( 'NONE', *, *, #201, .F. ) ;
#150 = DIMENSIONAL_EXPONENTS ( 1.000000000000000000, 0.0000000000000000000, 0.0000000000000000000, 0.0000000000000000000, 0.0000000000000000000, 0.0000000000000000000, 0.0000000000000000000 ) ;
#151 = EDGE_LOOP ( 'NONE', ( #218, #100, #5, #167 ) ) ;
#152 = EDGE_CURVE ( 'NONE', #84, #237, #60, .T. ) ;
#153 = CONICAL_SURFACE ( 'NONE', #12, 0.006493500000000001007, 0.1745329251994338637 ) ;
#154 = PRESENTATION_STYLE_ASSIGNMENT (( #31 ) ) ;
#155 = DIRECTION ( 'NONE',  ( 0.1736481776669313581, 0.0000000000000000000, 0.9848077530122077983 ) ) ;
#156 = CARTESIAN_POINT ( 'NONE',  ( 9.738690148714777156E-35, 0.0000000000000000000, 7.952243990263337560E-19 ) ) ;
#157 = FILL_AREA_STYLE_COLOUR ( '', #240 ) ;
#158 = CIRCLE ( 'NONE', #19, 0.06250000000000002776 ) ;
#159 = APPLICATION_CONTEXT ( 'automotive_design' ) ;
#160 = DIRECTION ( 'NONE',  ( -0.0000000000000000000, -0.0000000000000000000, -1.000000000000000000 ) ) ;
#161 = ADVANCED_BREP_SHAPE_REPRESENTATION ( 'Micro_SME-013-2', ( #89, #67 ), #93 ) ;
#162 = EDGE_CURVE ( 'NONE', #168, #97, #173, .T. ) ;
#163 = AXIS2_PLACEMENT_3D ( 'NONE', #247, #160, #290 ) ;
#164 = ORIENTED_EDGE ( 'NONE', *, *, #225, .F. ) ;
#165 = DIRECTION ( 'NONE',  ( -1.000000000000000000, 0.0000000000000000000, 0.0000000000000000000 ) ) ;
#166 = ORIENTED_EDGE ( 'NONE', *, *, #91, .T. ) ;
#167 = ORIENTED_EDGE ( 'NONE', *, *, #286, .F. ) ;
#168 = VERTEX_POINT ( 'NONE', #194 ) ;
#169 = AXIS2_PLACEMENT_3D ( 'NONE', #148, #241, #120 ) ;
#170 = DIRECTION ( 'NONE',  ( -0.0000000000000000000, -0.0000000000000000000, -1.000000000000000000 ) ) ;
#171 = ORIENTED_EDGE ( 'NONE', *, *, #162, .T. ) ;
#172 = DIRECTION ( 'NONE',  ( -1.000000000000000000, 0.0000000000000000000, 1.224646799147353700E-16 ) ) ;
#173 = CIRCLE ( 'NONE', #86, 0.04750000000000064587 ) ;
#174 = SURFACE_STYLE_FILL_AREA ( #77 ) ;
#175 = LINE ( 'NONE', #245, #291 ) ;
#176 = CARTESIAN_POINT ( 'NONE',  ( -0.006493499999999999273, 0.0000000000000000000, 7.952243990263339486E-19 ) ) ;
#177 = STYLED_ITEM ( 'NONE', ( #259 ), #161 ) ;
#178 = ADVANCED_FACE ( 'NONE', ( #132 ), #57, .T. ) ;
#179 = LINE ( 'NONE', #182, #282 ) ;
#180 = EDGE_LOOP ( 'NONE', ( #275, #64, #145, #149 ) ) ;
#181 = DIRECTION ( 'NONE',  ( -0.1736481776669311639, 2.126576849575783008E-17, 0.9848077530122080203 ) ) ;
#182 = CARTESIAN_POINT ( 'NONE',  ( 0.006493499999999999273, 7.952243990263336597E-19, -7.952243990263339486E-19 ) ) ;
#183 =( NAMED_UNIT ( * ) PLANE_ANGLE_UNIT ( ) SI_UNIT ( $, .RADIAN. ) );
#184 = PRESENTATION_LAYER_ASSIGNMENT (  '', '', ( #33 ) ) ;
#185 = UNCERTAINTY_MEASURE_WITH_UNIT (LENGTH_MEASURE( 1.000000000000000082E-05 ), #253, 'distance_accuracy_value', 'NONE');
#186 = APPLICATION_PROTOCOL_DEFINITION ( 'draft international standard', 'automotive_design', 1998, #234 ) ;
#187 = FACE_OUTER_BOUND ( 'NONE', #6, .T. ) ;
#188 = EDGE_CURVE ( 'NONE', #168, #237, #269, .T. ) ;
#189 = ORIENTED_EDGE ( 'NONE', *, *, #26, .F. ) ;
#190 = AXIS2_PLACEMENT_3D ( 'NONE', #44, #47, #124 ) ;
#191 = VECTOR ( 'NONE', #128, 39.37007874015748854 ) ;
#192 = VERTEX_POINT ( 'NONE', #293 ) ;
#193 = CARTESIAN_POINT ( 'NONE',  ( 0.0000000000000000000, 0.0000000000000000000, 1.485000000000000764 ) ) ;
#194 = CARTESIAN_POINT ( 'NONE',  ( -0.04750000000000064587, 0.0000000000000000000, 1.500000000000000222 ) ) ;
#195 = DIMENSIONAL_EXPONENTS ( 1.000000000000000000, 0.0000000000000000000, 0.0000000000000000000, 0.0000000000000000000, 0.0000000000000000000, 0.0000000000000000000, 0.0000000000000000000 ) ;
#196 = CYLINDRICAL_SURFACE ( 'NONE', #116, 0.006493499999999999273 ) ;
#197 = CARTESIAN_POINT ( 'NONE',  ( 0.0000000000000000000, 0.0000000000000000000, 0.0000000000000000000 ) ) ;
#198 = CARTESIAN_POINT ( 'NONE',  ( 0.0000000000000000000, 0.0000000000000000000, 1.500000000000000222 ) ) ;
#199 = CIRCLE ( 'NONE', #51, 0.006493499999999996670 ) ;
#200 =( GEOMETRIC_REPRESENTATION_CONTEXT ( 3 ) GLOBAL_UNCERTAINTY_ASSIGNED_CONTEXT ( ( #209 ) ) GLOBAL_UNIT_ASSIGNED_CONTEXT ( ( #284, #147, #266 ) ) REPRESENTATION_CONTEXT ( 'NONE', 'WORKASPACE' ) );
#201 = EDGE_CURVE ( 'NONE', #23, #192, #78, .T. ) ;
#202 = DIRECTION ( 'NONE',  ( -0.0000000000000000000, -0.0000000000000000000, -1.000000000000000000 ) ) ;
#203 = EDGE_LOOP ( 'NONE', ( #166, #59 ) ) ;
#204 = EDGE_LOOP ( 'NONE', ( #83, #21, #38, #27 ) ) ;
#205 = CARTESIAN_POINT ( 'NONE',  ( 2.326828918379971719E-18, 0.0000000000000000000, 0.01899999999999999953 ) ) ;
#206 = CIRCLE ( 'NONE', #7, 0.06250000000000002776 ) ;
#207 = CARTESIAN_POINT ( 'NONE',  ( -0.006493499999999999273, 7.952243990263339486E-19, 0.01899999999999999953 ) ) ;
#208 = ORIENTED_EDGE ( 'NONE', *, *, #276, .F. ) ;
#209 = UNCERTAINTY_MEASURE_WITH_UNIT (LENGTH_MEASURE( 1.000000000000000082E-05 ), #284, 'distance_accuracy_value', 'NONE');
#210 = CARTESIAN_POINT ( 'NONE',  ( 0.06250000000000006939, 7.654042494670963708E-18, 0.3366286452304176890 ) ) ;
#211 = ORIENTED_EDGE ( 'NONE', *, *, #254, .F. ) ;
#212 = CARTESIAN_POINT ( 'NONE',  ( -0.06249999999999997918, 0.0000000000000000000, 0.3366286452304176890 ) ) ;
#213 = ADVANCED_FACE ( 'NONE', ( #251 ), #34, .T. ) ;
#214 = CIRCLE ( 'NONE', #278, 0.006493499999999996670 ) ;
#215 = SURFACE_SIDE_STYLE ('',( #238 ) ) ;
#216 = ORIENTED_EDGE ( 'NONE', *, *, #246, .F. ) ;
#217 = ORIENTED_EDGE ( 'NONE', *, *, #225, .T. ) ;
#218 = ORIENTED_EDGE ( 'NONE', *, *, #258, .F. ) ;
#219 = AXIS2_PLACEMENT_3D ( 'NONE', #88, #107, #109 ) ;
#220 = EDGE_CURVE ( 'NONE', #265, #49, #206, .T. ) ;
#221 = DIRECTION ( 'NONE',  ( 1.000000000000000000, 0.0000000000000000000, -0.0000000000000000000 ) ) ;
#222 = DIRECTION ( 'NONE',  ( 1.000000000000000000, 0.0000000000000000000, 0.0000000000000000000 ) ) ;
#223 = VECTOR ( 'NONE', #170, 39.37007874015748143 ) ;
#224 = SURFACE_SIDE_STYLE ('',( #174 ) ) ;
#225 = EDGE_CURVE ( 'NONE', #97, #84, #14, .T. ) ;
#226 =( LENGTH_UNIT ( ) NAMED_UNIT ( * ) SI_UNIT ( $, .METRE. ) );
#227 = AXIS2_PLACEMENT_3D ( 'NONE', #4, #146, #262 ) ;
#228 = DIRECTION ( 'NONE',  ( -1.000000000000000000, 0.0000000000000000000, 0.0000000000000000000 ) ) ;
#229 = CIRCLE ( 'NONE', #219, 0.006493500000000001007 ) ;
#230 = VERTEX_POINT ( 'NONE', #20 ) ;
#231 = CARTESIAN_POINT ( 'NONE',  ( 9.738690148714777156E-35, 0.0000000000000000000, 7.952243990263337560E-19 ) ) ;
#232 = DIRECTION ( 'NONE',  ( 1.000000000000000000, 0.0000000000000000000, -0.0000000000000000000 ) ) ;
#233 = ORIENTED_EDGE ( 'NONE', *, *, #15, .T. ) ;
#234 = APPLICATION_CONTEXT ( 'automotive_design' ) ;
#235 = CARTESIAN_POINT ( 'NONE',  ( 0.04750000000000064587, 5.817072295950006528E-18, 1.500000000000000222 ) ) ;
#236 = EDGE_CURVE ( 'NONE', #49, #265, #158, .T. ) ;
#237 = VERTEX_POINT ( 'NONE', #18 ) ;
#238 = SURFACE_STYLE_FILL_AREA ( #1 ) ;
#239 = ORIENTED_EDGE ( 'NONE', *, *, #130, .F. ) ;
#240 = COLOUR_RGB ( '',0.7921568627450980005, 0.8196078431372548767, 0.9333333333333333481 ) ;
#241 = DIRECTION ( 'NONE',  ( 0.0000000000000000000, 0.0000000000000000000, -1.000000000000000000 ) ) ;
#242 = CARTESIAN_POINT ( 'NONE',  ( -0.006493499999999999273, 4.224633446848647287E-18, 0.01899999999999999953 ) ) ;
#243 = DIRECTION ( 'NONE',  ( 0.0000000000000000000, 0.0000000000000000000, -1.000000000000000000 ) ) ;
#244 = VECTOR ( 'NONE', #155, 39.37007874015748143 ) ;
#245 = CARTESIAN_POINT ( 'NONE',  ( -0.06250000000000002776, 0.0000000000000000000, 1.500000000000000222 ) ) ;
#246 = EDGE_CURVE ( 'NONE', #23, #49, #279, .T. ) ;
#247 = CARTESIAN_POINT ( 'NONE',  ( 0.0000000000000000000, 0.0000000000000000000, 1.500000000000000222 ) ) ;
#248 = DIRECTION ( 'NONE',  ( -0.0000000000000000000, -0.0000000000000000000, -1.000000000000000000 ) ) ;
#249 = AXIS2_PLACEMENT_3D ( 'NONE', #205, #65, #165 ) ;
#250 = LENGTH_MEASURE_WITH_UNIT ( LENGTH_MEASURE( 0.02539999999999999897 ), #226 );
#251 = FACE_OUTER_BOUND ( 'NONE', #69, .T. ) ;
#252 = ORIENTED_EDGE ( 'NONE', *, *, #188, .T. ) ;
#253 =( CONVERSION_BASED_UNIT ( 'INCH', #90 ) LENGTH_UNIT ( ) NAMED_UNIT ( #150 ) );
#254 = EDGE_CURVE ( 'NONE', #97, #168, #287, .T. ) ;
#255 = PLANE ( 'NONE',  #296 ) ;
#256 = MECHANICAL_DESIGN_GEOMETRIC_PRESENTATION_REPRESENTATION (  '', ( #177 ), #200 ) ;
#257 = ORIENTED_EDGE ( 'NONE', *, *, #254, .T. ) ;
#258 = EDGE_CURVE ( 'NONE', #230, #8, #179, .T. ) ;
#259 = PRESENTATION_STYLE_ASSIGNMENT (( #123 ) ) ;
#260 = CYLINDRICAL_SURFACE ( 'NONE', #190, 0.006493499999999999273 ) ;
#261 = CARTESIAN_POINT ( 'NONE',  ( 0.006493499999999996670, 7.952243990263335634E-19, 1.184750211852384294E-34 ) ) ;
#262 = DIRECTION ( 'NONE',  ( 1.000000000000000000, 0.0000000000000000000, 0.0000000000000000000 ) ) ;
#263 = AXIS2_PLACEMENT_3D ( 'NONE', #283, #115, #72 ) ;
#264 =( LENGTH_UNIT ( ) NAMED_UNIT ( * ) SI_UNIT ( $, .METRE. ) );
#265 = VERTEX_POINT ( 'NONE', #210 ) ;
#266 =( NAMED_UNIT ( * ) SI_UNIT ( $, .STERADIAN. ) SOLID_ANGLE_UNIT ( ) );
#267 = ORIENTED_EDGE ( 'NONE', *, *, #112, .T. ) ;
#268 = CARTESIAN_POINT ( 'NONE',  ( 0.006493500000000003609, 0.0000000000000000000, 0.01899999999999999953 ) ) ;
#269 = LINE ( 'NONE', #54, #191 ) ;
#270 = CARTESIAN_POINT ( 'NONE',  ( 0.0000000000000000000, 0.0000000000000000000, 1.485000000000000764 ) ) ;
#271 = COLOUR_RGB ( '',0.7921568627450980005, 0.8196078431372548767, 0.9333333333333333481 ) ;
#272 = DIRECTION ( 'NONE',  ( -1.224646799147353700E-16, -0.0000000000000000000, -1.000000000000000000 ) ) ;
#273 = EDGE_CURVE ( 'NONE', #23, #230, #229, .T. ) ;
#274 = DIRECTION ( 'NONE',  ( -1.224646799147353700E-16, -0.0000000000000000000, -1.000000000000000000 ) ) ;
#275 = ORIENTED_EDGE ( 'NONE', *, *, #273, .T. ) ;
#276 = EDGE_CURVE ( 'NONE', #230, #23, #2, .T. ) ;
#277 = DIRECTION ( 'NONE',  ( 1.000000000000000000, 0.0000000000000000000, 0.0000000000000000000 ) ) ;
#278 = AXIS2_PLACEMENT_3D ( 'NONE', #231, #82, #294 ) ;
#279 = LINE ( 'NONE', #207, #135 ) ;
#280 = CARTESIAN_POINT ( 'NONE',  ( 0.0000000000000000000, 0.0000000000000000000, 1.500000000000000222 ) ) ;
#281 = PRODUCT_DEFINITION_CONTEXT ( 'detailed design', #234, 'design' ) ;
#282 = VECTOR ( 'NONE', #274, 39.37007874015748143 ) ;
#283 = CARTESIAN_POINT ( 'NONE',  ( 0.0000000000000000000, 0.0000000000000000000, 1.500000000000000222 ) ) ;
#284 =( CONVERSION_BASED_UNIT ( 'INCH', #96 ) LENGTH_UNIT ( ) NAMED_UNIT ( #195 ) );
#285 = ORIENTED_EDGE ( 'NONE', *, *, #188, .F. ) ;
#286 = EDGE_CURVE ( 'NONE', #8, #192, #214, .T. ) ;
#287 = CIRCLE ( 'NONE', #110, 0.04750000000000064587 ) ;
#288 = LINE ( 'NONE', #25, #223 ) ;
#289 = DIRECTION ( 'NONE',  ( 1.000000000000000000, 0.0000000000000000000, 0.0000000000000000000 ) ) ;
#290 = DIRECTION ( 'NONE',  ( -1.000000000000000000, 0.0000000000000000000, 0.0000000000000000000 ) ) ;
#291 = VECTOR ( 'NONE', #248, 39.37007874015748143 ) ;
#292 = LINE ( 'NONE', #268, #244 ) ;
#293 = CARTESIAN_POINT ( 'NONE',  ( -0.006493499999999996670, 0.0000000000000000000, 1.590448798052667512E-18 ) ) ;
#294 = DIRECTION ( 'NONE',  ( -1.000000000000000000, 0.0000000000000000000, 1.224646799147353700E-16 ) ) ;
#295 = ADVANCED_FACE ( 'NONE', ( #297 ), #255, .F. ) ;
#296 = AXIS2_PLACEMENT_3D ( 'NONE', #39, #140, #232 ) ;
#297 = FACE_OUTER_BOUND ( 'NONE', #203, .T. ) ;
#298 = ORIENTED_EDGE ( 'NONE', *, *, #15, .F. ) ;
#299 = CIRCLE ( 'NONE', #24, 0.06250000000000002776 ) ;
ENDSEC;
END-ISO-10303-21;
