ISO-10303-21;
HEADER;
FILE_DESCRIPTION (( 'STEP AP214' ),
    '1' );
FILE_NAME ('00122.STEP',
    '2023-06-22T14:03:10',
    ( '' ),
    ( '' ),
    'SwSTEP 2.0',
    'SolidWorks 2023',
    '' );
FILE_SCHEMA (( 'AUTOMOTIVE_DESIGN' ));
ENDSEC;

DATA;
#1 = DIRECTION ( 'NONE',  ( -0.000000000000000000, -1.000000000000000000, -0.000000000000000000 ) ) ;
#2 = APPLICATION_CONTEXT ( 'automotive_design' ) ;
#3 = VECTOR ( 'NONE', #118, 39.37007874015748143 ) ;
#4 = EDGE_CURVE ( 'NONE', #85, #115, #242, .T. ) ;
#5 = EDGE_LOOP ( 'NONE', ( #250, #11, #243, #181 ) ) ;
#6 = EDGE_CURVE ( 'NONE', #115, #85, #229, .T. ) ;
#7 = MECHANICAL_DESIGN_GEOMETRIC_PRESENTATION_REPRESENTATION (  '', ( #260 ), #27 ) ;
#8 = CARTESIAN_POINT ( 'NONE',  ( 0.000000000000000000, 0.000000000000000000, 0.000000000000000000 ) ) ;
#9 = DIRECTION ( 'NONE',  ( 0.000000000000000000, 1.000000000000000000, 0.000000000000000000 ) ) ;
#10 = SURFACE_SIDE_STYLE ('',( #156 ) ) ;
#11 = ORIENTED_EDGE ( 'NONE', *, *, #92, .T. ) ;
#12 = PRODUCT ( '00122', '00122', '', ( #29 ) ) ;
#13 = COLOUR_RGB ( '',1.000000000000000000, 0.000000000000000000, 0.000000000000000000 ) ;
#14 = SURFACE_STYLE_FILL_AREA ( #283 ) ;
#15 = CARTESIAN_POINT ( 'NONE',  ( 0.000000000000000000, 0.000000000000000000, 0.000000000000000000 ) ) ;
#16 = ORIENTED_EDGE ( 'NONE', *, *, #4, .T. ) ;
#17 = PRESENTATION_STYLE_ASSIGNMENT (( #225 ) ) ;
#18 = LENGTH_MEASURE_WITH_UNIT ( LENGTH_MEASURE( 0.02539999999999999897 ), #54 );
#19 = SURFACE_SIDE_STYLE ('',( #110 ) ) ;
#20 = ORIENTED_EDGE ( 'NONE', *, *, #4, .F. ) ;
#21 = UNCERTAINTY_MEASURE_WITH_UNIT (LENGTH_MEASURE( 1.000000000000000082E-05 ), #134, 'distance_accuracy_value', 'NONE');
#22 = FILL_AREA_STYLE_COLOUR ( '', #236 ) ;
#23 = DIRECTION ( 'NONE',  ( 0.000000000000000000, 0.000000000000000000, -1.000000000000000000 ) ) ;
#24 = DIRECTION ( 'NONE',  ( -0.000000000000000000, -1.000000000000000000, -0.000000000000000000 ) ) ;
#25 =( LENGTH_UNIT ( ) NAMED_UNIT ( * ) SI_UNIT ( $, .METRE. ) );
#26 = UNCERTAINTY_MEASURE_WITH_UNIT (LENGTH_MEASURE( 1.000000000000000082E-05 ), #73, 'distance_accuracy_value', 'NONE');
#27 =( GEOMETRIC_REPRESENTATION_CONTEXT ( 3 ) GLOBAL_UNCERTAINTY_ASSIGNED_CONTEXT ( ( #285 ) ) GLOBAL_UNIT_ASSIGNED_CONTEXT ( ( #197, #30, #174 ) ) REPRESENTATION_CONTEXT ( 'NONE', 'WORKASPACE' ) );
#28 = ORIENTED_EDGE ( 'NONE', *, *, #151, .T. ) ;
#29 = PRODUCT_CONTEXT ( 'NONE', #176, 'mechanical' ) ;
#30 =( NAMED_UNIT ( * ) PLANE_ANGLE_UNIT ( ) SI_UNIT ( $, .RADIAN. ) );
#31 = MECHANICAL_DESIGN_GEOMETRIC_PRESENTATION_REPRESENTATION (  '', ( #304 ), #99 ) ;
#32 = STYLED_ITEM ( 'NONE', ( #17 ), #144 ) ;
#33 = CARTESIAN_POINT ( 'NONE',  ( 0.09374999999999997224, 2.500000000000000000, 1.148106374200644171E-17 ) ) ;
#34 = PRODUCT_RELATED_PRODUCT_CATEGORY ( 'part', '', ( #12 ) ) ;
#35 = SURFACE_SIDE_STYLE ('',( #230 ) ) ;
#36 = EDGE_LOOP ( 'NONE', ( #184, #259 ) ) ;
#37 = CARTESIAN_POINT ( 'NONE',  ( 0.000000000000000000, 0.000000000000000000, 0.000000000000000000 ) ) ;
#38 = CYLINDRICAL_SURFACE ( 'NONE', #190, 0.09375000000000001388 ) ;
#39 = PLANE ( 'NONE',  #185 ) ;
#40 = VECTOR ( 'NONE', #279, 39.37007874015748143 ) ;
#41 =( CONVERSION_BASED_UNIT ( 'INCH', #111 ) LENGTH_UNIT ( ) NAMED_UNIT ( #68 ) );
#42 = FACE_OUTER_BOUND ( 'NONE', #297, .T. ) ;
#43 = DIRECTION ( 'NONE',  ( -1.000000000000000000, 0.000000000000000000, 0.000000000000000000 ) ) ;
#44 =( NAMED_UNIT ( * ) SI_UNIT ( $, .STERADIAN. ) SOLID_ANGLE_UNIT ( ) );
#45 = PRESENTATION_STYLE_ASSIGNMENT (( #129 ) ) ;
#46 = ADVANCED_FACE ( 'NONE', ( #253 ), #39, .T. ) ;
#47 = CARTESIAN_POINT ( 'NONE',  ( 0.000000000000000000, 0.7500000000000001110, 0.000000000000000000 ) ) ;
#48 = FILL_AREA_STYLE_COLOUR ( '', #287 ) ;
#49 = AXIS2_PLACEMENT_3D ( 'NONE', #222, #9, #86 ) ;
#50 = SURFACE_STYLE_USAGE ( .BOTH. , #288 ) ;
#51 = DIMENSIONAL_EXPONENTS ( 1.000000000000000000, 0.000000000000000000, 0.000000000000000000, 0.000000000000000000, 0.000000000000000000, 0.000000000000000000, 0.000000000000000000 ) ;
#52 = DIRECTION ( 'NONE',  ( -1.000000000000000000, -3.498990854706722745E-17, 0.000000000000000000 ) ) ;
#53 =( NAMED_UNIT ( * ) SI_UNIT ( $, .STERADIAN. ) SOLID_ANGLE_UNIT ( ) );
#54 =( LENGTH_UNIT ( ) NAMED_UNIT ( * ) SI_UNIT ( $, .METRE. ) );
#55 = ORIENTED_EDGE ( 'NONE', *, *, #6, .F. ) ;
#56 = EDGE_CURVE ( 'NONE', #203, #64, #219, .T. ) ;
#57 =( LENGTH_UNIT ( ) NAMED_UNIT ( * ) SI_UNIT ( $, .METRE. ) );
#58 = FILL_AREA_STYLE_COLOUR ( '', #13 ) ;
#59 = CARTESIAN_POINT ( 'NONE',  ( -7.582401355855259480E-33, 0.7499999999999998890, 0.000000000000000000 ) ) ;
#60 = MANIFOLD_SOLID_BREP ( 'Revolve - Cutting Edge', #195 ) ;
#61 =( LENGTH_UNIT ( ) NAMED_UNIT ( * ) SI_UNIT ( $, .METRE. ) );
#62 = CARTESIAN_POINT ( 'NONE',  ( -7.582401355855259480E-33, 0.7499999999999998890, 0.000000000000000000 ) ) ;
#63 = STYLED_ITEM ( 'NONE', ( #45 ), #46 ) ;
#64 = VERTEX_POINT ( 'NONE', #119 ) ;
#65 = CARTESIAN_POINT ( 'NONE',  ( 0.000000000000000000, 0.000000000000000000, 0.000000000000000000 ) ) ;
#66 = PRESENTATION_LAYER_ASSIGNMENT (  '', '', ( #260 ) ) ;
#67 =( NAMED_UNIT ( * ) PLANE_ANGLE_UNIT ( ) SI_UNIT ( $, .RADIAN. ) );
#68 = DIMENSIONAL_EXPONENTS ( 1.000000000000000000, 0.000000000000000000, 0.000000000000000000, 0.000000000000000000, 0.000000000000000000, 0.000000000000000000, 0.000000000000000000 ) ;
#69 = CARTESIAN_POINT ( 'NONE',  ( 0.000000000000000000, 0.000000000000000000, 0.000000000000000000 ) ) ;
#70 = DIMENSIONAL_EXPONENTS ( 1.000000000000000000, 0.000000000000000000, 0.000000000000000000, 0.000000000000000000, 0.000000000000000000, 0.000000000000000000, 0.000000000000000000 ) ;
#71 = UNCERTAINTY_MEASURE_WITH_UNIT (LENGTH_MEASURE( 1.000000000000000082E-05 ), #305, 'distance_accuracy_value', 'NONE');
#72 = AXIS2_PLACEMENT_3D ( 'NONE', #62, #158, #43 ) ;
#73 =( CONVERSION_BASED_UNIT ( 'INCH', #189 ) LENGTH_UNIT ( ) NAMED_UNIT ( #70 ) );
#74 = CYLINDRICAL_SURFACE ( 'NONE', #77, 0.09375000000000004163 ) ;
#75 = DIRECTION ( 'NONE',  ( 1.000000000000000000, 0.000000000000000000, 0.000000000000000000 ) ) ;
#76 = ORIENTED_EDGE ( 'NONE', *, *, #6, .T. ) ;
#77 = AXIS2_PLACEMENT_3D ( 'NONE', #145, #293, #173 ) ;
#78 = SURFACE_STYLE_USAGE ( .BOTH. , #10 ) ;
#79 = CARTESIAN_POINT ( 'NONE',  ( 1.148106374200643863E-17, 0.000000000000000000, 0.09375000000000001388 ) ) ;
#80 = FACE_OUTER_BOUND ( 'NONE', #36, .T. ) ;
#81 = CARTESIAN_POINT ( 'NONE',  ( 0.000000000000000000, 0.000000000000000000, -0.09375000000000001388 ) ) ;
#82 = EDGE_LOOP ( 'NONE', ( #235, #28, #113, #182 ) ) ;
#83 = EDGE_CURVE ( 'NONE', #280, #301, #271, .T. ) ;
#84 = FILL_AREA_STYLE_COLOUR ( '', #298 ) ;
#85 = VERTEX_POINT ( 'NONE', #216 ) ;
#86 = DIRECTION ( 'NONE',  ( 0.000000000000000000, -0.000000000000000000, 1.000000000000000000 ) ) ;
#87 = FACE_OUTER_BOUND ( 'NONE', #101, .T. ) ;
#88 = PRESENTATION_STYLE_ASSIGNMENT (( #299 ) ) ;
#89 = AXIS2_PLACEMENT_3D ( 'NONE', #37, #133, #124 ) ;
#90 = ORIENTED_EDGE ( 'NONE', *, *, #97, .T. ) ;
#91 = DIMENSIONAL_EXPONENTS ( 1.000000000000000000, 0.000000000000000000, 0.000000000000000000, 0.000000000000000000, 0.000000000000000000, 0.000000000000000000, 0.000000000000000000 ) ;
#92 = EDGE_CURVE ( 'NONE', #284, #301, #95, .T. ) ;
#93 =( GEOMETRIC_REPRESENTATION_CONTEXT ( 3 ) GLOBAL_UNCERTAINTY_ASSIGNED_CONTEXT ( ( #71 ) ) GLOBAL_UNIT_ASSIGNED_CONTEXT ( ( #305, #231, #224 ) ) REPRESENTATION_CONTEXT ( 'NONE', 'WORKASPACE' ) );
#94 = SURFACE_STYLE_FILL_AREA ( #213 ) ;
#95 = LINE ( 'NONE', #169, #3 ) ;
#96 = DIMENSIONAL_EXPONENTS ( 1.000000000000000000, 0.000000000000000000, 0.000000000000000000, 0.000000000000000000, 0.000000000000000000, 0.000000000000000000, 0.000000000000000000 ) ;
#97 = EDGE_CURVE ( 'NONE', #64, #203, #268, .T. ) ;
#98 = DIRECTION ( 'NONE',  ( 0.000000000000000000, 0.000000000000000000, -1.000000000000000000 ) ) ;
#99 =( GEOMETRIC_REPRESENTATION_CONTEXT ( 3 ) GLOBAL_UNCERTAINTY_ASSIGNED_CONTEXT ( ( #26 ) ) GLOBAL_UNIT_ASSIGNED_CONTEXT ( ( #73, #67, #161 ) ) REPRESENTATION_CONTEXT ( 'NONE', 'WORKASPACE' ) );
#100 = CIRCLE ( 'NONE', #212, 0.09375000000000001388 ) ;
#101 = EDGE_LOOP ( 'NONE', ( #106, #90 ) ) ;
#102 = DIRECTION ( 'NONE',  ( 0.000000000000000000, 0.000000000000000000, -1.000000000000000000 ) ) ;
#103 = MECHANICAL_DESIGN_GEOMETRIC_PRESENTATION_REPRESENTATION (  '', ( #218 ), #123 ) ;
#104 = ADVANCED_BREP_SHAPE_REPRESENTATION ( '00122', ( #60, #164, #128 ), #210 ) ;
#105 = CARTESIAN_POINT ( 'NONE',  ( 0.000000000000000000, 0.7500000000000001110, 0.000000000000000000 ) ) ;
#106 = ORIENTED_EDGE ( 'NONE', *, *, #56, .T. ) ;
#107 =( NAMED_UNIT ( * ) SI_UNIT ( $, .STERADIAN. ) SOLID_ANGLE_UNIT ( ) );
#108 = DIRECTION ( 'NONE',  ( -0.000000000000000000, -1.000000000000000000, -0.000000000000000000 ) ) ;
#109 = MECHANICAL_DESIGN_GEOMETRIC_PRESENTATION_REPRESENTATION (  '', ( #32 ), #172 ) ;
#110 = SURFACE_STYLE_FILL_AREA ( #303 ) ;
#111 = LENGTH_MEASURE_WITH_UNIT ( LENGTH_MEASURE( 0.02539999999999999897 ), #209 );
#112 = CARTESIAN_POINT ( 'NONE',  ( 5.738876719369351455E-35, 0.7500000000000001110, 0.000000000000000000 ) ) ;
#113 = ORIENTED_EDGE ( 'NONE', *, *, #282, .T. ) ;
#114 = ORIENTED_EDGE ( 'NONE', *, *, #194, .F. ) ;
#115 = VERTEX_POINT ( 'NONE', #263 ) ;
#116 = PRESENTATION_LAYER_ASSIGNMENT (  '', '', ( #186 ) ) ;
#117 = PRESENTATION_STYLE_ASSIGNMENT (( #265 ) ) ;
#118 = DIRECTION ( 'NONE',  ( -0.000000000000000000, -1.000000000000000000, -0.000000000000000000 ) ) ;
#119 = CARTESIAN_POINT ( 'NONE',  ( 0.09375000000000001388, 2.500000000000000000, 1.148106374200644325E-17 ) ) ;
#120 = CLOSED_SHELL ( 'NONE', ( #138, #266, #306, #286 ) ) ;
#121 = AXIS2_PLACEMENT_3D ( 'NONE', #163, #192, #308 ) ;
#122 = CARTESIAN_POINT ( 'NONE',  ( -0.09375000000000013878, 2.500000000000000000, 0.000000000000000000 ) ) ;
#123 =( GEOMETRIC_REPRESENTATION_CONTEXT ( 3 ) GLOBAL_UNCERTAINTY_ASSIGNED_CONTEXT ( ( #135 ) ) GLOBAL_UNIT_ASSIGNED_CONTEXT ( ( #296, #223, #198 ) ) REPRESENTATION_CONTEXT ( 'NONE', 'WORKASPACE' ) );
#124 = DIRECTION ( 'NONE',  ( 0.000000000000000000, 0.000000000000000000, -1.000000000000000000 ) ) ;
#125 = FACE_OUTER_BOUND ( 'NONE', #82, .T. ) ;
#126 = VERTEX_POINT ( 'NONE', #240 ) ;
#127 = COLOUR_RGB ( '',1.000000000000000000, 0.000000000000000000, 0.000000000000000000 ) ;
#128 = AXIS2_PLACEMENT_3D ( 'NONE', #148, #170, #75 ) ;
#129 = SURFACE_STYLE_USAGE ( .BOTH. , #19 ) ;
#130 = LINE ( 'NONE', #33, #40 ) ;
#131 = ORIENTED_EDGE ( 'NONE', *, *, #83, .T. ) ;
#132 = EDGE_CURVE ( 'NONE', #126, #284, #146, .T. ) ;
#133 = DIRECTION ( 'NONE',  ( -0.000000000000000000, -1.000000000000000000, -0.000000000000000000 ) ) ;
#134 =( CONVERSION_BASED_UNIT ( 'INCH', #18 ) LENGTH_UNIT ( ) NAMED_UNIT ( #96 ) );
#135 = UNCERTAINTY_MEASURE_WITH_UNIT (LENGTH_MEASURE( 1.000000000000000082E-05 ), #296, 'distance_accuracy_value', 'NONE');
#136 = DIRECTION ( 'NONE',  ( 0.000000000000000000, 0.000000000000000000, -1.000000000000000000 ) ) ;
#137 = PRESENTATION_LAYER_ASSIGNMENT (  '', '', ( #32 ) ) ;
#138 = ADVANCED_FACE ( 'NONE', ( #239 ), #74, .T. ) ;
#139 = CARTESIAN_POINT ( 'NONE',  ( -6.123233995736766036E-17, 2.500000000000000000, 0.000000000000000000 ) ) ;
#140 = DIRECTION ( 'NONE',  ( -3.498990854706722745E-17, 1.000000000000000000, -0.000000000000000000 ) ) ;
#141 = PRESENTATION_STYLE_ASSIGNMENT (( #50 ) ) ;
#142 = PRESENTATION_LAYER_ASSIGNMENT (  '', '', ( #63 ) ) ;
#143 = PRESENTATION_LAYER_ASSIGNMENT (  '', '', ( #218 ) ) ;
#144 = ADVANCED_FACE ( 'NONE', ( #147 ), #199, .T. ) ;
#145 = CARTESIAN_POINT ( 'NONE',  ( -6.123233995736766036E-17, 2.500000000000000000, 0.000000000000000000 ) ) ;
#146 = CIRCLE ( 'NONE', #246, 0.09375000000000001388 ) ;
#147 = FACE_OUTER_BOUND ( 'NONE', #5, .T. ) ;
#148 = CARTESIAN_POINT ( 'NONE',  ( 0.000000000000000000, 0.000000000000000000, 0.000000000000000000 ) ) ;
#149 = ADVANCED_FACE ( 'NONE', ( #80 ), #247, .T. ) ;
#150 = LINE ( 'NONE', #252, #178 ) ;
#151 = EDGE_CURVE ( 'NONE', #284, #126, #292, .T. ) ;
#152 = SURFACE_SIDE_STYLE ('',( #14 ) ) ;
#153 = FILL_AREA_STYLE_COLOUR ( '', #127 ) ;
#154 = LENGTH_MEASURE_WITH_UNIT ( LENGTH_MEASURE( 0.02539999999999999897 ), #61 );
#155 = DIRECTION ( 'NONE',  ( -1.000000000000000000, 0.000000000000000000, 0.000000000000000000 ) ) ;
#156 = SURFACE_STYLE_FILL_AREA ( #221 ) ;
#157 = AXIS2_PLACEMENT_3D ( 'NONE', #270, #274, #300 ) ;
#158 = DIRECTION ( 'NONE',  ( -3.498990854706722745E-17, 1.000000000000000000, -0.000000000000000000 ) ) ;
#159 =( NAMED_UNIT ( * ) PLANE_ANGLE_UNIT ( ) SI_UNIT ( $, .RADIAN. ) );
#160 = LENGTH_MEASURE_WITH_UNIT ( LENGTH_MEASURE( 0.02539999999999999897 ), #275 );
#161 =( NAMED_UNIT ( * ) SI_UNIT ( $, .STERADIAN. ) SOLID_ANGLE_UNIT ( ) );
#162 = AXIS2_PLACEMENT_3D ( 'NONE', #59, #258, #155 ) ;
#163 = CARTESIAN_POINT ( 'NONE',  ( -6.123233995736766036E-17, 2.500000000000000000, 0.000000000000000000 ) ) ;
#164 = MANIFOLD_SOLID_BREP ( 'Revolve - Tool Body (Straight Shanked)', #120 ) ;
#165 = FILL_AREA_STYLE ('',( #22 ) ) ;
#166 = PRESENTATION_LAYER_ASSIGNMENT (  '', '', ( #304 ) ) ;
#167 = AXIS2_PLACEMENT_3D ( 'NONE', #69, #1, #23 ) ;
#168 = UNCERTAINTY_MEASURE_WITH_UNIT (LENGTH_MEASURE( 1.000000000000000082E-05 ), #251, 'distance_accuracy_value', 'NONE');
#169 = CARTESIAN_POINT ( 'NONE',  ( 1.148106374200643863E-17, 0.000000000000000000, 0.09375000000000001388 ) ) ;
#170 = DIRECTION ( 'NONE',  ( 0.000000000000000000, 0.000000000000000000, 1.000000000000000000 ) ) ;
#171 = APPLICATION_PROTOCOL_DEFINITION ( 'draft international standard', 'automotive_design', 1998, #2 ) ;
#172 =( GEOMETRIC_REPRESENTATION_CONTEXT ( 3 ) GLOBAL_UNCERTAINTY_ASSIGNED_CONTEXT ( ( #290 ) ) GLOBAL_UNIT_ASSIGNED_CONTEXT ( ( #41, #159, #107 ) ) REPRESENTATION_CONTEXT ( 'NONE', 'WORKASPACE' ) );
#173 = DIRECTION ( 'NONE',  ( -1.000000000000000000, 0.000000000000000000, 0.000000000000000000 ) ) ;
#174 =( NAMED_UNIT ( * ) SI_UNIT ( $, .STERADIAN. ) SOLID_ANGLE_UNIT ( ) );
#175 = CARTESIAN_POINT ( 'NONE',  ( 1.148106374200643863E-17, 0.7500000000000001110, 0.09375000000000001388 ) ) ;
#176 = APPLICATION_CONTEXT ( 'automotive_design' ) ;
#177 = AXIS2_PLACEMENT_3D ( 'NONE', #139, #140, #215 ) ;
#178 = VECTOR ( 'NONE', #276, 39.37007874015748143 ) ;
#179 = DIRECTION ( 'NONE',  ( -0.000000000000000000, -1.000000000000000000, -0.000000000000000000 ) ) ;
#180 = PLANE ( 'NONE',  #291 ) ;
#181 = ORIENTED_EDGE ( 'NONE', *, *, #282, .F. ) ;
#182 = ORIENTED_EDGE ( 'NONE', *, *, #208, .F. ) ;
#183 = FACE_OUTER_BOUND ( 'NONE', #302, .T. ) ;
#184 = ORIENTED_EDGE ( 'NONE', *, *, #132, .F. ) ;
#185 = AXIS2_PLACEMENT_3D ( 'NONE', #65, #309, #98 ) ;
#186 = STYLED_ITEM ( 'NONE', ( #88 ), #149 ) ;
#187 = ORIENTED_EDGE ( 'NONE', *, *, #194, .T. ) ;
#188 = EDGE_LOOP ( 'NONE', ( #131, #207 ) ) ;
#189 = LENGTH_MEASURE_WITH_UNIT ( LENGTH_MEASURE( 0.02539999999999999897 ), #25 );
#190 = AXIS2_PLACEMENT_3D ( 'NONE', #15, #108, #102 ) ;
#191 = EDGE_CURVE ( 'NONE', #85, #203, #150, .T. ) ;
#192 = DIRECTION ( 'NONE',  ( -3.498990854706722745E-17, 1.000000000000000000, -0.000000000000000000 ) ) ;
#193 = MECHANICAL_DESIGN_GEOMETRIC_PRESENTATION_REPRESENTATION (  '', ( #186 ), #241 ) ;
#194 = EDGE_CURVE ( 'NONE', #115, #64, #130, .T. ) ;
#195 = CLOSED_SHELL ( 'NONE', ( #144, #149, #249, #46 ) ) ;
#196 = DIRECTION ( 'NONE',  ( 3.498990854706722745E-17, -1.000000000000000000, 0.000000000000000000 ) ) ;
#197 =( CONVERSION_BASED_UNIT ( 'INCH', #238 ) LENGTH_UNIT ( ) NAMED_UNIT ( #51 ) );
#198 =( NAMED_UNIT ( * ) SI_UNIT ( $, .STERADIAN. ) SOLID_ANGLE_UNIT ( ) );
#199 = CYLINDRICAL_SURFACE ( 'NONE', #89, 0.09375000000000001388 ) ;
#200 = DIRECTION ( 'NONE',  ( 0.000000000000000000, 0.000000000000000000, -1.000000000000000000 ) ) ;
#201 = COLOUR_RGB ( '',1.000000000000000000, 0.000000000000000000, 0.000000000000000000 ) ;
#202 = DIRECTION ( 'NONE',  ( -0.000000000000000000, -1.000000000000000000, -0.000000000000000000 ) ) ;
#203 = VERTEX_POINT ( 'NONE', #122 ) ;
#204 = LINE ( 'NONE', #81, #220 ) ;
#205 = EDGE_LOOP ( 'NONE', ( #16, #187, #227, #277 ) ) ;
#206 = FILL_AREA_STYLE_COLOUR ( '', #201 ) ;
#207 = ORIENTED_EDGE ( 'NONE', *, *, #208, .T. ) ;
#208 = EDGE_CURVE ( 'NONE', #301, #280, #100, .T. ) ;
#209 =( LENGTH_UNIT ( ) NAMED_UNIT ( * ) SI_UNIT ( $, .METRE. ) );
#210 =( GEOMETRIC_REPRESENTATION_CONTEXT ( 3 ) GLOBAL_UNCERTAINTY_ASSIGNED_CONTEXT ( ( #21 ) ) GLOBAL_UNIT_ASSIGNED_CONTEXT ( ( #134, #257, #44 ) ) REPRESENTATION_CONTEXT ( 'NONE', 'WORKASPACE' ) );
#211 = PRODUCT_DEFINITION_CONTEXT ( 'detailed design', #2, 'design' ) ;
#212 = AXIS2_PLACEMENT_3D ( 'NONE', #8, #248, #200 ) ;
#213 = FILL_AREA_STYLE ('',( #48 ) ) ;
#214 = DIMENSIONAL_EXPONENTS ( 1.000000000000000000, 0.000000000000000000, 0.000000000000000000, 0.000000000000000000, 0.000000000000000000, 0.000000000000000000, 0.000000000000000000 ) ;
#215 = DIRECTION ( 'NONE',  ( -1.000000000000000000, 0.000000000000000000, 0.000000000000000000 ) ) ;
#216 = CARTESIAN_POINT ( 'NONE',  ( -0.09375000000000001388, 0.7499999999999998890, 0.000000000000000000 ) ) ;
#217 = APPLICATION_PROTOCOL_DEFINITION ( 'draft international standard', 'automotive_design', 1998, #176 ) ;
#218 = STYLED_ITEM ( 'NONE', ( #226 ), #249 ) ;
#219 = CIRCLE ( 'NONE', #177, 0.09375000000000006939 ) ;
#220 = VECTOR ( 'NONE', #202, 39.37007874015748143 ) ;
#221 = FILL_AREA_STYLE ('',( #58 ) ) ;
#222 = CARTESIAN_POINT ( 'NONE',  ( 0.000000000000000000, 0.7500000000000001110, 0.000000000000000000 ) ) ;
#223 =( NAMED_UNIT ( * ) PLANE_ANGLE_UNIT ( ) SI_UNIT ( $, .RADIAN. ) );
#224 =( NAMED_UNIT ( * ) SI_UNIT ( $, .STERADIAN. ) SOLID_ANGLE_UNIT ( ) );
#225 = SURFACE_STYLE_USAGE ( .BOTH. , #35 ) ;
#226 = PRESENTATION_STYLE_ASSIGNMENT (( #78 ) ) ;
#227 = ORIENTED_EDGE ( 'NONE', *, *, #56, .F. ) ;
#228 = PRODUCT_DEFINITION_SHAPE ( 'NONE', 'NONE',  #264 ) ;
#229 = CIRCLE ( 'NONE', #162, 0.09375000000000001388 ) ;
#230 = SURFACE_STYLE_FILL_AREA ( #232 ) ;
#231 =( NAMED_UNIT ( * ) PLANE_ANGLE_UNIT ( ) SI_UNIT ( $, .RADIAN. ) );
#232 = FILL_AREA_STYLE ('',( #84 ) ) ;
#233 = CARTESIAN_POINT ( 'NONE',  ( 0.000000000000000000, 0.000000000000000000, -0.09375000000000001388 ) ) ;
#234 = ORIENTED_EDGE ( 'NONE', *, *, #97, .F. ) ;
#235 = ORIENTED_EDGE ( 'NONE', *, *, #92, .F. ) ;
#236 = COLOUR_RGB ( '',0.7921568627450980005, 0.8196078431372548767, 0.9333333333333333481 ) ;
#237 = AXIS2_PLACEMENT_3D ( 'NONE', #105, #179, #273 ) ;
#238 = LENGTH_MEASURE_WITH_UNIT ( LENGTH_MEASURE( 0.02539999999999999897 ), #262 );
#239 = FACE_OUTER_BOUND ( 'NONE', #205, .T. ) ;
#240 = CARTESIAN_POINT ( 'NONE',  ( 0.000000000000000000, 0.7500000000000001110, -0.09375000000000001388 ) ) ;
#241 =( GEOMETRIC_REPRESENTATION_CONTEXT ( 3 ) GLOBAL_UNCERTAINTY_ASSIGNED_CONTEXT ( ( #168 ) ) GLOBAL_UNIT_ASSIGNED_CONTEXT ( ( #251, #278, #53 ) ) REPRESENTATION_CONTEXT ( 'NONE', 'WORKASPACE' ) );
#242 = CIRCLE ( 'NONE', #72, 0.09375000000000001388 ) ;
#243 = ORIENTED_EDGE ( 'NONE', *, *, #83, .F. ) ;
#244 = DIRECTION ( 'NONE',  ( 1.000000000000000000, 3.498990854706722745E-17, 0.000000000000000000 ) ) ;
#245 = MECHANICAL_DESIGN_GEOMETRIC_PRESENTATION_REPRESENTATION (  '', ( #63 ), #93 ) ;
#246 = AXIS2_PLACEMENT_3D ( 'NONE', #47, #24, #136 ) ;
#247 = PLANE ( 'NONE',  #49 ) ;
#248 = DIRECTION ( 'NONE',  ( -0.000000000000000000, -1.000000000000000000, -0.000000000000000000 ) ) ;
#249 = ADVANCED_FACE ( 'NONE', ( #125 ), #38, .T. ) ;
#250 = ORIENTED_EDGE ( 'NONE', *, *, #132, .T. ) ;
#251 =( CONVERSION_BASED_UNIT ( 'INCH', #256 ) LENGTH_UNIT ( ) NAMED_UNIT ( #214 ) );
#252 = CARTESIAN_POINT ( 'NONE',  ( -0.09375000000000011102, 2.500000000000000000, 0.000000000000000000 ) ) ;
#253 = FACE_OUTER_BOUND ( 'NONE', #188, .T. ) ;
#254 = DIRECTION ( 'NONE',  ( -3.498990854706722745E-17, 1.000000000000000000, 0.000000000000000000 ) ) ;
#255 = ORIENTED_EDGE ( 'NONE', *, *, #191, .T. ) ;
#256 = LENGTH_MEASURE_WITH_UNIT ( LENGTH_MEASURE( 0.02539999999999999897 ), #57 );
#257 =( NAMED_UNIT ( * ) PLANE_ANGLE_UNIT ( ) SI_UNIT ( $, .RADIAN. ) );
#258 = DIRECTION ( 'NONE',  ( -3.498990854706722745E-17, 1.000000000000000000, -0.000000000000000000 ) ) ;
#259 = ORIENTED_EDGE ( 'NONE', *, *, #151, .F. ) ;
#260 = STYLED_ITEM ( 'NONE', ( #141 ), #164 ) ;
#261 = SURFACE_STYLE_FILL_AREA ( #165 ) ;
#262 =( LENGTH_UNIT ( ) NAMED_UNIT ( * ) SI_UNIT ( $, .METRE. ) );
#263 = CARTESIAN_POINT ( 'NONE',  ( 0.09375000000000001388, 0.7499999999999998890, 1.148106374200644325E-17 ) ) ;
#264 = PRODUCT_DEFINITION ( 'UNKNOWN', '', #281, #211 ) ;
#265 = SURFACE_STYLE_USAGE ( .BOTH. , #289 ) ;
#266 = ADVANCED_FACE ( 'NONE', ( #42 ), #269, .F. ) ;
#267 = SHAPE_DEFINITION_REPRESENTATION ( #228, #104 ) ;
#268 = CIRCLE ( 'NONE', #121, 0.09375000000000006939 ) ;
#269 = PLANE ( 'NONE',  #272 ) ;
#270 = CARTESIAN_POINT ( 'NONE',  ( -6.123233995736766036E-17, 2.500000000000000000, 0.000000000000000000 ) ) ;
#271 = CIRCLE ( 'NONE', #167, 0.09375000000000001388 ) ;
#272 = AXIS2_PLACEMENT_3D ( 'NONE', #112, #254, #52 ) ;
#273 = DIRECTION ( 'NONE',  ( 0.000000000000000000, 0.000000000000000000, -1.000000000000000000 ) ) ;
#274 = DIRECTION ( 'NONE',  ( -3.498990854706722745E-17, 1.000000000000000000, -0.000000000000000000 ) ) ;
#275 =( LENGTH_UNIT ( ) NAMED_UNIT ( * ) SI_UNIT ( $, .METRE. ) );
#276 = DIRECTION ( 'NONE',  ( -3.498990854706722745E-17, 1.000000000000000000, -0.000000000000000000 ) ) ;
#277 = ORIENTED_EDGE ( 'NONE', *, *, #191, .F. ) ;
#278 =( NAMED_UNIT ( * ) PLANE_ANGLE_UNIT ( ) SI_UNIT ( $, .RADIAN. ) );
#279 = DIRECTION ( 'NONE',  ( -3.498990854706722745E-17, 1.000000000000000000, -0.000000000000000000 ) ) ;
#280 = VERTEX_POINT ( 'NONE', #233 ) ;
#281 = PRODUCT_DEFINITION_FORMATION_WITH_SPECIFIED_SOURCE ( 'ANY', '', #12, .NOT_KNOWN. ) ;
#282 = EDGE_CURVE ( 'NONE', #126, #280, #204, .T. ) ;
#283 = FILL_AREA_STYLE ('',( #206 ) ) ;
#284 = VERTEX_POINT ( 'NONE', #175 ) ;
#285 = UNCERTAINTY_MEASURE_WITH_UNIT (LENGTH_MEASURE( 1.000000000000000082E-05 ), #197, 'distance_accuracy_value', 'NONE');
#286 = ADVANCED_FACE ( 'NONE', ( #87 ), #180, .F. ) ;
#287 = COLOUR_RGB ( '',0.7921568627450980005, 0.8196078431372548767, 0.9333333333333333481 ) ;
#288 = SURFACE_SIDE_STYLE ('',( #94 ) ) ;
#289 = SURFACE_SIDE_STYLE ('',( #261 ) ) ;
#290 = UNCERTAINTY_MEASURE_WITH_UNIT (LENGTH_MEASURE( 1.000000000000000082E-05 ), #41, 'distance_accuracy_value', 'NONE');
#291 = AXIS2_PLACEMENT_3D ( 'NONE', #295, #196, #244 ) ;
#292 = CIRCLE ( 'NONE', #237, 0.09375000000000001388 ) ;
#293 = DIRECTION ( 'NONE',  ( -3.498990854706722745E-17, 1.000000000000000000, -0.000000000000000000 ) ) ;
#294 = CYLINDRICAL_SURFACE ( 'NONE', #157, 0.09375000000000004163 ) ;
#295 = CARTESIAN_POINT ( 'NONE',  ( 0.09375000000000001388, 2.500000000000000000, 0.000000000000000000 ) ) ;
#296 =( CONVERSION_BASED_UNIT ( 'INCH', #154 ) LENGTH_UNIT ( ) NAMED_UNIT ( #91 ) );
#297 = EDGE_LOOP ( 'NONE', ( #20, #55 ) ) ;
#298 = COLOUR_RGB ( '',1.000000000000000000, 0.000000000000000000, 0.000000000000000000 ) ;
#299 = SURFACE_STYLE_USAGE ( .BOTH. , #152 ) ;
#300 = DIRECTION ( 'NONE',  ( -1.000000000000000000, 0.000000000000000000, 0.000000000000000000 ) ) ;
#301 = VERTEX_POINT ( 'NONE', #79 ) ;
#302 = EDGE_LOOP ( 'NONE', ( #114, #76, #255, #234 ) ) ;
#303 = FILL_AREA_STYLE ('',( #153 ) ) ;
#304 = STYLED_ITEM ( 'NONE', ( #117 ), #60 ) ;
#305 =( CONVERSION_BASED_UNIT ( 'INCH', #160 ) LENGTH_UNIT ( ) NAMED_UNIT ( #307 ) );
#306 = ADVANCED_FACE ( 'NONE', ( #183 ), #294, .T. ) ;
#307 = DIMENSIONAL_EXPONENTS ( 1.000000000000000000, 0.000000000000000000, 0.000000000000000000, 0.000000000000000000, 0.000000000000000000, 0.000000000000000000, 0.000000000000000000 ) ;
#308 = DIRECTION ( 'NONE',  ( -1.000000000000000000, 0.000000000000000000, 0.000000000000000000 ) ) ;
#309 = DIRECTION ( 'NONE',  ( 0.000000000000000000, -1.000000000000000000, -0.000000000000000000 ) ) ;
ENDSEC;
END-ISO-10303-21;
