ISO-10303-21;
HEADER;
FILE_DESCRIPTION (( 'STEP AP214' ),
    '1' );
FILE_NAME ('84605.STEP',
    '2023-07-12T13:10:47',
    ( '' ),
    ( '' ),
    'SwSTEP 2.0',
    'SolidWorks 2023',
    '' );
FILE_SCHEMA (( 'AUTOMOTIVE_DESIGN' ));
ENDSEC;

DATA;
#1 = CIRCLE ( 'NONE', #14, 0.2500000000000000555 ) ;
#2 = PRESENTATION_LAYER_ASSIGNMENT (  '', '', ( #169 ) ) ;
#3 = SURFACE_STYLE_USAGE ( .BOTH. , #287 ) ;
#4 = UNCERTAINTY_MEASURE_WITH_UNIT (LENGTH_MEASURE( 1.000000000000000082E-05 ), #66, 'distance_accuracy_value', 'NONE');
#5 = ORIENTED_EDGE ( 'NONE', *, *, #188, .T. ) ;
#6 = DIRECTION ( 'NONE',  ( -1.000000000000000000, -1.365923996832133335E-16, 0.000000000000000000 ) ) ;
#7 = PRESENTATION_LAYER_ASSIGNMENT (  '', '', ( #73 ) ) ;
#8 = PRODUCT ( '84605', '84605', '', ( #76 ) ) ;
#9 =( NAMED_UNIT ( * ) PLANE_ANGLE_UNIT ( ) SI_UNIT ( $, .RADIAN. ) );
#10 = EDGE_CURVE ( 'NONE', #83, #185, #296, .T. ) ;
#11 = PLANE ( 'NONE',  #161 ) ;
#12 = APPLICATION_CONTEXT ( 'automotive_design' ) ;
#13 =( NAMED_UNIT ( * ) PLANE_ANGLE_UNIT ( ) SI_UNIT ( $, .RADIAN. ) );
#14 = AXIS2_PLACEMENT_3D ( 'NONE', #231, #279, #15 ) ;
#15 = DIRECTION ( 'NONE',  ( -1.000000000000000000, 0.000000000000000000, 0.000000000000000000 ) ) ;
#16 = COLOUR_RGB ( '',1.000000000000000000, 0.000000000000000000, 0.000000000000000000 ) ;
#17 = SURFACE_STYLE_FILL_AREA ( #232 ) ;
#18 = DIMENSIONAL_EXPONENTS ( 1.000000000000000000, 0.000000000000000000, 0.000000000000000000, 0.000000000000000000, 0.000000000000000000, 0.000000000000000000, 0.000000000000000000 ) ;
#19 = DIRECTION ( 'NONE',  ( -9.808453778935677663E-34, 1.000000000000000000, 0.000000000000000000 ) ) ;
#20 = DIMENSIONAL_EXPONENTS ( 1.000000000000000000, 0.000000000000000000, 0.000000000000000000, 0.000000000000000000, 0.000000000000000000, 0.000000000000000000, 0.000000000000000000 ) ;
#21 = CARTESIAN_POINT ( 'NONE',  ( -6.123233995736772199E-17, 3.000000000000000444, 0.000000000000000000 ) ) ;
#22 = CONICAL_SURFACE ( 'NONE', #195, 0.04000000000000000083, 0.7155849933176765543 ) ;
#23 =( NAMED_UNIT ( * ) SI_UNIT ( $, .STERADIAN. ) SOLID_ANGLE_UNIT ( ) );
#24 = APPLICATION_CONTEXT ( 'automotive_design' ) ;
#25 = DIRECTION ( 'NONE',  ( 1.000000000000000000, 0.000000000000000000, 0.000000000000000000 ) ) ;
#26 = ADVANCED_BREP_SHAPE_REPRESENTATION ( '84605', ( #42, #139, #262 ), #213 ) ;
#27 = AXIS2_PLACEMENT_3D ( 'NONE', #191, #307, #78 ) ;
#28 = SURFACE_SIDE_STYLE ('',( #167 ) ) ;
#29 = STYLED_ITEM ( 'NONE', ( #90 ), #170 ) ;
#30 = CARTESIAN_POINT ( 'NONE',  ( -6.123233995736772199E-17, 3.000000000000000444, 0.000000000000000000 ) ) ;
#31 = EDGE_CURVE ( 'NONE', #128, #85, #1, .T. ) ;
#32 = DIRECTION ( 'NONE',  ( -1.206665185214025874E-16, 1.000000000000000000, -0.000000000000000000 ) ) ;
#33 = SURFACE_STYLE_USAGE ( .BOTH. , #97 ) ;
#34 = CARTESIAN_POINT ( 'NONE',  ( 0.2499999999999999167, 0.2415773655164111799, 3.061616997868382402E-17 ) ) ;
#35 = CARTESIAN_POINT ( 'NONE',  ( 1.924115310670351764E-68, -1.961690755787135746E-35, 0.000000000000000000 ) ) ;
#36 = CIRCLE ( 'NONE', #300, 0.2499999999999996947 ) ;
#37 = ADVANCED_FACE ( 'NONE', ( #206 ), #89, .T. ) ;
#38 = EDGE_LOOP ( 'NONE', ( #203, #158 ) ) ;
#39 = LINE ( 'NONE', #129, #182 ) ;
#40 = ORIENTED_EDGE ( 'NONE', *, *, #10, .T. ) ;
#41 = FILL_AREA_STYLE_COLOUR ( '', #56 ) ;
#42 = MANIFOLD_SOLID_BREP ( 'Revolve - Cutting Edge', #152 ) ;
#43 = AXIS2_PLACEMENT_3D ( 'NONE', #30, #268, #193 ) ;
#44 = MECHANICAL_DESIGN_GEOMETRIC_PRESENTATION_REPRESENTATION (  '', ( #29 ), #281 ) ;
#45 = FACE_OUTER_BOUND ( 'NONE', #106, .T. ) ;
#46 = MECHANICAL_DESIGN_GEOMETRIC_PRESENTATION_REPRESENTATION (  '', ( #91 ), #260 ) ;
#47 =( CONVERSION_BASED_UNIT ( 'INCH', #94 ) LENGTH_UNIT ( ) NAMED_UNIT ( #278 ) );
#48 = LENGTH_MEASURE_WITH_UNIT ( LENGTH_MEASURE( 0.02539999999999999897 ), #68 );
#49 =( NAMED_UNIT ( * ) PLANE_ANGLE_UNIT ( ) SI_UNIT ( $, .RADIAN. ) );
#50 =( LENGTH_UNIT ( ) NAMED_UNIT ( * ) SI_UNIT ( $, .METRE. ) );
#51 = CIRCLE ( 'NONE', #199, 0.04000000000000000083 ) ;
#52 = DIRECTION ( 'NONE',  ( -1.000000000000000000, 0.000000000000000000, 0.000000000000000000 ) ) ;
#53 = LINE ( 'NONE', #165, #153 ) ;
#54 = STYLED_ITEM ( 'NONE', ( #239 ), #37 ) ;
#55 = DIRECTION ( 'NONE',  ( 9.808453778935677663E-34, -1.000000000000000000, -0.000000000000000000 ) ) ;
#56 = COLOUR_RGB ( '',0.7921568627450980005, 0.8196078431372548767, 0.9333333333333333481 ) ;
#57 = EDGE_CURVE ( 'NONE', #85, #128, #112, .T. ) ;
#58 = FILL_AREA_STYLE_COLOUR ( '', #194 ) ;
#59 = CARTESIAN_POINT ( 'NONE',  ( 0.2499999999999999722, 0.2415773655164114020, 3.061616997868383018E-17 ) ) ;
#60 = LENGTH_MEASURE_WITH_UNIT ( LENGTH_MEASURE( 0.02539999999999999897 ), #143 );
#61 = EDGE_CURVE ( 'NONE', #185, #226, #120, .T. ) ;
#62 = SURFACE_STYLE_FILL_AREA ( #258 ) ;
#63 = ORIENTED_EDGE ( 'NONE', *, *, #61, .F. ) ;
#64 = EDGE_LOOP ( 'NONE', ( #155, #225, #157, #250 ) ) ;
#65 = PRESENTATION_LAYER_ASSIGNMENT (  '', '', ( #240 ) ) ;
#66 =( CONVERSION_BASED_UNIT ( 'INCH', #181 ) LENGTH_UNIT ( ) NAMED_UNIT ( #187 ) );
#67 = ORIENTED_EDGE ( 'NONE', *, *, #276, .T. ) ;
#68 =( LENGTH_UNIT ( ) NAMED_UNIT ( * ) SI_UNIT ( $, .METRE. ) );
#69 =( NAMED_UNIT ( * ) SI_UNIT ( $, .STERADIAN. ) SOLID_ANGLE_UNIT ( ) );
#70 =( NAMED_UNIT ( * ) PLANE_ANGLE_UNIT ( ) SI_UNIT ( $, .RADIAN. ) );
#71 = DIMENSIONAL_EXPONENTS ( 1.000000000000000000, 0.000000000000000000, 0.000000000000000000, 0.000000000000000000, 0.000000000000000000, 0.000000000000000000, 0.000000000000000000 ) ;
#72 = DIRECTION ( 'NONE',  ( 1.206665185214025874E-16, -1.000000000000000000, 0.000000000000000000 ) ) ;
#73 = STYLED_ITEM ( 'NONE', ( #208 ), #139 ) ;
#74 = CARTESIAN_POINT ( 'NONE',  ( -2.369500423704768587E-34, 0.2415773655164111799, 0.000000000000000000 ) ) ;
#75 = FILL_AREA_STYLE_COLOUR ( '', #204 ) ;
#76 = PRODUCT_CONTEXT ( 'NONE', #24, 'mechanical' ) ;
#77 = CARTESIAN_POINT ( 'NONE',  ( 3.848230621340703528E-68, -3.923381511574271493E-35, 0.000000000000000000 ) ) ;
#78 = DIRECTION ( 'NONE',  ( 1.000000000000000000, 9.808453778935679373E-34, 0.000000000000000000 ) ) ;
#79 = MECHANICAL_DESIGN_GEOMETRIC_PRESENTATION_REPRESENTATION (  '', ( #169 ), #205 ) ;
#80 = UNCERTAINTY_MEASURE_WITH_UNIT (LENGTH_MEASURE( 1.000000000000000082E-05 ), #149, 'distance_accuracy_value', 'NONE');
#81 =( CONVERSION_BASED_UNIT ( 'INCH', #60 ) LENGTH_UNIT ( ) NAMED_UNIT ( #164 ) );
#82 = DIRECTION ( 'NONE',  ( -1.000000000000000000, -1.206665185214025874E-16, 0.000000000000000000 ) ) ;
#83 = VERTEX_POINT ( 'NONE', #117 ) ;
#84 = EDGE_CURVE ( 'NONE', #252, #83, #160, .T. ) ;
#85 = VERTEX_POINT ( 'NONE', #95 ) ;
#86 = AXIS2_PLACEMENT_3D ( 'NONE', #98, #72, #285 ) ;
#87 = EDGE_LOOP ( 'NONE', ( #104, #174 ) ) ;
#88 = ADVANCED_FACE ( 'NONE', ( #283 ), #22, .T. ) ;
#89 = PLANE ( 'NONE',  #228 ) ;
#90 = PRESENTATION_STYLE_ASSIGNMENT (( #111 ) ) ;
#91 = STYLED_ITEM ( 'NONE', ( #309 ), #42 ) ;
#92 = AXIS2_PLACEMENT_3D ( 'NONE', #200, #19, #234 ) ;
#93 = SURFACE_STYLE_USAGE ( .BOTH. , #251 ) ;
#94 = LENGTH_MEASURE_WITH_UNIT ( LENGTH_MEASURE( 0.02539999999999999897 ), #50 );
#95 = CARTESIAN_POINT ( 'NONE',  ( -0.2500000000000001110, 3.000000000000000444, 0.000000000000000000 ) ) ;
#96 =( NAMED_UNIT ( * ) SI_UNIT ( $, .STERADIAN. ) SOLID_ANGLE_UNIT ( ) );
#97 = SURFACE_SIDE_STYLE ('',( #146 ) ) ;
#98 = CARTESIAN_POINT ( 'NONE',  ( 0.2499999999999999722, 3.000000000000000444, 0.000000000000000000 ) ) ;
#99 =( NAMED_UNIT ( * ) SI_UNIT ( $, .STERADIAN. ) SOLID_ANGLE_UNIT ( ) );
#100 = DIRECTION ( 'NONE',  ( -1.000000000000000000, -1.365923996832133335E-16, 0.000000000000000000 ) ) ;
#101 = UNCERTAINTY_MEASURE_WITH_UNIT (LENGTH_MEASURE( 1.000000000000000082E-05 ), #301, 'distance_accuracy_value', 'NONE');
#102 = SURFACE_STYLE_FILL_AREA ( #220 ) ;
#103 = LENGTH_MEASURE_WITH_UNIT ( LENGTH_MEASURE( 0.02539999999999999897 ), #263 );
#104 = ORIENTED_EDGE ( 'NONE', *, *, #57, .T. ) ;
#105 = DIRECTION ( 'NONE',  ( -1.206665185214025874E-16, 1.000000000000000000, -0.000000000000000000 ) ) ;
#106 = EDGE_LOOP ( 'NONE', ( #63, #183 ) ) ;
#107 = ADVANCED_FACE ( 'NONE', ( #253 ), #11, .F. ) ;
#108 = AXIS2_PLACEMENT_3D ( 'NONE', #140, #242, #100 ) ;
#109 = CARTESIAN_POINT ( 'NONE',  ( -0.04000000000000000083, -7.846763023148542985E-35, 0.000000000000000000 ) ) ;
#110 = SURFACE_SIDE_STYLE ('',( #297 ) ) ;
#111 = SURFACE_STYLE_USAGE ( .BOTH. , #207 ) ;
#112 = CIRCLE ( 'NONE', #43, 0.2500000000000000555 ) ;
#113 = AXIS2_PLACEMENT_3D ( 'NONE', #264, #124, #219 ) ;
#114 = PLANE ( 'NONE',  #131 ) ;
#115 = UNCERTAINTY_MEASURE_WITH_UNIT (LENGTH_MEASURE( 1.000000000000000082E-05 ), #197, 'distance_accuracy_value', 'NONE');
#116 = LINE ( 'NONE', #243, #209 ) ;
#117 = CARTESIAN_POINT ( 'NONE',  ( -0.04000000000000000083, -7.846763023148542985E-35, 0.000000000000000000 ) ) ;
#118 = EDGE_CURVE ( 'NONE', #252, #226, #39, .T. ) ;
#119 = PRODUCT_RELATED_PRODUCT_CATEGORY ( 'part', '', ( #8 ) ) ;
#120 = CIRCLE ( 'NONE', #221, 0.2499999999999999722 ) ;
#121 = PLANE ( 'NONE',  #86 ) ;
#122 = SHAPE_DEFINITION_REPRESENTATION ( #230, #26 ) ;
#123 = CARTESIAN_POINT ( 'NONE',  ( 3.848230621340703528E-68, -3.923381511574271493E-35, 0.000000000000000000 ) ) ;
#124 = DIRECTION ( 'NONE',  ( 9.808453778935677663E-34, -1.000000000000000000, -0.000000000000000000 ) ) ;
#125 =( LENGTH_UNIT ( ) NAMED_UNIT ( * ) SI_UNIT ( $, .METRE. ) );
#126 =( NAMED_UNIT ( * ) PLANE_ANGLE_UNIT ( ) SI_UNIT ( $, .RADIAN. ) );
#127 = ORIENTED_EDGE ( 'NONE', *, *, #84, .T. ) ;
#128 = VERTEX_POINT ( 'NONE', #256 ) ;
#129 = CARTESIAN_POINT ( 'NONE',  ( 0.04000000000000000083, 0.000000000000000000, 4.898587196589413537E-18 ) ) ;
#130 =( LENGTH_UNIT ( ) NAMED_UNIT ( * ) SI_UNIT ( $, .METRE. ) );
#131 = AXIS2_PLACEMENT_3D ( 'NONE', #74, #217, #144 ) ;
#132 = ORIENTED_EDGE ( 'NONE', *, *, #188, .F. ) ;
#133 = DIRECTION ( 'NONE',  ( -0.6560590289905083861, 0.7547095802227710148, 0.000000000000000000 ) ) ;
#134 = CYLINDRICAL_SURFACE ( 'NONE', #290, 0.2499999999999998612 ) ;
#135 = CLOSED_SHELL ( 'NONE', ( #224, #107, #162, #273 ) ) ;
#136 = FACE_OUTER_BOUND ( 'NONE', #201, .T. ) ;
#137 = EDGE_CURVE ( 'NONE', #178, #150, #36, .T. ) ;
#138 = DIRECTION ( 'NONE',  ( -1.000000000000000000, 0.000000000000000000, 0.000000000000000000 ) ) ;
#139 = MANIFOLD_SOLID_BREP ( 'Revolve - Tool Body (Tipped Off)', #135 ) ;
#140 = CARTESIAN_POINT ( 'NONE',  ( 2.716169159564024159E-16, 0.2415773655164113742, 0.000000000000000000 ) ) ;
#141 = FILL_AREA_STYLE ('',( #244 ) ) ;
#142 = CYLINDRICAL_SURFACE ( 'NONE', #222, 0.2499999999999998612 ) ;
#143 =( LENGTH_UNIT ( ) NAMED_UNIT ( * ) SI_UNIT ( $, .METRE. ) );
#144 = DIRECTION ( 'NONE',  ( -1.000000000000000000, -9.808453778935677663E-34, 0.000000000000000000 ) ) ;
#145 =( NAMED_UNIT ( * ) PLANE_ANGLE_UNIT ( ) SI_UNIT ( $, .RADIAN. ) );
#146 = SURFACE_STYLE_FILL_AREA ( #141 ) ;
#147 = CARTESIAN_POINT ( 'NONE',  ( -2.369500423704768587E-34, 0.2415773655164111799, 0.000000000000000000 ) ) ;
#148 = ORIENTED_EDGE ( 'NONE', *, *, #118, .F. ) ;
#149 =( CONVERSION_BASED_UNIT ( 'INCH', #103 ) LENGTH_UNIT ( ) NAMED_UNIT ( #71 ) );
#150 = VERTEX_POINT ( 'NONE', #186 ) ;
#151 =( NAMED_UNIT ( * ) SI_UNIT ( $, .STERADIAN. ) SOLID_ANGLE_UNIT ( ) );
#152 = CLOSED_SHELL ( 'NONE', ( #154, #170, #88, #37 ) ) ;
#153 = VECTOR ( 'NONE', #306, 39.37007874015748143 ) ;
#154 = ADVANCED_FACE ( 'NONE', ( #237 ), #177, .T. ) ;
#155 = ORIENTED_EDGE ( 'NONE', *, *, #246, .T. ) ;
#156 = CARTESIAN_POINT ( 'NONE',  ( 0.000000000000000000, 0.000000000000000000, 0.000000000000000000 ) ) ;
#157 = ORIENTED_EDGE ( 'NONE', *, *, #57, .F. ) ;
#158 = ORIENTED_EDGE ( 'NONE', *, *, #137, .F. ) ;
#159 = PRESENTATION_STYLE_ASSIGNMENT (( #282 ) ) ;
#160 = CIRCLE ( 'NONE', #27, 0.04000000000000000083 ) ;
#161 = AXIS2_PLACEMENT_3D ( 'NONE', #227, #179, #82 ) ;
#162 = ADVANCED_FACE ( 'NONE', ( #136 ), #134, .T. ) ;
#163 = FILL_AREA_STYLE ('',( #261 ) ) ;
#164 = DIMENSIONAL_EXPONENTS ( 1.000000000000000000, 0.000000000000000000, 0.000000000000000000, 0.000000000000000000, 0.000000000000000000, 0.000000000000000000, 0.000000000000000000 ) ;
#165 = CARTESIAN_POINT ( 'NONE',  ( -0.2499999999999999167, 3.000000000000000444, 0.000000000000000000 ) ) ;
#166 = CARTESIAN_POINT ( 'NONE',  ( -0.2499999999999999167, 0.2415773655164111799, 0.000000000000000000 ) ) ;
#167 = SURFACE_STYLE_FILL_AREA ( #218 ) ;
#168 =( NAMED_UNIT ( * ) SI_UNIT ( $, .STERADIAN. ) SOLID_ANGLE_UNIT ( ) );
#169 = STYLED_ITEM ( 'NONE', ( #159 ), #154 ) ;
#170 = ADVANCED_FACE ( 'NONE', ( #45 ), #114, .T. ) ;
#171 = DIRECTION ( 'NONE',  ( 9.808453778935677663E-34, -1.000000000000000000, -0.000000000000000000 ) ) ;
#172 = UNCERTAINTY_MEASURE_WITH_UNIT (LENGTH_MEASURE( 1.000000000000000082E-05 ), #47, 'distance_accuracy_value', 'NONE');
#173 = PRESENTATION_LAYER_ASSIGNMENT (  '', '', ( #91 ) ) ;
#174 = ORIENTED_EDGE ( 'NONE', *, *, #31, .T. ) ;
#175 = EDGE_CURVE ( 'NONE', #178, #128, #116, .T. ) ;
#176 = CIRCLE ( 'NONE', #108, 0.2499999999999996947 ) ;
#177 = CONICAL_SURFACE ( 'NONE', #92, 0.04000000000000000083, 0.7155849933176765543 ) ;
#178 = VERTEX_POINT ( 'NONE', #59 ) ;
#179 = DIRECTION ( 'NONE',  ( -1.206665185214025874E-16, 1.000000000000000000, 0.000000000000000000 ) ) ;
#180 = ORIENTED_EDGE ( 'NONE', *, *, #61, .T. ) ;
#181 = LENGTH_MEASURE_WITH_UNIT ( LENGTH_MEASURE( 0.02539999999999999897 ), #130 );
#182 = VECTOR ( 'NONE', #275, 39.37007874015748143 ) ;
#183 = ORIENTED_EDGE ( 'NONE', *, *, #216, .F. ) ;
#184 = SURFACE_STYLE_USAGE ( .BOTH. , #28 ) ;
#185 = VERTEX_POINT ( 'NONE', #166 ) ;
#186 = CARTESIAN_POINT ( 'NONE',  ( -0.2499999999999994171, 0.2415773655164113187, 0.000000000000000000 ) ) ;
#187 = DIMENSIONAL_EXPONENTS ( 1.000000000000000000, 0.000000000000000000, 0.000000000000000000, 0.000000000000000000, 0.000000000000000000, 0.000000000000000000, 0.000000000000000000 ) ;
#188 = EDGE_CURVE ( 'NONE', #83, #252, #51, .T. ) ;
#189 = PRODUCT_DEFINITION_CONTEXT ( 'detailed design', #12, 'design' ) ;
#190 = VECTOR ( 'NONE', #133, 39.37007874015748143 ) ;
#191 = CARTESIAN_POINT ( 'NONE',  ( 3.848230621340703528E-68, -3.923381511574271493E-35, 0.000000000000000000 ) ) ;
#192 = DIRECTION ( 'NONE',  ( 0.000000000000000000, 0.000000000000000000, 1.000000000000000000 ) ) ;
#193 = DIRECTION ( 'NONE',  ( -1.000000000000000000, 0.000000000000000000, 0.000000000000000000 ) ) ;
#194 = COLOUR_RGB ( '',1.000000000000000000, 0.000000000000000000, 0.000000000000000000 ) ;
#195 = AXIS2_PLACEMENT_3D ( 'NONE', #123, #202, #289 ) ;
#196 = DIRECTION ( 'NONE',  ( 1.000000000000000000, 9.808453778935679373E-34, 0.000000000000000000 ) ) ;
#197 =( CONVERSION_BASED_UNIT ( 'INCH', #48 ) LENGTH_UNIT ( ) NAMED_UNIT ( #211 ) );
#198 = APPLICATION_PROTOCOL_DEFINITION ( 'draft international standard', 'automotive_design', 1998, #24 ) ;
#199 = AXIS2_PLACEMENT_3D ( 'NONE', #77, #212, #196 ) ;
#200 = CARTESIAN_POINT ( 'NONE',  ( 3.848230621340703528E-68, -3.923381511574271493E-35, 0.000000000000000000 ) ) ;
#201 = EDGE_LOOP ( 'NONE', ( #288, #257, #67, #229 ) ) ;
#202 = DIRECTION ( 'NONE',  ( -9.808453778935677663E-34, 1.000000000000000000, 0.000000000000000000 ) ) ;
#203 = ORIENTED_EDGE ( 'NONE', *, *, #246, .F. ) ;
#204 = COLOUR_RGB ( '',1.000000000000000000, 0.000000000000000000, 0.000000000000000000 ) ;
#205 =( GEOMETRIC_REPRESENTATION_CONTEXT ( 3 ) GLOBAL_UNCERTAINTY_ASSIGNED_CONTEXT ( ( #172 ) ) GLOBAL_UNIT_ASSIGNED_CONTEXT ( ( #47, #49, #23 ) ) REPRESENTATION_CONTEXT ( 'NONE', 'WORKASPACE' ) );
#206 = FACE_OUTER_BOUND ( 'NONE', #274, .T. ) ;
#207 = SURFACE_SIDE_STYLE ('',( #17 ) ) ;
#208 = PRESENTATION_STYLE_ASSIGNMENT (( #93 ) ) ;
#209 = VECTOR ( 'NONE', #32, 39.37007874015748143 ) ;
#210 = FILL_AREA_STYLE_COLOUR ( '', #266 ) ;
#211 = DIMENSIONAL_EXPONENTS ( 1.000000000000000000, 0.000000000000000000, 0.000000000000000000, 0.000000000000000000, 0.000000000000000000, 0.000000000000000000, 0.000000000000000000 ) ;
#212 = DIRECTION ( 'NONE',  ( 9.808453778935677663E-34, -1.000000000000000000, -0.000000000000000000 ) ) ;
#213 =( GEOMETRIC_REPRESENTATION_CONTEXT ( 3 ) GLOBAL_UNCERTAINTY_ASSIGNED_CONTEXT ( ( #80 ) ) GLOBAL_UNIT_ASSIGNED_CONTEXT ( ( #149, #9, #292 ) ) REPRESENTATION_CONTEXT ( 'NONE', 'WORKASPACE' ) );
#214 = DIRECTION ( 'NONE',  ( -1.206665185214025874E-16, 1.000000000000000000, -0.000000000000000000 ) ) ;
#215 =( NAMED_UNIT ( * ) PLANE_ANGLE_UNIT ( ) SI_UNIT ( $, .RADIAN. ) );
#216 = EDGE_CURVE ( 'NONE', #226, #185, #255, .T. ) ;
#217 = DIRECTION ( 'NONE',  ( -9.808453778935677663E-34, 1.000000000000000000, 0.000000000000000000 ) ) ;
#218 = FILL_AREA_STYLE ('',( #75 ) ) ;
#219 = DIRECTION ( 'NONE',  ( 1.000000000000000000, 0.000000000000000000, 0.000000000000000000 ) ) ;
#220 = FILL_AREA_STYLE ('',( #58 ) ) ;
#221 = AXIS2_PLACEMENT_3D ( 'NONE', #147, #171, #25 ) ;
#222 = AXIS2_PLACEMENT_3D ( 'NONE', #308, #214, #52 ) ;
#223 = UNCERTAINTY_MEASURE_WITH_UNIT (LENGTH_MEASURE( 1.000000000000000082E-05 ), #286, 'distance_accuracy_value', 'NONE');
#224 = ADVANCED_FACE ( 'NONE', ( #245 ), #142, .T. ) ;
#225 = ORIENTED_EDGE ( 'NONE', *, *, #175, .T. ) ;
#226 = VERTEX_POINT ( 'NONE', #34 ) ;
#227 = CARTESIAN_POINT ( 'NONE',  ( 2.716169159564024159E-16, 0.2415773655164111799, 0.000000000000000000 ) ) ;
#228 = AXIS2_PLACEMENT_3D ( 'NONE', #35, #55, #247 ) ;
#229 = ORIENTED_EDGE ( 'NONE', *, *, #31, .F. ) ;
#230 = PRODUCT_DEFINITION_SHAPE ( 'NONE', 'NONE',  #267 ) ;
#231 = CARTESIAN_POINT ( 'NONE',  ( -6.123233995736772199E-17, 3.000000000000000444, 0.000000000000000000 ) ) ;
#232 = FILL_AREA_STYLE ('',( #210 ) ) ;
#233 = DIRECTION ( 'NONE',  ( -1.206665185214025874E-16, 1.000000000000000000, -0.000000000000000000 ) ) ;
#234 = DIRECTION ( 'NONE',  ( -1.000000000000000000, -9.808453778935679373E-34, 0.000000000000000000 ) ) ;
#235 = MECHANICAL_DESIGN_GEOMETRIC_PRESENTATION_REPRESENTATION (  '', ( #240 ), #293 ) ;
#236 = MECHANICAL_DESIGN_GEOMETRIC_PRESENTATION_REPRESENTATION (  '', ( #73 ), #305 ) ;
#237 = FACE_OUTER_BOUND ( 'NONE', #254, .T. ) ;
#238 = CARTESIAN_POINT ( 'NONE',  ( 0.04000000000000000083, 0.000000000000000000, 1.775737858763661608E-17 ) ) ;
#239 = PRESENTATION_STYLE_ASSIGNMENT (( #3 ) ) ;
#240 = STYLED_ITEM ( 'NONE', ( #271 ), #88 ) ;
#241 = APPLICATION_PROTOCOL_DEFINITION ( 'draft international standard', 'automotive_design', 1998, #12 ) ;
#242 = DIRECTION ( 'NONE',  ( -1.206665185214025874E-16, 1.000000000000000000, -0.000000000000000000 ) ) ;
#243 = CARTESIAN_POINT ( 'NONE',  ( 0.2499999999999998057, 3.000000000000000444, 3.061616997868381785E-17 ) ) ;
#244 = FILL_AREA_STYLE_COLOUR ( '', #302 ) ;
#245 = FACE_OUTER_BOUND ( 'NONE', #64, .T. ) ;
#246 = EDGE_CURVE ( 'NONE', #150, #178, #176, .T. ) ;
#247 = DIRECTION ( 'NONE',  ( 1.000000000000000000, 9.808453778935677663E-34, 0.000000000000000000 ) ) ;
#248 = PRESENTATION_LAYER_ASSIGNMENT (  '', '', ( #54 ) ) ;
#249 = PRESENTATION_LAYER_ASSIGNMENT (  '', '', ( #29 ) ) ;
#250 = ORIENTED_EDGE ( 'NONE', *, *, #276, .F. ) ;
#251 = SURFACE_SIDE_STYLE ('',( #62 ) ) ;
#252 = VERTEX_POINT ( 'NONE', #238 ) ;
#253 = FACE_OUTER_BOUND ( 'NONE', #38, .T. ) ;
#254 = EDGE_LOOP ( 'NONE', ( #269, #259, #291, #277 ) ) ;
#255 = CIRCLE ( 'NONE', #113, 0.2499999999999999722 ) ;
#256 = CARTESIAN_POINT ( 'NONE',  ( 0.2499999999999999722, 3.000000000000000444, 3.061616997868383018E-17 ) ) ;
#257 = ORIENTED_EDGE ( 'NONE', *, *, #137, .T. ) ;
#258 = FILL_AREA_STYLE ('',( #41 ) ) ;
#259 = ORIENTED_EDGE ( 'NONE', *, *, #118, .T. ) ;
#260 =( GEOMETRIC_REPRESENTATION_CONTEXT ( 3 ) GLOBAL_UNCERTAINTY_ASSIGNED_CONTEXT ( ( #270 ) ) GLOBAL_UNIT_ASSIGNED_CONTEXT ( ( #81, #126, #168 ) ) REPRESENTATION_CONTEXT ( 'NONE', 'WORKASPACE' ) );
#261 = FILL_AREA_STYLE_COLOUR ( '', #16 ) ;
#262 = AXIS2_PLACEMENT_3D ( 'NONE', #156, #192, #284 ) ;
#263 =( LENGTH_UNIT ( ) NAMED_UNIT ( * ) SI_UNIT ( $, .METRE. ) );
#264 = CARTESIAN_POINT ( 'NONE',  ( -2.369500423704768587E-34, 0.2415773655164111799, 0.000000000000000000 ) ) ;
#265 = FACE_OUTER_BOUND ( 'NONE', #87, .T. ) ;
#266 = COLOUR_RGB ( '',1.000000000000000000, 0.000000000000000000, 0.000000000000000000 ) ;
#267 = PRODUCT_DEFINITION ( 'UNKNOWN', '', #295, #189 ) ;
#268 = DIRECTION ( 'NONE',  ( -1.206665185214025874E-16, 1.000000000000000000, -0.000000000000000000 ) ) ;
#269 = ORIENTED_EDGE ( 'NONE', *, *, #84, .F. ) ;
#270 = UNCERTAINTY_MEASURE_WITH_UNIT (LENGTH_MEASURE( 1.000000000000000082E-05 ), #81, 'distance_accuracy_value', 'NONE');
#271 = PRESENTATION_STYLE_ASSIGNMENT (( #184 ) ) ;
#272 = CARTESIAN_POINT ( 'NONE',  ( 2.716169159564024159E-16, 0.2415773655164113742, 0.000000000000000000 ) ) ;
#273 = ADVANCED_FACE ( 'NONE', ( #265 ), #121, .F. ) ;
#274 = EDGE_LOOP ( 'NONE', ( #5, #127 ) ) ;
#275 = DIRECTION ( 'NONE',  ( 0.6560590289905083861, 0.7547095802227710148, 8.034405899049467357E-17 ) ) ;
#276 = EDGE_CURVE ( 'NONE', #150, #85, #53, .T. ) ;
#277 = ORIENTED_EDGE ( 'NONE', *, *, #10, .F. ) ;
#278 = DIMENSIONAL_EXPONENTS ( 1.000000000000000000, 0.000000000000000000, 0.000000000000000000, 0.000000000000000000, 0.000000000000000000, 0.000000000000000000, 0.000000000000000000 ) ;
#279 = DIRECTION ( 'NONE',  ( -1.206665185214025874E-16, 1.000000000000000000, -0.000000000000000000 ) ) ;
#280 =( LENGTH_UNIT ( ) NAMED_UNIT ( * ) SI_UNIT ( $, .METRE. ) );
#281 =( GEOMETRIC_REPRESENTATION_CONTEXT ( 3 ) GLOBAL_UNCERTAINTY_ASSIGNED_CONTEXT ( ( #115 ) ) GLOBAL_UNIT_ASSIGNED_CONTEXT ( ( #197, #145, #96 ) ) REPRESENTATION_CONTEXT ( 'NONE', 'WORKASPACE' ) );
#282 = SURFACE_STYLE_USAGE ( .BOTH. , #110 ) ;
#283 = FACE_OUTER_BOUND ( 'NONE', #294, .T. ) ;
#284 = DIRECTION ( 'NONE',  ( 1.000000000000000000, 0.000000000000000000, 0.000000000000000000 ) ) ;
#285 = DIRECTION ( 'NONE',  ( 1.000000000000000000, 1.206665185214025874E-16, 0.000000000000000000 ) ) ;
#286 =( CONVERSION_BASED_UNIT ( 'INCH', #303 ) LENGTH_UNIT ( ) NAMED_UNIT ( #18 ) );
#287 = SURFACE_SIDE_STYLE ('',( #102 ) ) ;
#288 = ORIENTED_EDGE ( 'NONE', *, *, #175, .F. ) ;
#289 = DIRECTION ( 'NONE',  ( -1.000000000000000000, -9.808453778935679373E-34, 0.000000000000000000 ) ) ;
#290 = AXIS2_PLACEMENT_3D ( 'NONE', #21, #233, #138 ) ;
#291 = ORIENTED_EDGE ( 'NONE', *, *, #216, .T. ) ;
#292 =( NAMED_UNIT ( * ) SI_UNIT ( $, .STERADIAN. ) SOLID_ANGLE_UNIT ( ) );
#293 =( GEOMETRIC_REPRESENTATION_CONTEXT ( 3 ) GLOBAL_UNCERTAINTY_ASSIGNED_CONTEXT ( ( #4 ) ) GLOBAL_UNIT_ASSIGNED_CONTEXT ( ( #66, #13, #151 ) ) REPRESENTATION_CONTEXT ( 'NONE', 'WORKASPACE' ) );
#294 = EDGE_LOOP ( 'NONE', ( #148, #132, #40, #180 ) ) ;
#295 = PRODUCT_DEFINITION_FORMATION_WITH_SPECIFIED_SOURCE ( 'ANY', '', #8, .NOT_KNOWN. ) ;
#296 = LINE ( 'NONE', #109, #190 ) ;
#297 = SURFACE_STYLE_FILL_AREA ( #163 ) ;
#298 =( GEOMETRIC_REPRESENTATION_CONTEXT ( 3 ) GLOBAL_UNCERTAINTY_ASSIGNED_CONTEXT ( ( #223 ) ) GLOBAL_UNIT_ASSIGNED_CONTEXT ( ( #286, #215, #99 ) ) REPRESENTATION_CONTEXT ( 'NONE', 'WORKASPACE' ) );
#299 = LENGTH_MEASURE_WITH_UNIT ( LENGTH_MEASURE( 0.02539999999999999897 ), #280 );
#300 = AXIS2_PLACEMENT_3D ( 'NONE', #272, #105, #6 ) ;
#301 =( CONVERSION_BASED_UNIT ( 'INCH', #299 ) LENGTH_UNIT ( ) NAMED_UNIT ( #20 ) );
#302 = COLOUR_RGB ( '',0.7921568627450980005, 0.8196078431372548767, 0.9333333333333333481 ) ;
#303 = LENGTH_MEASURE_WITH_UNIT ( LENGTH_MEASURE( 0.02539999999999999897 ), #125 );
#304 = MECHANICAL_DESIGN_GEOMETRIC_PRESENTATION_REPRESENTATION (  '', ( #54 ), #298 ) ;
#305 =( GEOMETRIC_REPRESENTATION_CONTEXT ( 3 ) GLOBAL_UNCERTAINTY_ASSIGNED_CONTEXT ( ( #101 ) ) GLOBAL_UNIT_ASSIGNED_CONTEXT ( ( #301, #70, #69 ) ) REPRESENTATION_CONTEXT ( 'NONE', 'WORKASPACE' ) );
#306 = DIRECTION ( 'NONE',  ( -1.206665185214025874E-16, 1.000000000000000000, -0.000000000000000000 ) ) ;
#307 = DIRECTION ( 'NONE',  ( 9.808453778935677663E-34, -1.000000000000000000, -0.000000000000000000 ) ) ;
#308 = CARTESIAN_POINT ( 'NONE',  ( -6.123233995736772199E-17, 3.000000000000000444, 0.000000000000000000 ) ) ;
#309 = PRESENTATION_STYLE_ASSIGNMENT (( #33 ) ) ;
ENDSEC;
END-ISO-10303-21;
