ISO-10303-21;
HEADER;
FILE_DESCRIPTION (( 'STEP AP214' ),
    '1' );
FILE_NAME ('59497.STEP',
    '2023-07-24T15:07:55',
    ( '' ),
    ( '' ),
    'SwSTEP 2.0',
    'SolidWorks 2023',
    '' );
FILE_SCHEMA (( 'AUTOMOTIVE_DESIGN' ));
ENDSEC;

DATA;
#1 = UNCERTAINTY_MEASURE_WITH_UNIT (LENGTH_MEASURE( 1.000000000000000082E-05 ), #3, 'distance_accuracy_value', 'NONE');
#2 = SURFACE_STYLE_FILL_AREA ( #172 ) ;
#3 =( LENGTH_UNIT ( ) NAMED_UNIT ( * ) SI_UNIT ( .MILLI., .METRE. ) );
#4 = ADVANCED_FACE ( 'NONE', ( #129 ), #133, .T. ) ;
#5 = CIRCLE ( 'NONE', #310, 5.000000000000000000 ) ;
#6 = DIRECTION ( 'NONE',  ( -0.000000000000000000, -1.000000000000000000, -0.000000000000000000 ) ) ;
#7 = DIRECTION ( 'NONE',  ( 0.000000000000000000, 0.000000000000000000, -1.000000000000000000 ) ) ;
#8 = EDGE_CURVE ( 'NONE', #55, #300, #76, .T. ) ;
#9 = AXIS2_PLACEMENT_3D ( 'NONE', #346, #142, #120 ) ;
#10 = UNCERTAINTY_MEASURE_WITH_UNIT (LENGTH_MEASURE( 1.000000000000000082E-05 ), #68, 'distance_accuracy_value', 'NONE');
#11 = DIRECTION ( 'NONE',  ( -0.000000000000000000, -1.000000000000000000, -0.000000000000000000 ) ) ;
#12 = DIRECTION ( 'NONE',  ( -1.000000000000000000, -1.203966067220177465E-16, 0.000000000000000000 ) ) ;
#13 = DIRECTION ( 'NONE',  ( -1.000000000000000000, 0.000000000000000000, 0.000000000000000000 ) ) ;
#14 = CARTESIAN_POINT ( 'NONE',  ( 0.000000000000000000, 25.00000000000000000, -5.000000000000000000 ) ) ;
#15 = DIRECTION ( 'NONE',  ( 0.000000000000000000, 0.000000000000000000, -1.000000000000000000 ) ) ;
#16 = ORIENTED_EDGE ( 'NONE', *, *, #96, .F. ) ;
#17 = SURFACE_SIDE_STYLE ('',( #193 ) ) ;
#18 = ORIENTED_EDGE ( 'NONE', *, *, #49, .F. ) ;
#19 = FILL_AREA_STYLE_COLOUR ( '', #229 ) ;
#20 = AXIS2_PLACEMENT_3D ( 'NONE', #351, #266, #90 ) ;
#21 = CYLINDRICAL_SURFACE ( 'NONE', #81, 4.999999999999990230 ) ;
#22 = FILL_AREA_STYLE_COLOUR ( '', #241 ) ;
#23 = ADVANCED_FACE ( 'NONE', ( #225 ), #21, .T. ) ;
#24 = VERTEX_POINT ( 'NONE', #78 ) ;
#25 =( GEOMETRIC_REPRESENTATION_CONTEXT ( 3 ) GLOBAL_UNCERTAINTY_ASSIGNED_CONTEXT ( ( #10 ) ) GLOBAL_UNIT_ASSIGNED_CONTEXT ( ( #68, #186, #296 ) ) REPRESENTATION_CONTEXT ( 'NONE', 'WORKASPACE' ) );
#26 = ORIENTED_EDGE ( 'NONE', *, *, #288, .F. ) ;
#27 = AXIS2_PLACEMENT_3D ( 'NONE', #150, #276, #207 ) ;
#28 =( NAMED_UNIT ( * ) PLANE_ANGLE_UNIT ( ) SI_UNIT ( $, .RADIAN. ) );
#29 = DIRECTION ( 'NONE',  ( 1.000000000000000000, 0.000000000000000000, -1.224646799147353207E-16 ) ) ;
#30 = STYLED_ITEM ( 'NONE', ( #284 ), #166 ) ;
#31 = CARTESIAN_POINT ( 'NONE',  ( 0.000000000000000000, 0.5000000000000000000, 0.000000000000000000 ) ) ;
#32 =( NAMED_UNIT ( * ) PLANE_ANGLE_UNIT ( ) SI_UNIT ( $, .RADIAN. ) );
#33 = SURFACE_SIDE_STYLE ('',( #218 ) ) ;
#34 = AXIS2_PLACEMENT_3D ( 'NONE', #307, #73, #191 ) ;
#35 = CIRCLE ( 'NONE', #108, 4.500000000000000888 ) ;
#36 = FILL_AREA_STYLE ('',( #72 ) ) ;
#37 = UNCERTAINTY_MEASURE_WITH_UNIT (LENGTH_MEASURE( 1.000000000000000082E-05 ), #114, 'distance_accuracy_value', 'NONE');
#38 = AXIS2_PLACEMENT_3D ( 'NONE', #299, #242, #217 ) ;
#39 = LINE ( 'NONE', #332, #282 ) ;
#40 = PRESENTATION_STYLE_ASSIGNMENT (( #113 ) ) ;
#41 = VERTEX_POINT ( 'NONE', #136 ) ;
#42 = EDGE_LOOP ( 'NONE', ( #369, #188, #258, #335 ) ) ;
#43 = ADVANCED_FACE ( 'NONE', ( #195 ), #324, .T. ) ;
#44 = ORIENTED_EDGE ( 'NONE', *, *, #294, .F. ) ;
#45 =( NAMED_UNIT ( * ) SI_UNIT ( $, .STERADIAN. ) SOLID_ANGLE_UNIT ( ) );
#46 = PRESENTATION_LAYER_ASSIGNMENT (  '', '', ( #65 ) ) ;
#47 = VERTEX_POINT ( 'NONE', #298 ) ;
#48 = ORIENTED_EDGE ( 'NONE', *, *, #168, .T. ) ;
#49 = EDGE_CURVE ( 'NONE', #41, #55, #83, .T. ) ;
#50 = SURFACE_STYLE_FILL_AREA ( #238 ) ;
#51 = SHAPE_DEFINITION_REPRESENTATION ( #85, #306 ) ;
#52 = AXIS2_PLACEMENT_3D ( 'NONE', #211, #152, #330 ) ;
#53 = VERTEX_POINT ( 'NONE', #153 ) ;
#54 =( GEOMETRIC_REPRESENTATION_CONTEXT ( 3 ) GLOBAL_UNCERTAINTY_ASSIGNED_CONTEXT ( ( #37 ) ) GLOBAL_UNIT_ASSIGNED_CONTEXT ( ( #114, #343, #206 ) ) REPRESENTATION_CONTEXT ( 'NONE', 'WORKASPACE' ) );
#55 = VERTEX_POINT ( 'NONE', #94 ) ;
#56 = AXIS2_PLACEMENT_3D ( 'NONE', #183, #214, #354 ) ;
#57 = CARTESIAN_POINT ( 'NONE',  ( 0.000000000000000000, 0.000000000000000000, -5.000000000000000888 ) ) ;
#58 = PRESENTATION_LAYER_ASSIGNMENT (  '', '', ( #192 ) ) ;
#59 = SURFACE_SIDE_STYLE ('',( #50 ) ) ;
#60 = DIRECTION ( 'NONE',  ( -1.000000000000000000, 0.000000000000000000, 0.000000000000000000 ) ) ;
#61 = PRESENTATION_STYLE_ASSIGNMENT (( #103 ) ) ;
#62 = DIRECTION ( 'NONE',  ( 0.000000000000000000, 0.000000000000000000, -1.000000000000000000 ) ) ;
#63 = CARTESIAN_POINT ( 'NONE',  ( -4.999999999999987566, 75.00000000000000000, 0.000000000000000000 ) ) ;
#64 =( GEOMETRIC_REPRESENTATION_CONTEXT ( 3 ) GLOBAL_UNCERTAINTY_ASSIGNED_CONTEXT ( ( #179 ) ) GLOBAL_UNIT_ASSIGNED_CONTEXT ( ( #244, #190, #357 ) ) REPRESENTATION_CONTEXT ( 'NONE', 'WORKASPACE' ) );
#65 = STYLED_ITEM ( 'NONE', ( #204 ), #176 ) ;
#66 = PRESENTATION_STYLE_ASSIGNMENT (( #132 ) ) ;
#67 = SURFACE_STYLE_FILL_AREA ( #174 ) ;
#68 =( LENGTH_UNIT ( ) NAMED_UNIT ( * ) SI_UNIT ( .MILLI., .METRE. ) );
#69 = CIRCLE ( 'NONE', #38, 4.500000000000000888 ) ;
#70 = ORIENTED_EDGE ( 'NONE', *, *, #271, .F. ) ;
#71 = DIRECTION ( 'NONE',  ( -0.000000000000000000, -1.000000000000000000, -0.000000000000000000 ) ) ;
#72 = FILL_AREA_STYLE_COLOUR ( '', #290 ) ;
#73 = DIRECTION ( 'NONE',  ( -0.000000000000000000, -1.000000000000000000, -0.000000000000000000 ) ) ;
#74 = ORIENTED_EDGE ( 'NONE', *, *, #96, .T. ) ;
#75 = CIRCLE ( 'NONE', #9, 0.5000000000000004441 ) ;
#76 = LINE ( 'NONE', #280, #107 ) ;
#77 = UNCERTAINTY_MEASURE_WITH_UNIT (LENGTH_MEASURE( 1.000000000000000082E-05 ), #189, 'distance_accuracy_value', 'NONE');
#78 = CARTESIAN_POINT ( 'NONE',  ( 0.000000000000000000, 0.000000000000000000, -4.500000000000000888 ) ) ;
#79 = SURFACE_STYLE_USAGE ( .BOTH. , #104 ) ;
#80 = PRODUCT_DEFINITION ( 'UNKNOWN', '', #200, #126 ) ;
#81 = AXIS2_PLACEMENT_3D ( 'NONE', #303, #339, #157 ) ;
#82 = PRODUCT_CONTEXT ( 'NONE', #344, 'mechanical' ) ;
#83 = CIRCLE ( 'NONE', #27, 4.999999999999987566 ) ;
#84 = VERTEX_POINT ( 'NONE', #14 ) ;
#85 = PRODUCT_DEFINITION_SHAPE ( 'NONE', 'NONE',  #80 ) ;
#86 = SURFACE_STYLE_USAGE ( .BOTH. , #349 ) ;
#87 = LINE ( 'NONE', #57, #235 ) ;
#88 = AXIS2_PLACEMENT_3D ( 'NONE', #127, #208, #13 ) ;
#89 = DIRECTION ( 'NONE',  ( 0.000000000000000000, 0.000000000000000000, -1.000000000000000000 ) ) ;
#90 = DIRECTION ( 'NONE',  ( 0.000000000000000000, 0.000000000000000000, -1.000000000000000000 ) ) ;
#91 = DIRECTION ( 'NONE',  ( 0.000000000000000000, 0.000000000000000000, -1.000000000000000000 ) ) ;
#92 = MECHANICAL_DESIGN_GEOMETRIC_PRESENTATION_REPRESENTATION (  '', ( #261 ), #64 ) ;
#93 = CARTESIAN_POINT ( 'NONE',  ( 5.000000000000000888, 75.00000000000000000, 6.123233995736757408E-16 ) ) ;
#94 = CARTESIAN_POINT ( 'NONE',  ( -4.999999999999976019, 25.00000000000000000, 0.000000000000000000 ) ) ;
#95 = CARTESIAN_POINT ( 'NONE',  ( 0.000000000000000000, 0.000000000000000000, 0.000000000000000000 ) ) ;
#96 = EDGE_CURVE ( 'NONE', #47, #202, #302, .T. ) ;
#97 = CARTESIAN_POINT ( 'NONE',  ( 0.000000000000000000, 0.000000000000000000, 0.000000000000000000 ) ) ;
#98 = AXIS2_PLACEMENT_3D ( 'NONE', #158, #138, #260 ) ;
#99 = AXIS2_PLACEMENT_3D ( 'NONE', #249, #71, #329 ) ;
#100 = DIRECTION ( 'NONE',  ( 0.000000000000000000, -1.000000000000000000, -0.000000000000000000 ) ) ;
#101 = FILL_AREA_STYLE ('',( #281 ) ) ;
#102 = LINE ( 'NONE', #124, #145 ) ;
#103 = SURFACE_STYLE_USAGE ( .BOTH. , #123 ) ;
#104 = SURFACE_SIDE_STYLE ('',( #216 ) ) ;
#105 = ORIENTED_EDGE ( 'NONE', *, *, #262, .F. ) ;
#106 = ORIENTED_EDGE ( 'NONE', *, *, #224, .T. ) ;
#107 = VECTOR ( 'NONE', #254, 1000.000000000000000 ) ;
#108 = AXIS2_PLACEMENT_3D ( 'NONE', #264, #6, #91 ) ;
#109 = EDGE_LOOP ( 'NONE', ( #134, #230, #196, #361 ) ) ;
#110 = SURFACE_STYLE_USAGE ( .BOTH. , #17 ) ;
#111 =( GEOMETRIC_REPRESENTATION_CONTEXT ( 3 ) GLOBAL_UNCERTAINTY_ASSIGNED_CONTEXT ( ( #328 ) ) GLOBAL_UNIT_ASSIGNED_CONTEXT ( ( #125, #295, #353 ) ) REPRESENTATION_CONTEXT ( 'NONE', 'WORKASPACE' ) );
#112 = ORIENTED_EDGE ( 'NONE', *, *, #185, .T. ) ;
#113 = SURFACE_STYLE_USAGE ( .BOTH. , #259 ) ;
#114 =( LENGTH_UNIT ( ) NAMED_UNIT ( * ) SI_UNIT ( .MILLI., .METRE. ) );
#115 =( LENGTH_UNIT ( ) NAMED_UNIT ( * ) SI_UNIT ( .MILLI., .METRE. ) );
#116 = DIRECTION ( 'NONE',  ( 1.000000000000000000, 0.000000000000000000, 0.000000000000000000 ) ) ;
#117 = CIRCLE ( 'NONE', #98, 4.999999999999993783 ) ;
#118 = CIRCLE ( 'NONE', #99, 5.000000000000000888 ) ;
#119 = CARTESIAN_POINT ( 'NONE',  ( 0.000000000000000000, 0.5000000000000000000, 0.000000000000000000 ) ) ;
#120 = DIRECTION ( 'NONE',  ( 0.000000000000000000, 0.000000000000000000, 1.000000000000000000 ) ) ;
#121 = ADVANCED_FACE ( 'NONE', ( #362 ), #272, .F. ) ;
#122 = FILL_AREA_STYLE_COLOUR ( '', #317 ) ;
#123 = SURFACE_SIDE_STYLE ('',( #246 ) ) ;
#124 = CARTESIAN_POINT ( 'NONE',  ( 6.123233995736767268E-16, 0.000000000000000000, 5.000000000000000888 ) ) ;
#125 =( LENGTH_UNIT ( ) NAMED_UNIT ( * ) SI_UNIT ( .MILLI., .METRE. ) );
#126 = PRODUCT_DEFINITION_CONTEXT ( 'detailed design', #255, 'design' ) ;
#127 = CARTESIAN_POINT ( 'NONE',  ( 6.123233995736762930E-15, 75.00000000000000000, 0.000000000000000000 ) ) ;
#128 = DIRECTION ( 'NONE',  ( -1.203966067220177465E-16, 1.000000000000000000, 0.000000000000000000 ) ) ;
#129 = FACE_OUTER_BOUND ( 'NONE', #368, .T. ) ;
#130 = SURFACE_SIDE_STYLE ('',( #67 ) ) ;
#131 = STYLED_ITEM ( 'NONE', ( #40 ), #173 ) ;
#132 = SURFACE_STYLE_USAGE ( .BOTH. , #33 ) ;
#133 = CYLINDRICAL_SURFACE ( 'NONE', #34, 5.000000000000000888 ) ;
#134 = ORIENTED_EDGE ( 'NONE', *, *, #294, .T. ) ;
#135 = AXIS2_PLACEMENT_3D ( 'NONE', #178, #301, #15 ) ;
#136 = CARTESIAN_POINT ( 'NONE',  ( 5.000000000000000888, 25.00000000000000000, 6.123233995736757408E-16 ) ) ;
#137 = ORIENTED_EDGE ( 'NONE', *, *, #253, .F. ) ;
#138 = DIRECTION ( 'NONE',  ( -1.203966067220177465E-16, 1.000000000000000000, -0.000000000000000000 ) ) ;
#139 = AXIS2_PLACEMENT_3D ( 'NONE', #319, #164, #116 ) ;
#140 =( LENGTH_UNIT ( ) NAMED_UNIT ( * ) SI_UNIT ( .MILLI., .METRE. ) );
#141 = ADVANCED_FACE ( 'NONE', ( #359 ), #355, .T. ) ;
#142 = DIRECTION ( 'NONE',  ( -1.000000000000000000, 0.000000000000000000, 0.000000000000000000 ) ) ;
#143 = PRESENTATION_LAYER_ASSIGNMENT (  '', '', ( #131 ) ) ;
#144 = AXIS2_PLACEMENT_3D ( 'NONE', #31, #287, #89 ) ;
#145 = VECTOR ( 'NONE', #275, 1000.000000000000000 ) ;
#146 = CARTESIAN_POINT ( 'NONE',  ( 1.214306433183764966E-14, 25.00000000000000000, 0.000000000000000000 ) ) ;
#147 = SURFACE_STYLE_USAGE ( .BOTH. , #130 ) ;
#148 = UNCERTAINTY_MEASURE_WITH_UNIT (LENGTH_MEASURE( 1.000000000000000082E-05 ), #154, 'distance_accuracy_value', 'NONE');
#149 = STYLED_ITEM ( 'NONE', ( #292 ), #245 ) ;
#150 = CARTESIAN_POINT ( 'NONE',  ( 1.214306433183764966E-14, 25.00000000000000000, 0.000000000000000000 ) ) ;
#151 =( NAMED_UNIT ( * ) SI_UNIT ( $, .STERADIAN. ) SOLID_ANGLE_UNIT ( ) );
#152 = DIRECTION ( 'NONE',  ( 0.000000000000000000, 1.000000000000000000, 0.000000000000000000 ) ) ;
#153 = CARTESIAN_POINT ( 'NONE',  ( 6.123233995736766282E-16, 25.00000000000000000, 5.000000000000000000 ) ) ;
#154 =( LENGTH_UNIT ( ) NAMED_UNIT ( * ) SI_UNIT ( .MILLI., .METRE. ) );
#155 = FACE_OUTER_BOUND ( 'NONE', #315, .T. ) ;
#156 = CLOSED_SHELL ( 'NONE', ( #23, #121, #360, #162 ) ) ;
#157 = DIRECTION ( 'NONE',  ( -1.000000000000000000, 0.000000000000000000, 0.000000000000000000 ) ) ;
#158 = CARTESIAN_POINT ( 'NONE',  ( 6.123233995736762930E-15, 75.00000000000000000, 0.000000000000000000 ) ) ;
#159 =( GEOMETRIC_REPRESENTATION_CONTEXT ( 3 ) GLOBAL_UNCERTAINTY_ASSIGNED_CONTEXT ( ( #148 ) ) GLOBAL_UNIT_ASSIGNED_CONTEXT ( ( #154, #219, #337 ) ) REPRESENTATION_CONTEXT ( 'NONE', 'WORKASPACE' ) );
#160 = MECHANICAL_DESIGN_GEOMETRIC_PRESENTATION_REPRESENTATION (  '', ( #65 ), #222 ) ;
#161 = DIRECTION ( 'NONE',  ( 1.000000000000000000, 1.203966067220177465E-16, 0.000000000000000000 ) ) ;
#162 = ADVANCED_FACE ( 'NONE', ( #209 ), #327, .F. ) ;
#163 = PRESENTATION_LAYER_ASSIGNMENT (  '', '', ( #30 ) ) ;
#164 = DIRECTION ( 'NONE',  ( 0.000000000000000000, 0.000000000000000000, 1.000000000000000000 ) ) ;
#165 = AXIS2_PLACEMENT_3D ( 'NONE', #169, #29, #237 ) ;
#166 = MANIFOLD_SOLID_BREP ( 'Revolve - Cutting Edge', #212 ) ;
#167 = MECHANICAL_DESIGN_GEOMETRIC_PRESENTATION_REPRESENTATION (  '', ( #184 ), #340 ) ;
#168 = EDGE_CURVE ( 'NONE', #300, #365, #117, .T. ) ;
#169 = CARTESIAN_POINT ( 'NONE',  ( 5.510910596163089556E-16, 0.5000000000000000000, 4.500000000000000888 ) ) ;
#170 = DIRECTION ( 'NONE',  ( -0.000000000000000000, -1.000000000000000000, -0.000000000000000000 ) ) ;
#171 = MECHANICAL_DESIGN_GEOMETRIC_PRESENTATION_REPRESENTATION (  '', ( #321 ), #159 ) ;
#172 = FILL_AREA_STYLE ('',( #22 ) ) ;
#173 = MANIFOLD_SOLID_BREP ( 'Revolve - Tool Body (Straight Shanked)', #156 ) ;
#174 = FILL_AREA_STYLE ('',( #326 ) ) ;
#175 = FILL_AREA_STYLE ('',( #215 ) ) ;
#176 = ADVANCED_FACE ( 'NONE', ( #318 ), #336, .T. ) ;
#177 = DIRECTION ( 'NONE',  ( 0.000000000000000000, 0.000000000000000000, -1.000000000000000000 ) ) ;
#178 = CARTESIAN_POINT ( 'NONE',  ( 0.000000000000000000, 0.5000000000000000000, 0.000000000000000000 ) ) ;
#179 = UNCERTAINTY_MEASURE_WITH_UNIT (LENGTH_MEASURE( 1.000000000000000082E-05 ), #244, 'distance_accuracy_value', 'NONE');
#180 = MECHANICAL_DESIGN_GEOMETRIC_PRESENTATION_REPRESENTATION (  '', ( #30 ), #233 ) ;
#181 = PRESENTATION_LAYER_ASSIGNMENT (  '', '', ( #149 ) ) ;
#182 = PRESENTATION_STYLE_ASSIGNMENT (( #147 ) ) ;
#183 = CARTESIAN_POINT ( 'NONE',  ( 6.123233995736762930E-15, 75.00000000000000000, 0.000000000000000000 ) ) ;
#184 = STYLED_ITEM ( 'NONE', ( #182 ), #314 ) ;
#185 = EDGE_CURVE ( 'NONE', #202, #194, #269, .T. ) ;
#186 =( NAMED_UNIT ( * ) PLANE_ANGLE_UNIT ( ) SI_UNIT ( $, .RADIAN. ) );
#187 = AXIS2_PLACEMENT_3D ( 'NONE', #277, #323, #60 ) ;
#188 = ORIENTED_EDGE ( 'NONE', *, *, #279, .T. ) ;
#189 =( LENGTH_UNIT ( ) NAMED_UNIT ( * ) SI_UNIT ( .MILLI., .METRE. ) );
#190 =( NAMED_UNIT ( * ) PLANE_ANGLE_UNIT ( ) SI_UNIT ( $, .RADIAN. ) );
#191 = DIRECTION ( 'NONE',  ( 0.000000000000000000, 0.000000000000000000, -1.000000000000000000 ) ) ;
#192 = STYLED_ITEM ( 'NONE', ( #66 ), #141 ) ;
#193 = SURFACE_STYLE_FILL_AREA ( #283 ) ;
#194 = VERTEX_POINT ( 'NONE', #205 ) ;
#195 = FACE_OUTER_BOUND ( 'NONE', #252, .T. ) ;
#196 = ORIENTED_EDGE ( 'NONE', *, *, #168, .F. ) ;
#197 = SURFACE_STYLE_FILL_AREA ( #228 ) ;
#198 = AXIS2_PLACEMENT_3D ( 'NONE', #95, #100, #62 ) ;
#199 = ORIENTED_EDGE ( 'NONE', *, *, #203, .F. ) ;
#200 = PRODUCT_DEFINITION_FORMATION_WITH_SPECIFIED_SOURCE ( 'ANY', '', #350, .NOT_KNOWN. ) ;
#201 = SURFACE_STYLE_USAGE ( .BOTH. , #59 ) ;
#202 = VERTEX_POINT ( 'NONE', #265 ) ;
#203 = EDGE_CURVE ( 'NONE', #47, #24, #75, .T. ) ;
#204 = PRESENTATION_STYLE_ASSIGNMENT (( #86 ) ) ;
#205 = CARTESIAN_POINT ( 'NONE',  ( 5.817072295949928412E-16, 0.000000000000000000, 4.500000000000000888 ) ) ;
#206 =( NAMED_UNIT ( * ) SI_UNIT ( $, .STERADIAN. ) SOLID_ANGLE_UNIT ( ) );
#207 = DIRECTION ( 'NONE',  ( -1.000000000000000000, 0.000000000000000000, 0.000000000000000000 ) ) ;
#208 = DIRECTION ( 'NONE',  ( -1.203966067220177465E-16, 1.000000000000000000, -0.000000000000000000 ) ) ;
#209 = FACE_OUTER_BOUND ( 'NONE', #338, .T. ) ;
#210 = CARTESIAN_POINT ( 'NONE',  ( 0.000000000000000000, 25.00000000000000000, 0.000000000000000000 ) ) ;
#211 = CARTESIAN_POINT ( 'NONE',  ( 0.000000000000000000, 25.00000000000000000, 0.000000000000000000 ) ) ;
#212 = CLOSED_SHELL ( 'NONE', ( #4, #245, #141, #176, #314, #43 ) ) ;
#213 =( GEOMETRIC_REPRESENTATION_CONTEXT ( 3 ) GLOBAL_UNCERTAINTY_ASSIGNED_CONTEXT ( ( #1 ) ) GLOBAL_UNIT_ASSIGNED_CONTEXT ( ( #3, #345, #289 ) ) REPRESENTATION_CONTEXT ( 'NONE', 'WORKASPACE' ) );
#214 = DIRECTION ( 'NONE',  ( -1.203966067220177465E-16, 1.000000000000000000, -0.000000000000000000 ) ) ;
#215 = FILL_AREA_STYLE_COLOUR ( '', #297 ) ;
#216 = SURFACE_STYLE_FILL_AREA ( #101 ) ;
#217 = DIRECTION ( 'NONE',  ( 0.000000000000000000, 0.000000000000000000, -1.000000000000000000 ) ) ;
#218 = SURFACE_STYLE_FILL_AREA ( #175 ) ;
#219 =( NAMED_UNIT ( * ) PLANE_ANGLE_UNIT ( ) SI_UNIT ( $, .RADIAN. ) );
#220 = FILL_AREA_STYLE_COLOUR ( '', #309 ) ;
#221 = PRESENTATION_STYLE_ASSIGNMENT (( #79 ) ) ;
#222 =( GEOMETRIC_REPRESENTATION_CONTEXT ( 3 ) GLOBAL_UNCERTAINTY_ASSIGNED_CONTEXT ( ( #273 ) ) GLOBAL_UNIT_ASSIGNED_CONTEXT ( ( #115, #28, #313 ) ) REPRESENTATION_CONTEXT ( 'NONE', 'WORKASPACE' ) );
#223 = ORIENTED_EDGE ( 'NONE', *, *, #288, .T. ) ;
#224 = EDGE_CURVE ( 'NONE', #194, #24, #35, .T. ) ;
#225 = FACE_OUTER_BOUND ( 'NONE', #109, .T. ) ;
#226 = ORIENTED_EDGE ( 'NONE', *, *, #366, .T. ) ;
#227 = ORIENTED_EDGE ( 'NONE', *, *, #334, .F. ) ;
#228 = FILL_AREA_STYLE ('',( #220 ) ) ;
#229 = COLOUR_RGB ( '',0.7921568627450980005, 0.8196078431372548767, 0.9333333333333333481 ) ;
#230 = ORIENTED_EDGE ( 'NONE', *, *, #271, .T. ) ;
#231 = CIRCLE ( 'NONE', #88, 4.999999999999993783 ) ;
#232 = ORIENTED_EDGE ( 'NONE', *, *, #8, .T. ) ;
#233 =( GEOMETRIC_REPRESENTATION_CONTEXT ( 3 ) GLOBAL_UNCERTAINTY_ASSIGNED_CONTEXT ( ( #243 ) ) GLOBAL_UNIT_ASSIGNED_CONTEXT ( ( #140, #305, #45 ) ) REPRESENTATION_CONTEXT ( 'NONE', 'WORKASPACE' ) );
#234 = APPLICATION_PROTOCOL_DEFINITION ( 'draft international standard', 'automotive_design', 1998, #344 ) ;
#235 = VECTOR ( 'NONE', #170, 1000.000000000000000 ) ;
#236 = DIRECTION ( 'NONE',  ( 0.000000000000000000, 0.000000000000000000, -1.000000000000000000 ) ) ;
#237 = DIRECTION ( 'NONE',  ( -1.224646799147353454E-16, 0.000000000000000000, -1.000000000000000000 ) ) ;
#238 = FILL_AREA_STYLE ('',( #122 ) ) ;
#239 = CYLINDRICAL_SURFACE ( 'NONE', #56, 4.999999999999990230 ) ;
#240 = MECHANICAL_DESIGN_GEOMETRIC_PRESENTATION_REPRESENTATION (  '', ( #192 ), #25 ) ;
#241 = COLOUR_RGB ( '',1.000000000000000000, 0.000000000000000000, 0.000000000000000000 ) ;
#242 = DIRECTION ( 'NONE',  ( -0.000000000000000000, -1.000000000000000000, -0.000000000000000000 ) ) ;
#243 = UNCERTAINTY_MEASURE_WITH_UNIT (LENGTH_MEASURE( 1.000000000000000082E-05 ), #140, 'distance_accuracy_value', 'NONE');
#244 =( LENGTH_UNIT ( ) NAMED_UNIT ( * ) SI_UNIT ( .MILLI., .METRE. ) );
#245 = ADVANCED_FACE ( 'NONE', ( #322 ), #348, .T. ) ;
#246 = SURFACE_STYLE_FILL_AREA ( #36 ) ;
#247 = PRESENTATION_LAYER_ASSIGNMENT (  '', '', ( #321 ) ) ;
#248 = ORIENTED_EDGE ( 'NONE', *, *, #325, .F. ) ;
#249 = CARTESIAN_POINT ( 'NONE',  ( 0.000000000000000000, 0.5000000000000000000, 0.000000000000000000 ) ) ;
#250 = ORIENTED_EDGE ( 'NONE', *, *, #49, .T. ) ;
#251 = EDGE_LOOP ( 'NONE', ( #226, #106 ) ) ;
#252 = EDGE_LOOP ( 'NONE', ( #26, #137 ) ) ;
#253 = EDGE_CURVE ( 'NONE', #53, #84, #331, .T. ) ;
#254 = DIRECTION ( 'NONE',  ( -1.203966067220177465E-16, 1.000000000000000000, -0.000000000000000000 ) ) ;
#255 = APPLICATION_CONTEXT ( 'automotive_design' ) ;
#256 = MECHANICAL_DESIGN_GEOMETRIC_PRESENTATION_REPRESENTATION (  '', ( #149 ), #213 ) ;
#257 = EDGE_LOOP ( 'NONE', ( #70, #250, #232, #227 ) ) ;
#258 = ORIENTED_EDGE ( 'NONE', *, *, #203, .T. ) ;
#259 = SURFACE_SIDE_STYLE ('',( #197 ) ) ;
#260 = DIRECTION ( 'NONE',  ( -1.000000000000000000, 0.000000000000000000, 0.000000000000000000 ) ) ;
#261 = STYLED_ITEM ( 'NONE', ( #61 ), #43 ) ;
#262 = EDGE_CURVE ( 'NONE', #84, #47, #87, .T. ) ;
#263 = PRESENTATION_LAYER_ASSIGNMENT (  '', '', ( #261 ) ) ;
#264 = CARTESIAN_POINT ( 'NONE',  ( 0.000000000000000000, 0.000000000000000000, 0.000000000000000000 ) ) ;
#265 = CARTESIAN_POINT ( 'NONE',  ( 6.123233995736766282E-16, 0.5000000000000000000, 5.000000000000000888 ) ) ;
#266 = DIRECTION ( 'NONE',  ( -0.000000000000000000, -1.000000000000000000, -0.000000000000000000 ) ) ;
#267 = CYLINDRICAL_SURFACE ( 'NONE', #333, 5.000000000000000888 ) ;
#268 = COLOUR_RGB ( '',1.000000000000000000, 0.000000000000000000, 0.000000000000000000 ) ;
#269 = CIRCLE ( 'NONE', #165, 0.5000000000000004441 ) ;
#270 = DIRECTION ( 'NONE',  ( -0.000000000000000000, -1.000000000000000000, -0.000000000000000000 ) ) ;
#271 = EDGE_CURVE ( 'NONE', #41, #365, #39, .T. ) ;
#272 = PLANE ( 'NONE',  #316 ) ;
#273 = UNCERTAINTY_MEASURE_WITH_UNIT (LENGTH_MEASURE( 1.000000000000000082E-05 ), #115, 'distance_accuracy_value', 'NONE');
#274 = PRESENTATION_LAYER_ASSIGNMENT (  '', '', ( #184 ) ) ;
#275 = DIRECTION ( 'NONE',  ( -0.000000000000000000, -1.000000000000000000, -0.000000000000000000 ) ) ;
#276 = DIRECTION ( 'NONE',  ( -1.203966067220177465E-16, 1.000000000000000000, -0.000000000000000000 ) ) ;
#277 = CARTESIAN_POINT ( 'NONE',  ( 1.214306433183764966E-14, 25.00000000000000000, 0.000000000000000000 ) ) ;
#278 = EDGE_LOOP ( 'NONE', ( #44, #18 ) ) ;
#279 = EDGE_CURVE ( 'NONE', #202, #47, #118, .T. ) ;
#280 = CARTESIAN_POINT ( 'NONE',  ( -4.999999999999984901, 75.00000000000000000, 0.000000000000000000 ) ) ;
#281 = FILL_AREA_STYLE_COLOUR ( '', #268 ) ;
#282 = VECTOR ( 'NONE', #356, 1000.000000000000000 ) ;
#283 = FILL_AREA_STYLE ('',( #19 ) ) ;
#284 = PRESENTATION_STYLE_ASSIGNMENT (( #110 ) ) ;
#285 = ORIENTED_EDGE ( 'NONE', *, *, #279, .F. ) ;
#286 = AXIS2_PLACEMENT_3D ( 'NONE', #370, #364, #161 ) ;
#287 = DIRECTION ( 'NONE',  ( -0.000000000000000000, -1.000000000000000000, -0.000000000000000000 ) ) ;
#288 = EDGE_CURVE ( 'NONE', #84, #53, #5, .T. ) ;
#289 =( NAMED_UNIT ( * ) SI_UNIT ( $, .STERADIAN. ) SOLID_ANGLE_UNIT ( ) );
#290 = COLOUR_RGB ( '',1.000000000000000000, 0.000000000000000000, 0.000000000000000000 ) ;
#291 = PRODUCT_RELATED_PRODUCT_CATEGORY ( 'part', '', ( #350 ) ) ;
#292 = PRESENTATION_STYLE_ASSIGNMENT (( #201 ) ) ;
#293 = CIRCLE ( 'NONE', #187, 4.999999999999987566 ) ;
#294 = EDGE_CURVE ( 'NONE', #55, #41, #293, .T. ) ;
#295 =( NAMED_UNIT ( * ) PLANE_ANGLE_UNIT ( ) SI_UNIT ( $, .RADIAN. ) );
#296 =( NAMED_UNIT ( * ) SI_UNIT ( $, .STERADIAN. ) SOLID_ANGLE_UNIT ( ) );
#297 = COLOUR_RGB ( '',1.000000000000000000, 0.000000000000000000, 0.000000000000000000 ) ;
#298 = CARTESIAN_POINT ( 'NONE',  ( 0.000000000000000000, 0.5000000000000000000, -5.000000000000000888 ) ) ;
#299 = CARTESIAN_POINT ( 'NONE',  ( 0.000000000000000000, 0.000000000000000000, 0.000000000000000000 ) ) ;
#300 = VERTEX_POINT ( 'NONE', #63 ) ;
#301 = DIRECTION ( 'NONE',  ( -0.000000000000000000, -1.000000000000000000, -0.000000000000000000 ) ) ;
#302 = CIRCLE ( 'NONE', #135, 5.000000000000000888 ) ;
#303 = CARTESIAN_POINT ( 'NONE',  ( 6.123233995736762930E-15, 75.00000000000000000, 0.000000000000000000 ) ) ;
#304 = ORIENTED_EDGE ( 'NONE', *, *, #262, .T. ) ;
#305 =( NAMED_UNIT ( * ) PLANE_ANGLE_UNIT ( ) SI_UNIT ( $, .RADIAN. ) );
#306 = ADVANCED_BREP_SHAPE_REPRESENTATION ( '59497', ( #166, #173, #139 ), #111 ) ;
#307 = CARTESIAN_POINT ( 'NONE',  ( 0.000000000000000000, 0.000000000000000000, 0.000000000000000000 ) ) ;
#308 = ORIENTED_EDGE ( 'NONE', *, *, #366, .F. ) ;
#309 = COLOUR_RGB ( '',0.7921568627450980005, 0.8196078431372548767, 0.9333333333333333481 ) ;
#310 = AXIS2_PLACEMENT_3D ( 'NONE', #210, #270, #177 ) ;
#311 = COLOUR_RGB ( '',1.000000000000000000, 0.000000000000000000, 0.000000000000000000 ) ;
#312 = ORIENTED_EDGE ( 'NONE', *, *, #325, .T. ) ;
#313 =( NAMED_UNIT ( * ) SI_UNIT ( $, .STERADIAN. ) SOLID_ANGLE_UNIT ( ) );
#314 = ADVANCED_FACE ( 'NONE', ( #155 ), #267, .T. ) ;
#315 = EDGE_LOOP ( 'NONE', ( #248, #347, #304, #285 ) ) ;
#316 = AXIS2_PLACEMENT_3D ( 'NONE', #146, #128, #12 ) ;
#317 = COLOUR_RGB ( '',1.000000000000000000, 0.000000000000000000, 0.000000000000000000 ) ;
#318 = FACE_OUTER_BOUND ( 'NONE', #42, .T. ) ;
#319 = CARTESIAN_POINT ( 'NONE',  ( 0.000000000000000000, 0.000000000000000000, 0.000000000000000000 ) ) ;
#320 = APPLICATION_PROTOCOL_DEFINITION ( 'draft international standard', 'automotive_design', 1998, #255 ) ;
#321 = STYLED_ITEM ( 'NONE', ( #221 ), #4 ) ;
#322 = FACE_OUTER_BOUND ( 'NONE', #341, .T. ) ;
#323 = DIRECTION ( 'NONE',  ( -1.203966067220177465E-16, 1.000000000000000000, -0.000000000000000000 ) ) ;
#324 = PLANE ( 'NONE',  #52 ) ;
#325 = EDGE_CURVE ( 'NONE', #53, #202, #102, .T. ) ;
#326 = FILL_AREA_STYLE_COLOUR ( '', #311 ) ;
#327 = PLANE ( 'NONE',  #286 ) ;
#328 = UNCERTAINTY_MEASURE_WITH_UNIT (LENGTH_MEASURE( 1.000000000000000082E-05 ), #125, 'distance_accuracy_value', 'NONE');
#329 = DIRECTION ( 'NONE',  ( 0.000000000000000000, 0.000000000000000000, -1.000000000000000000 ) ) ;
#330 = DIRECTION ( 'NONE',  ( 0.000000000000000000, -0.000000000000000000, 1.000000000000000000 ) ) ;
#331 = CIRCLE ( 'NONE', #20, 5.000000000000000000 ) ;
#332 = CARTESIAN_POINT ( 'NONE',  ( 4.999999999999996447, 75.00000000000000000, 6.123233995736754449E-16 ) ) ;
#333 = AXIS2_PLACEMENT_3D ( 'NONE', #97, #11, #7 ) ;
#334 = EDGE_CURVE ( 'NONE', #365, #300, #231, .T. ) ;
#335 = ORIENTED_EDGE ( 'NONE', *, *, #224, .F. ) ;
#336 = TOROIDAL_SURFACE ( 'NONE', #144, 4.500000000000000888, 0.5000000000000002220 ) ;
#337 =( NAMED_UNIT ( * ) SI_UNIT ( $, .STERADIAN. ) SOLID_ANGLE_UNIT ( ) );
#338 = EDGE_LOOP ( 'NONE', ( #48, #363 ) ) ;
#339 = DIRECTION ( 'NONE',  ( -1.203966067220177465E-16, 1.000000000000000000, -0.000000000000000000 ) ) ;
#340 =( GEOMETRIC_REPRESENTATION_CONTEXT ( 3 ) GLOBAL_UNCERTAINTY_ASSIGNED_CONTEXT ( ( #77 ) ) GLOBAL_UNIT_ASSIGNED_CONTEXT ( ( #189, #32, #151 ) ) REPRESENTATION_CONTEXT ( 'NONE', 'WORKASPACE' ) );
#341 = EDGE_LOOP ( 'NONE', ( #74, #112, #308, #199 ) ) ;
#342 = MECHANICAL_DESIGN_GEOMETRIC_PRESENTATION_REPRESENTATION (  '', ( #131 ), #54 ) ;
#343 =( NAMED_UNIT ( * ) PLANE_ANGLE_UNIT ( ) SI_UNIT ( $, .RADIAN. ) );
#344 = APPLICATION_CONTEXT ( 'automotive_design' ) ;
#345 =( NAMED_UNIT ( * ) PLANE_ANGLE_UNIT ( ) SI_UNIT ( $, .RADIAN. ) );
#346 = CARTESIAN_POINT ( 'NONE',  ( 0.000000000000000000, 0.5000000000000000000, -4.500000000000000888 ) ) ;
#347 = ORIENTED_EDGE ( 'NONE', *, *, #253, .T. ) ;
#348 = TOROIDAL_SURFACE ( 'NONE', #367, 4.500000000000000888, 0.5000000000000002220 ) ;
#349 = SURFACE_SIDE_STYLE ('',( #2 ) ) ;
#350 = PRODUCT ( '59497', '59497', '', ( #82 ) ) ;
#351 = CARTESIAN_POINT ( 'NONE',  ( 0.000000000000000000, 25.00000000000000000, 0.000000000000000000 ) ) ;
#352 = DIRECTION ( 'NONE',  ( -0.000000000000000000, -1.000000000000000000, -0.000000000000000000 ) ) ;
#353 =( NAMED_UNIT ( * ) SI_UNIT ( $, .STERADIAN. ) SOLID_ANGLE_UNIT ( ) );
#354 = DIRECTION ( 'NONE',  ( -1.000000000000000000, 0.000000000000000000, 0.000000000000000000 ) ) ;
#355 = PLANE ( 'NONE',  #198 ) ;
#356 = DIRECTION ( 'NONE',  ( -1.203966067220177465E-16, 1.000000000000000000, -0.000000000000000000 ) ) ;
#357 =( NAMED_UNIT ( * ) SI_UNIT ( $, .STERADIAN. ) SOLID_ANGLE_UNIT ( ) );
#358 = FACE_OUTER_BOUND ( 'NONE', #257, .T. ) ;
#359 = FACE_OUTER_BOUND ( 'NONE', #251, .T. ) ;
#360 = ADVANCED_FACE ( 'NONE', ( #358 ), #239, .T. ) ;
#361 = ORIENTED_EDGE ( 'NONE', *, *, #8, .F. ) ;
#362 = FACE_OUTER_BOUND ( 'NONE', #278, .T. ) ;
#363 = ORIENTED_EDGE ( 'NONE', *, *, #334, .T. ) ;
#364 = DIRECTION ( 'NONE',  ( 1.203966067220177465E-16, -1.000000000000000000, 0.000000000000000000 ) ) ;
#365 = VERTEX_POINT ( 'NONE', #93 ) ;
#366 = EDGE_CURVE ( 'NONE', #24, #194, #69, .T. ) ;
#367 = AXIS2_PLACEMENT_3D ( 'NONE', #119, #352, #236 ) ;
#368 = EDGE_LOOP ( 'NONE', ( #223, #312, #16, #105 ) ) ;
#369 = ORIENTED_EDGE ( 'NONE', *, *, #185, .F. ) ;
#370 = CARTESIAN_POINT ( 'NONE',  ( 5.000000000000000000, 75.00000000000000000, 0.000000000000000000 ) ) ;
ENDSEC;
END-ISO-10303-21;
