ISO-10303-21;
HEADER;
FILE_DESCRIPTION (( 'STEP AP214' ),
    '1' );
FILE_NAME ('01330.STEP',
    '2023-06-22T14:26:45',
    ( '' ),
    ( '' ),
    'SwSTEP 2.0',
    'SolidWorks 2023',
    '' );
FILE_SCHEMA (( 'AUTOMOTIVE_DESIGN' ));
ENDSEC;

DATA;
#1 = VECTOR ( 'NONE', #115, 39.37007874015748143 ) ;
#2 = ORIENTED_EDGE ( 'NONE', *, *, #192, .T. ) ;
#3 = FILL_AREA_STYLE_COLOUR ( '', #122 ) ;
#4 = FILL_AREA_STYLE_COLOUR ( '', #279 ) ;
#5 = MANIFOLD_SOLID_BREP ( 'Revolve - Cutting Edge', #264 ) ;
#6 = ORIENTED_EDGE ( 'NONE', *, *, #306, .T. ) ;
#7 =( GEOMETRIC_REPRESENTATION_CONTEXT ( 3 ) GLOBAL_UNCERTAINTY_ASSIGNED_CONTEXT ( ( #233 ) ) GLOBAL_UNIT_ASSIGNED_CONTEXT ( ( #210, #35, #145 ) ) REPRESENTATION_CONTEXT ( 'NONE', 'WORKASPACE' ) );
#8 =( LENGTH_UNIT ( ) NAMED_UNIT ( * ) SI_UNIT ( $, .METRE. ) );
#9 = ORIENTED_EDGE ( 'NONE', *, *, #220, .T. ) ;
#10 = EDGE_CURVE ( 'NONE', #78, #50, #186, .T. ) ;
#11 = SURFACE_SIDE_STYLE ('',( #152 ) ) ;
#12 = FACE_OUTER_BOUND ( 'NONE', #245, .T. ) ;
#13 = CARTESIAN_POINT ( 'NONE',  ( 0.000000000000000000, 0.5000000000000001110, -0.1875000000000000278 ) ) ;
#14 = ADVANCED_FACE ( 'NONE', ( #25 ), #71, .T. ) ;
#15 = DIMENSIONAL_EXPONENTS ( 1.000000000000000000, 0.000000000000000000, 0.000000000000000000, 0.000000000000000000, 0.000000000000000000, 0.000000000000000000, 0.000000000000000000 ) ;
#16 = CARTESIAN_POINT ( 'NONE',  ( 2.499599637769763364E-33, 0.5000000000000001110, 0.000000000000000000 ) ) ;
#17 = MECHANICAL_DESIGN_GEOMETRIC_PRESENTATION_REPRESENTATION (  '', ( #53 ), #157 ) ;
#18 =( NAMED_UNIT ( * ) SI_UNIT ( $, .STERADIAN. ) SOLID_ANGLE_UNIT ( ) );
#19 =( NAMED_UNIT ( * ) SI_UNIT ( $, .STERADIAN. ) SOLID_ANGLE_UNIT ( ) );
#20 = FILL_AREA_STYLE ('',( #198 ) ) ;
#21 = ADVANCED_FACE ( 'NONE', ( #127 ), #124, .T. ) ;
#22 = AXIS2_PLACEMENT_3D ( 'NONE', #237, #175, #79 ) ;
#23 =( GEOMETRIC_REPRESENTATION_CONTEXT ( 3 ) GLOBAL_UNCERTAINTY_ASSIGNED_CONTEXT ( ( #136 ) ) GLOBAL_UNIT_ASSIGNED_CONTEXT ( ( #305, #301, #19 ) ) REPRESENTATION_CONTEXT ( 'NONE', 'WORKASPACE' ) );
#24 = APPLICATION_PROTOCOL_DEFINITION ( 'draft international standard', 'automotive_design', 1998, #41 ) ;
#25 = FACE_OUTER_BOUND ( 'NONE', #77, .T. ) ;
#26 = CARTESIAN_POINT ( 'NONE',  ( 2.296212748401287726E-17, 0.000000000000000000, 0.1875000000000000278 ) ) ;
#27 = CARTESIAN_POINT ( 'NONE',  ( 0.000000000000000000, 0.5000000000000001110, 0.000000000000000000 ) ) ;
#28 =( CONVERSION_BASED_UNIT ( 'INCH', #66 ) LENGTH_UNIT ( ) NAMED_UNIT ( #42 ) );
#29 = ORIENTED_EDGE ( 'NONE', *, *, #278, .T. ) ;
#30 = MECHANICAL_DESIGN_GEOMETRIC_PRESENTATION_REPRESENTATION (  '', ( #208 ), #273 ) ;
#31 = AXIS2_PLACEMENT_3D ( 'NONE', #247, #60, #297 ) ;
#32 = DIRECTION ( 'NONE',  ( -1.632862398863137774E-16, -1.000000000000000000, 0.000000000000000000 ) ) ;
#33 = SURFACE_STYLE_USAGE ( .BOTH. , #95 ) ;
#34 = ADVANCED_BREP_SHAPE_REPRESENTATION ( '01330', ( #5, #205, #253 ), #227 ) ;
#35 =( NAMED_UNIT ( * ) PLANE_ANGLE_UNIT ( ) SI_UNIT ( $, .RADIAN. ) );
#36 = ORIENTED_EDGE ( 'NONE', *, *, #298, .F. ) ;
#37 = PRODUCT_DEFINITION ( 'UNKNOWN', '', #203, #300 ) ;
#38 = CIRCLE ( 'NONE', #67, 0.1875000000000000278 ) ;
#39 = CIRCLE ( 'NONE', #202, 0.1875000000000000278 ) ;
#40 = DIRECTION ( 'NONE',  ( 0.000000000000000000, -0.000000000000000000, 1.000000000000000000 ) ) ;
#41 = APPLICATION_CONTEXT ( 'automotive_design' ) ;
#42 = DIMENSIONAL_EXPONENTS ( 1.000000000000000000, 0.000000000000000000, 0.000000000000000000, 0.000000000000000000, 0.000000000000000000, 0.000000000000000000, 0.000000000000000000 ) ;
#43 = COLOUR_RGB ( '',0.7921568627450980005, 0.8196078431372548767, 0.9333333333333333481 ) ;
#44 =( NAMED_UNIT ( * ) PLANE_ANGLE_UNIT ( ) SI_UNIT ( $, .RADIAN. ) );
#45 = DIRECTION ( 'NONE',  ( -1.000000000000000000, 0.000000000000000000, 0.000000000000000000 ) ) ;
#46 = SURFACE_STYLE_FILL_AREA ( #129 ) ;
#47 = ORIENTED_EDGE ( 'NONE', *, *, #259, .T. ) ;
#48 = VECTOR ( 'NONE', #282, 39.37007874015748143 ) ;
#49 = PLANE ( 'NONE',  #221 ) ;
#50 = VERTEX_POINT ( 'NONE', #235 ) ;
#51 = VERTEX_POINT ( 'NONE', #309 ) ;
#52 = ORIENTED_EDGE ( 'NONE', *, *, #143, .T. ) ;
#53 = STYLED_ITEM ( 'NONE', ( #295 ), #5 ) ;
#54 = COLOUR_RGB ( '',0.7921568627450980005, 0.8196078431372548767, 0.9333333333333333481 ) ;
#55 = SURFACE_SIDE_STYLE ('',( #103 ) ) ;
#56 = DIMENSIONAL_EXPONENTS ( 1.000000000000000000, 0.000000000000000000, 0.000000000000000000, 0.000000000000000000, 0.000000000000000000, 0.000000000000000000, 0.000000000000000000 ) ;
#57 = CARTESIAN_POINT ( 'NONE',  ( 0.000000000000000000, 0.5000000000000001110, 0.000000000000000000 ) ) ;
#58 = STYLED_ITEM ( 'NONE', ( #138 ), #205 ) ;
#59 = DIRECTION ( 'NONE',  ( 1.632862398863137774E-16, 1.000000000000000000, -0.000000000000000000 ) ) ;
#60 = DIRECTION ( 'NONE',  ( 1.632862398863137774E-16, 1.000000000000000000, -0.000000000000000000 ) ) ;
#61 = PRESENTATION_STYLE_ASSIGNMENT (( #304 ) ) ;
#62 = DIRECTION ( 'NONE',  ( -1.000000000000000000, 1.632862398863137774E-16, 0.000000000000000000 ) ) ;
#63 = COLOUR_RGB ( '',1.000000000000000000, 0.000000000000000000, 0.000000000000000000 ) ;
#64 = CARTESIAN_POINT ( 'NONE',  ( 0.000000000000000000, 0.000000000000000000, 0.000000000000000000 ) ) ;
#65 =( NAMED_UNIT ( * ) PLANE_ANGLE_UNIT ( ) SI_UNIT ( $, .RADIAN. ) );
#66 = LENGTH_MEASURE_WITH_UNIT ( LENGTH_MEASURE( 0.02539999999999999897 ), #256 );
#67 = AXIS2_PLACEMENT_3D ( 'NONE', #229, #195, #276 ) ;
#68 =( NAMED_UNIT ( * ) SI_UNIT ( $, .STERADIAN. ) SOLID_ANGLE_UNIT ( ) );
#69 = CARTESIAN_POINT ( 'NONE',  ( 0.000000000000000000, 0.000000000000000000, 0.000000000000000000 ) ) ;
#70 = CARTESIAN_POINT ( 'NONE',  ( 0.000000000000000000, 0.5000000000000001110, 0.000000000000000000 ) ) ;
#71 = PLANE ( 'NONE',  #22 ) ;
#72 = VERTEX_POINT ( 'NONE', #73 ) ;
#73 = CARTESIAN_POINT ( 'NONE',  ( 2.296212748401287726E-17, 0.000000000000000000, 0.1875000000000000278 ) ) ;
#74 = PRESENTATION_LAYER_ASSIGNMENT (  '', '', ( #249 ) ) ;
#75 = PRESENTATION_STYLE_ASSIGNMENT (( #172 ) ) ;
#76 = AXIS2_PLACEMENT_3D ( 'NONE', #16, #299, #62 ) ;
#77 = EDGE_LOOP ( 'NONE', ( #2, #9 ) ) ;
#78 = VERTEX_POINT ( 'NONE', #217 ) ;
#79 = DIRECTION ( 'NONE',  ( 0.000000000000000000, 0.000000000000000000, -1.000000000000000000 ) ) ;
#80 = CYLINDRICAL_SURFACE ( 'NONE', #302, 0.1874999999999999167 ) ;
#81 = ADVANCED_FACE ( 'NONE', ( #188 ), #263, .T. ) ;
#82 = CIRCLE ( 'NONE', #31, 0.1874999999999997780 ) ;
#83 = FILL_AREA_STYLE ('',( #3 ) ) ;
#84 =( LENGTH_UNIT ( ) NAMED_UNIT ( * ) SI_UNIT ( $, .METRE. ) );
#85 = DIRECTION ( 'NONE',  ( 0.000000000000000000, 0.000000000000000000, -1.000000000000000000 ) ) ;
#86 = PRODUCT_RELATED_PRODUCT_CATEGORY ( 'part', '', ( #97 ) ) ;
#87 = CARTESIAN_POINT ( 'NONE',  ( 0.1875000000000001388, 2.000000000000000000, 2.296212748401286185E-17 ) ) ;
#88 = LINE ( 'NONE', #141, #1 ) ;
#89 = SURFACE_SIDE_STYLE ('',( #209 ) ) ;
#90 = SHAPE_DEFINITION_REPRESENTATION ( #296, #34 ) ;
#91 = PRESENTATION_LAYER_ASSIGNMENT (  '', '', ( #162 ) ) ;
#92 = AXIS2_PLACEMENT_3D ( 'NONE', #64, #108, #110 ) ;
#93 = FACE_OUTER_BOUND ( 'NONE', #262, .T. ) ;
#94 = EDGE_LOOP ( 'NONE', ( #287, #293 ) ) ;
#95 = SURFACE_SIDE_STYLE ('',( #46 ) ) ;
#96 = ORIENTED_EDGE ( 'NONE', *, *, #166, .F. ) ;
#97 = PRODUCT ( '01330', '01330', '', ( #214 ) ) ;
#98 = ORIENTED_EDGE ( 'NONE', *, *, #298, .T. ) ;
#99 = AXIS2_PLACEMENT_3D ( 'NONE', #70, #281, #234 ) ;
#100 = CIRCLE ( 'NONE', #250, 0.1874999999999997780 ) ;
#101 =( NAMED_UNIT ( * ) PLANE_ANGLE_UNIT ( ) SI_UNIT ( $, .RADIAN. ) );
#102 = FILL_AREA_STYLE ('',( #171 ) ) ;
#103 = SURFACE_STYLE_FILL_AREA ( #83 ) ;
#104 = DIRECTION ( 'NONE',  ( 1.632862398863137774E-16, 1.000000000000000000, -0.000000000000000000 ) ) ;
#105 = DIMENSIONAL_EXPONENTS ( 1.000000000000000000, 0.000000000000000000, 0.000000000000000000, 0.000000000000000000, 0.000000000000000000, 0.000000000000000000, 0.000000000000000000 ) ;
#106 = CARTESIAN_POINT ( 'NONE',  ( 0.000000000000000000, 0.5000000000000001110, 0.000000000000000000 ) ) ;
#107 = ADVANCED_FACE ( 'NONE', ( #93 ), #49, .F. ) ;
#108 = DIRECTION ( 'NONE',  ( -0.000000000000000000, -1.000000000000000000, -0.000000000000000000 ) ) ;
#109 = AXIS2_PLACEMENT_3D ( 'NONE', #27, #120, #40 ) ;
#110 = DIRECTION ( 'NONE',  ( 0.000000000000000000, 0.000000000000000000, -1.000000000000000000 ) ) ;
#111 =( NAMED_UNIT ( * ) PLANE_ANGLE_UNIT ( ) SI_UNIT ( $, .RADIAN. ) );
#112 = DIRECTION ( 'NONE',  ( -0.000000000000000000, -1.000000000000000000, -0.000000000000000000 ) ) ;
#113 = UNCERTAINTY_MEASURE_WITH_UNIT (LENGTH_MEASURE( 1.000000000000000082E-05 ), #252, 'distance_accuracy_value', 'NONE');
#114 = FILL_AREA_STYLE_COLOUR ( '', #54 ) ;
#115 = DIRECTION ( 'NONE',  ( -0.000000000000000000, -1.000000000000000000, -0.000000000000000000 ) ) ;
#116 =( LENGTH_UNIT ( ) NAMED_UNIT ( * ) SI_UNIT ( $, .METRE. ) );
#117 = AXIS2_PLACEMENT_3D ( 'NONE', #283, #236, #45 ) ;
#118 =( LENGTH_UNIT ( ) NAMED_UNIT ( * ) SI_UNIT ( $, .METRE. ) );
#119 = ADVANCED_FACE ( 'NONE', ( #212 ), #128, .T. ) ;
#120 = DIRECTION ( 'NONE',  ( 0.000000000000000000, 1.000000000000000000, 0.000000000000000000 ) ) ;
#121 = EDGE_LOOP ( 'NONE', ( #36, #174, #52, #308 ) ) ;
#122 = COLOUR_RGB ( '',1.000000000000000000, 0.000000000000000000, 0.000000000000000000 ) ;
#123 = VERTEX_POINT ( 'NONE', #199 ) ;
#124 = CYLINDRICAL_SURFACE ( 'NONE', #142, 0.1874999999999999167 ) ;
#125 = DIRECTION ( 'NONE',  ( 1.000000000000000000, -1.632862398863137774E-16, 0.000000000000000000 ) ) ;
#126 = ORIENTED_EDGE ( 'NONE', *, *, #306, .F. ) ;
#127 = FACE_OUTER_BOUND ( 'NONE', #121, .T. ) ;
#128 = PLANE ( 'NONE',  #109 ) ;
#129 = FILL_AREA_STYLE ('',( #4 ) ) ;
#130 = DIRECTION ( 'NONE',  ( 1.632862398863137774E-16, 1.000000000000000000, -0.000000000000000000 ) ) ;
#131 = MECHANICAL_DESIGN_GEOMETRIC_PRESENTATION_REPRESENTATION (  '', ( #58 ), #303 ) ;
#132 = DIMENSIONAL_EXPONENTS ( 1.000000000000000000, 0.000000000000000000, 0.000000000000000000, 0.000000000000000000, 0.000000000000000000, 0.000000000000000000, 0.000000000000000000 ) ;
#133 = CYLINDRICAL_SURFACE ( 'NONE', #92, 0.1875000000000000278 ) ;
#134 = SURFACE_STYLE_USAGE ( .BOTH. , #55 ) ;
#135 = DIRECTION ( 'NONE',  ( 1.632862398863137774E-16, 1.000000000000000000, -0.000000000000000000 ) ) ;
#136 = UNCERTAINTY_MEASURE_WITH_UNIT (LENGTH_MEASURE( 1.000000000000000082E-05 ), #305, 'distance_accuracy_value', 'NONE');
#137 = ADVANCED_FACE ( 'NONE', ( #12 ), #80, .T. ) ;
#138 = PRESENTATION_STYLE_ASSIGNMENT (( #206 ) ) ;
#139 = CARTESIAN_POINT ( 'NONE',  ( 0.000000000000000000, 0.000000000000000000, 0.000000000000000000 ) ) ;
#140 =( CONVERSION_BASED_UNIT ( 'INCH', #225 ) LENGTH_UNIT ( ) NAMED_UNIT ( #56 ) );
#141 = CARTESIAN_POINT ( 'NONE',  ( 0.000000000000000000, 0.000000000000000000, -0.1875000000000000278 ) ) ;
#142 = AXIS2_PLACEMENT_3D ( 'NONE', #270, #130, #272 ) ;
#143 = EDGE_CURVE ( 'NONE', #78, #123, #176, .T. ) ;
#144 = DIRECTION ( 'NONE',  ( -0.000000000000000000, -1.000000000000000000, -0.000000000000000000 ) ) ;
#145 =( NAMED_UNIT ( * ) SI_UNIT ( $, .STERADIAN. ) SOLID_ANGLE_UNIT ( ) );
#146 = EDGE_LOOP ( 'NONE', ( #126, #239, #29, #213 ) ) ;
#147 = FILL_AREA_STYLE_COLOUR ( '', #63 ) ;
#148 = ORIENTED_EDGE ( 'NONE', *, *, #10, .T. ) ;
#149 = CLOSED_SHELL ( 'NONE', ( #137, #251, #21, #107 ) ) ;
#150 = ORIENTED_EDGE ( 'NONE', *, *, #192, .F. ) ;
#151 = DIRECTION ( 'NONE',  ( 0.000000000000000000, 0.000000000000000000, -1.000000000000000000 ) ) ;
#152 = SURFACE_STYLE_FILL_AREA ( #102 ) ;
#153 = PRESENTATION_STYLE_ASSIGNMENT (( #134 ) ) ;
#154 = DIMENSIONAL_EXPONENTS ( 1.000000000000000000, 0.000000000000000000, 0.000000000000000000, 0.000000000000000000, 0.000000000000000000, 0.000000000000000000, 0.000000000000000000 ) ;
#155 = CARTESIAN_POINT ( 'NONE',  ( 2.449293598294706414E-16, 2.000000000000000000, 0.000000000000000000 ) ) ;
#156 = DIRECTION ( 'NONE',  ( -0.000000000000000000, -1.000000000000000000, -0.000000000000000000 ) ) ;
#157 =( GEOMETRIC_REPRESENTATION_CONTEXT ( 3 ) GLOBAL_UNCERTAINTY_ASSIGNED_CONTEXT ( ( #280 ) ) GLOBAL_UNIT_ASSIGNED_CONTEXT ( ( #140, #111, #207 ) ) REPRESENTATION_CONTEXT ( 'NONE', 'WORKASPACE' ) );
#158 = CARTESIAN_POINT ( 'NONE',  ( -0.1874999999999996669, 2.000000000000000000, 0.000000000000000000 ) ) ;
#159 = CARTESIAN_POINT ( 'NONE',  ( 0.000000000000000000, 0.000000000000000000, -0.1875000000000000278 ) ) ;
#160 = FACE_OUTER_BOUND ( 'NONE', #94, .T. ) ;
#161 = LENGTH_MEASURE_WITH_UNIT ( LENGTH_MEASURE( 0.02539999999999999897 ), #84 );
#162 = STYLED_ITEM ( 'NONE', ( #153 ), #81 ) ;
#163 = PRESENTATION_LAYER_ASSIGNMENT (  '', '', ( #286 ) ) ;
#164 = SURFACE_STYLE_FILL_AREA ( #20 ) ;
#165 = UNCERTAINTY_MEASURE_WITH_UNIT (LENGTH_MEASURE( 1.000000000000000082E-05 ), #28, 'distance_accuracy_value', 'NONE');
#166 = EDGE_CURVE ( 'NONE', #238, #223, #39, .T. ) ;
#167 = MECHANICAL_DESIGN_GEOMETRIC_PRESENTATION_REPRESENTATION (  '', ( #162 ), #7 ) ;
#168 = AXIS2_PLACEMENT_3D ( 'NONE', #139, #112, #85 ) ;
#169 = LENGTH_MEASURE_WITH_UNIT ( LENGTH_MEASURE( 0.02539999999999999897 ), #8 );
#170 = CARTESIAN_POINT ( 'NONE',  ( 0.000000000000000000, 0.000000000000000000, 0.000000000000000000 ) ) ;
#171 = FILL_AREA_STYLE_COLOUR ( '', #43 ) ;
#172 = SURFACE_STYLE_USAGE ( .BOTH. , #294 ) ;
#173 =( NAMED_UNIT ( * ) PLANE_ANGLE_UNIT ( ) SI_UNIT ( $, .RADIAN. ) );
#174 = ORIENTED_EDGE ( 'NONE', *, *, #285, .T. ) ;
#175 = DIRECTION ( 'NONE',  ( 0.000000000000000000, -1.000000000000000000, -0.000000000000000000 ) ) ;
#176 = LINE ( 'NONE', #158, #258 ) ;
#177 = CIRCLE ( 'NONE', #222, 0.1875000000000000278 ) ;
#178 = DIMENSIONAL_EXPONENTS ( 1.000000000000000000, 0.000000000000000000, 0.000000000000000000, 0.000000000000000000, 0.000000000000000000, 0.000000000000000000, 0.000000000000000000 ) ;
#179 = CARTESIAN_POINT ( 'NONE',  ( 2.449293598294706414E-16, 2.000000000000000000, 0.000000000000000000 ) ) ;
#180 = DIRECTION ( 'NONE',  ( -0.000000000000000000, -1.000000000000000000, -0.000000000000000000 ) ) ;
#181 = CARTESIAN_POINT ( 'NONE',  ( 2.296212748401287726E-17, 0.5000000000000001110, 0.1875000000000000278 ) ) ;
#182 = LINE ( 'NONE', #26, #196 ) ;
#183 = LENGTH_MEASURE_WITH_UNIT ( LENGTH_MEASURE( 0.02539999999999999897 ), #116 );
#184 = LENGTH_MEASURE_WITH_UNIT ( LENGTH_MEASURE( 0.02539999999999999897 ), #118 );
#185 = APPLICATION_PROTOCOL_DEFINITION ( 'draft international standard', 'automotive_design', 1998, #277 ) ;
#186 = CIRCLE ( 'NONE', #99, 0.1875000000000000278 ) ;
#187 = ORIENTED_EDGE ( 'NONE', *, *, #246, .T. ) ;
#188 = FACE_OUTER_BOUND ( 'NONE', #218, .T. ) ;
#189 = ORIENTED_EDGE ( 'NONE', *, *, #143, .F. ) ;
#190 = AXIS2_PLACEMENT_3D ( 'NONE', #170, #267, #292 ) ;
#191 =( CONVERSION_BASED_UNIT ( 'INCH', #169 ) LENGTH_UNIT ( ) NAMED_UNIT ( #132 ) );
#192 = EDGE_CURVE ( 'NONE', #269, #72, #38, .T. ) ;
#193 =( LENGTH_UNIT ( ) NAMED_UNIT ( * ) SI_UNIT ( $, .METRE. ) );
#194 = SURFACE_STYLE_USAGE ( .BOTH. , #11 ) ;
#195 = DIRECTION ( 'NONE',  ( -0.000000000000000000, -1.000000000000000000, -0.000000000000000000 ) ) ;
#196 = VECTOR ( 'NONE', #144, 39.37007874015748143 ) ;
#197 = DIRECTION ( 'NONE',  ( 0.000000000000000000, 0.000000000000000000, -1.000000000000000000 ) ) ;
#198 = FILL_AREA_STYLE_COLOUR ( '', #243 ) ;
#199 = CARTESIAN_POINT ( 'NONE',  ( -0.1874999999999995282, 2.000000000000000000, 0.000000000000000000 ) ) ;
#200 = PLANE ( 'NONE',  #76 ) ;
#201 = MECHANICAL_DESIGN_GEOMETRIC_PRESENTATION_REPRESENTATION (  '', ( #249 ), #266 ) ;
#202 = AXIS2_PLACEMENT_3D ( 'NONE', #106, #156, #151 ) ;
#203 = PRODUCT_DEFINITION_FORMATION_WITH_SPECIFIED_SOURCE ( 'ANY', '', #97, .NOT_KNOWN. ) ;
#204 = ADVANCED_FACE ( 'NONE', ( #248 ), #133, .T. ) ;
#205 = MANIFOLD_SOLID_BREP ( 'Revolve - Tool Body (Straight Shanked)', #149 ) ;
#206 = SURFACE_STYLE_USAGE ( .BOTH. , #89 ) ;
#207 =( NAMED_UNIT ( * ) SI_UNIT ( $, .STERADIAN. ) SOLID_ANGLE_UNIT ( ) );
#208 = STYLED_ITEM ( 'NONE', ( #75 ), #14 ) ;
#209 = SURFACE_STYLE_FILL_AREA ( #230 ) ;
#210 =( CONVERSION_BASED_UNIT ( 'INCH', #184 ) LENGTH_UNIT ( ) NAMED_UNIT ( #154 ) );
#211 = DIRECTION ( 'NONE',  ( 0.000000000000000000, 0.000000000000000000, 1.000000000000000000 ) ) ;
#212 = FACE_OUTER_BOUND ( 'NONE', #261, .T. ) ;
#213 = ORIENTED_EDGE ( 'NONE', *, *, #220, .F. ) ;
#214 = PRODUCT_CONTEXT ( 'NONE', #277, 'mechanical' ) ;
#215 = CIRCLE ( 'NONE', #168, 0.1875000000000000278 ) ;
#216 = PRESENTATION_STYLE_ASSIGNMENT (( #33 ) ) ;
#217 = CARTESIAN_POINT ( 'NONE',  ( -0.1875000000000000278, 0.5000000000000001110, 0.000000000000000000 ) ) ;
#218 = EDGE_LOOP ( 'NONE', ( #187, #6, #150, #219 ) ) ;
#219 = ORIENTED_EDGE ( 'NONE', *, *, #278, .F. ) ;
#220 = EDGE_CURVE ( 'NONE', #72, #269, #215, .T. ) ;
#221 = AXIS2_PLACEMENT_3D ( 'NONE', #260, #32, #125 ) ;
#222 = AXIS2_PLACEMENT_3D ( 'NONE', #57, #180, #197 ) ;
#223 = VERTEX_POINT ( 'NONE', #13 ) ;
#224 = DIRECTION ( 'NONE',  ( -1.000000000000000000, 0.000000000000000000, 0.000000000000000000 ) ) ;
#225 = LENGTH_MEASURE_WITH_UNIT ( LENGTH_MEASURE( 0.02539999999999999897 ), #275 );
#226 = UNCERTAINTY_MEASURE_WITH_UNIT (LENGTH_MEASURE( 1.000000000000000082E-05 ), #289, 'distance_accuracy_value', 'NONE');
#227 =( GEOMETRIC_REPRESENTATION_CONTEXT ( 3 ) GLOBAL_UNCERTAINTY_ASSIGNED_CONTEXT ( ( #165 ) ) GLOBAL_UNIT_ASSIGNED_CONTEXT ( ( #28, #65, #257 ) ) REPRESENTATION_CONTEXT ( 'NONE', 'WORKASPACE' ) );
#228 = DIRECTION ( 'NONE',  ( -1.000000000000000000, 0.000000000000000000, 0.000000000000000000 ) ) ;
#229 = CARTESIAN_POINT ( 'NONE',  ( 0.000000000000000000, 0.000000000000000000, 0.000000000000000000 ) ) ;
#230 = FILL_AREA_STYLE ('',( #114 ) ) ;
#231 = PRESENTATION_LAYER_ASSIGNMENT (  '', '', ( #208 ) ) ;
#232 = CIRCLE ( 'NONE', #117, 0.1875000000000000278 ) ;
#233 = UNCERTAINTY_MEASURE_WITH_UNIT (LENGTH_MEASURE( 1.000000000000000082E-05 ), #210, 'distance_accuracy_value', 'NONE');
#234 = DIRECTION ( 'NONE',  ( -1.000000000000000000, 0.000000000000000000, 0.000000000000000000 ) ) ;
#235 = CARTESIAN_POINT ( 'NONE',  ( 0.1875000000000000278, 0.5000000000000001110, 2.296212748401286493E-17 ) ) ;
#236 = DIRECTION ( 'NONE',  ( 1.632862398863137774E-16, 1.000000000000000000, -0.000000000000000000 ) ) ;
#237 = CARTESIAN_POINT ( 'NONE',  ( 0.000000000000000000, 0.000000000000000000, 0.000000000000000000 ) ) ;
#238 = VERTEX_POINT ( 'NONE', #181 ) ;
#239 = ORIENTED_EDGE ( 'NONE', *, *, #166, .T. ) ;
#240 = LENGTH_MEASURE_WITH_UNIT ( LENGTH_MEASURE( 0.02539999999999999897 ), #193 );
#241 = ORIENTED_EDGE ( 'NONE', *, *, #265, .F. ) ;
#242 =( NAMED_UNIT ( * ) SI_UNIT ( $, .STERADIAN. ) SOLID_ANGLE_UNIT ( ) );
#243 = COLOUR_RGB ( '',1.000000000000000000, 0.000000000000000000, 0.000000000000000000 ) ;
#244 = PRESENTATION_LAYER_ASSIGNMENT (  '', '', ( #58 ) ) ;
#245 = EDGE_LOOP ( 'NONE', ( #148, #98, #241, #189 ) ) ;
#246 = EDGE_CURVE ( 'NONE', #223, #238, #177, .T. ) ;
#247 = CARTESIAN_POINT ( 'NONE',  ( 2.449293598294706414E-16, 2.000000000000000000, 0.000000000000000000 ) ) ;
#248 = FACE_OUTER_BOUND ( 'NONE', #146, .T. ) ;
#249 = STYLED_ITEM ( 'NONE', ( #216 ), #119 ) ;
#250 = AXIS2_PLACEMENT_3D ( 'NONE', #179, #135, #228 ) ;
#251 = ADVANCED_FACE ( 'NONE', ( #160 ), #200, .F. ) ;
#252 =( CONVERSION_BASED_UNIT ( 'INCH', #161 ) LENGTH_UNIT ( ) NAMED_UNIT ( #15 ) );
#253 = AXIS2_PLACEMENT_3D ( 'NONE', #69, #211, #254 ) ;
#254 = DIRECTION ( 'NONE',  ( 1.000000000000000000, 0.000000000000000000, 0.000000000000000000 ) ) ;
#255 = SURFACE_SIDE_STYLE ('',( #164 ) ) ;
#256 =( LENGTH_UNIT ( ) NAMED_UNIT ( * ) SI_UNIT ( $, .METRE. ) );
#257 =( NAMED_UNIT ( * ) SI_UNIT ( $, .STERADIAN. ) SOLID_ANGLE_UNIT ( ) );
#258 = VECTOR ( 'NONE', #104, 39.37007874015748143 ) ;
#259 = EDGE_CURVE ( 'NONE', #51, #123, #82, .T. ) ;
#260 = CARTESIAN_POINT ( 'NONE',  ( 0.1875000000000000278, 2.000000000000000000, 0.000000000000000000 ) ) ;
#261 = EDGE_LOOP ( 'NONE', ( #268, #96 ) ) ;
#262 = EDGE_LOOP ( 'NONE', ( #271, #47 ) ) ;
#263 = CYLINDRICAL_SURFACE ( 'NONE', #190, 0.1875000000000000278 ) ;
#264 = CLOSED_SHELL ( 'NONE', ( #81, #119, #204, #14 ) ) ;
#265 = EDGE_CURVE ( 'NONE', #123, #51, #100, .T. ) ;
#266 =( GEOMETRIC_REPRESENTATION_CONTEXT ( 3 ) GLOBAL_UNCERTAINTY_ASSIGNED_CONTEXT ( ( #284 ) ) GLOBAL_UNIT_ASSIGNED_CONTEXT ( ( #191, #101, #68 ) ) REPRESENTATION_CONTEXT ( 'NONE', 'WORKASPACE' ) );
#267 = DIRECTION ( 'NONE',  ( -0.000000000000000000, -1.000000000000000000, -0.000000000000000000 ) ) ;
#268 = ORIENTED_EDGE ( 'NONE', *, *, #246, .F. ) ;
#269 = VERTEX_POINT ( 'NONE', #159 ) ;
#270 = CARTESIAN_POINT ( 'NONE',  ( 2.449293598294706414E-16, 2.000000000000000000, 0.000000000000000000 ) ) ;
#271 = ORIENTED_EDGE ( 'NONE', *, *, #265, .T. ) ;
#272 = DIRECTION ( 'NONE',  ( -1.000000000000000000, 0.000000000000000000, 0.000000000000000000 ) ) ;
#273 =( GEOMETRIC_REPRESENTATION_CONTEXT ( 3 ) GLOBAL_UNCERTAINTY_ASSIGNED_CONTEXT ( ( #226 ) ) GLOBAL_UNIT_ASSIGNED_CONTEXT ( ( #289, #173, #242 ) ) REPRESENTATION_CONTEXT ( 'NONE', 'WORKASPACE' ) );
#274 = MECHANICAL_DESIGN_GEOMETRIC_PRESENTATION_REPRESENTATION (  '', ( #286 ), #23 ) ;
#275 =( LENGTH_UNIT ( ) NAMED_UNIT ( * ) SI_UNIT ( $, .METRE. ) );
#276 = DIRECTION ( 'NONE',  ( 0.000000000000000000, 0.000000000000000000, -1.000000000000000000 ) ) ;
#277 = APPLICATION_CONTEXT ( 'automotive_design' ) ;
#278 = EDGE_CURVE ( 'NONE', #223, #269, #88, .T. ) ;
#279 = COLOUR_RGB ( '',1.000000000000000000, 0.000000000000000000, 0.000000000000000000 ) ;
#280 = UNCERTAINTY_MEASURE_WITH_UNIT (LENGTH_MEASURE( 1.000000000000000082E-05 ), #140, 'distance_accuracy_value', 'NONE');
#281 = DIRECTION ( 'NONE',  ( 1.632862398863137774E-16, 1.000000000000000000, -0.000000000000000000 ) ) ;
#282 = DIRECTION ( 'NONE',  ( 1.632862398863137774E-16, 1.000000000000000000, -0.000000000000000000 ) ) ;
#283 = CARTESIAN_POINT ( 'NONE',  ( 0.000000000000000000, 0.5000000000000001110, 0.000000000000000000 ) ) ;
#284 = UNCERTAINTY_MEASURE_WITH_UNIT (LENGTH_MEASURE( 1.000000000000000082E-05 ), #191, 'distance_accuracy_value', 'NONE');
#285 = EDGE_CURVE ( 'NONE', #50, #78, #232, .T. ) ;
#286 = STYLED_ITEM ( 'NONE', ( #61 ), #204 ) ;
#287 = ORIENTED_EDGE ( 'NONE', *, *, #10, .F. ) ;
#288 = FILL_AREA_STYLE ('',( #147 ) ) ;
#289 =( CONVERSION_BASED_UNIT ( 'INCH', #240 ) LENGTH_UNIT ( ) NAMED_UNIT ( #105 ) );
#290 = SURFACE_STYLE_FILL_AREA ( #288 ) ;
#291 = PRESENTATION_LAYER_ASSIGNMENT (  '', '', ( #53 ) ) ;
#292 = DIRECTION ( 'NONE',  ( 0.000000000000000000, 0.000000000000000000, -1.000000000000000000 ) ) ;
#293 = ORIENTED_EDGE ( 'NONE', *, *, #285, .F. ) ;
#294 = SURFACE_SIDE_STYLE ('',( #290 ) ) ;
#295 = PRESENTATION_STYLE_ASSIGNMENT (( #194 ) ) ;
#296 = PRODUCT_DEFINITION_SHAPE ( 'NONE', 'NONE',  #37 ) ;
#297 = DIRECTION ( 'NONE',  ( -1.000000000000000000, 0.000000000000000000, 0.000000000000000000 ) ) ;
#298 = EDGE_CURVE ( 'NONE', #50, #51, #307, .T. ) ;
#299 = DIRECTION ( 'NONE',  ( 1.632862398863137774E-16, 1.000000000000000000, -0.000000000000000000 ) ) ;
#300 = PRODUCT_DEFINITION_CONTEXT ( 'detailed design', #41, 'design' ) ;
#301 =( NAMED_UNIT ( * ) PLANE_ANGLE_UNIT ( ) SI_UNIT ( $, .RADIAN. ) );
#302 = AXIS2_PLACEMENT_3D ( 'NONE', #155, #59, #224 ) ;
#303 =( GEOMETRIC_REPRESENTATION_CONTEXT ( 3 ) GLOBAL_UNCERTAINTY_ASSIGNED_CONTEXT ( ( #113 ) ) GLOBAL_UNIT_ASSIGNED_CONTEXT ( ( #252, #44, #18 ) ) REPRESENTATION_CONTEXT ( 'NONE', 'WORKASPACE' ) );
#304 = SURFACE_STYLE_USAGE ( .BOTH. , #255 ) ;
#305 =( CONVERSION_BASED_UNIT ( 'INCH', #183 ) LENGTH_UNIT ( ) NAMED_UNIT ( #178 ) );
#306 = EDGE_CURVE ( 'NONE', #238, #72, #182, .T. ) ;
#307 = LINE ( 'NONE', #87, #48 ) ;
#308 = ORIENTED_EDGE ( 'NONE', *, *, #259, .F. ) ;
#309 = CARTESIAN_POINT ( 'NONE',  ( 0.1875000000000000278, 2.000000000000000000, 2.296212748401286493E-17 ) ) ;
ENDSEC;
END-ISO-10303-21;
