ISO-10303-21;
HEADER;
FILE_DESCRIPTION (( 'STEP AP214' ),
    '1' );
FILE_NAME ('Micro_RDB-80.STEP',
    '2021-08-31T17:00:28',
    ( '' ),
    ( '' ),
    'SwSTEP 2.0',
    'SolidWorks 2020',
    '' );
FILE_SCHEMA (( 'AUTOMOTIVE_DESIGN' ));
ENDSEC;

DATA;
#1 = LINE ( 'NONE', #260, #95 ) ;
#2 = CARTESIAN_POINT ( 'NONE',  ( 0.1248750000000001248, 0.0000000000000000000, 1.000000000000000000 ) ) ;
#3 = LINE ( 'NONE', #28, #48 ) ;
#4 = CARTESIAN_POINT ( 'NONE',  ( 0.1250000000000000000, 1.530808498934191201E-17, 2.985000000000001208 ) ) ;
#5 = CARTESIAN_POINT ( 'NONE',  ( -0.1248749999999999999, 0.0000000000000000000, 3.058555380870515566E-17 ) ) ;
#6 = ORIENTED_EDGE ( 'NONE', *, *, #8, .T. ) ;
#7 = ORIENTED_EDGE ( 'NONE', *, *, #233, .F. ) ;
#8 = EDGE_CURVE ( 'NONE', #292, #85, #222, .T. ) ;
#9 = DIRECTION ( 'NONE',  ( -1.000000000000000000, 0.0000000000000000000, 0.0000000000000000000 ) ) ;
#10 = AXIS2_PLACEMENT_3D ( 'NONE', #26, #168, #188 ) ;
#11 = ORIENTED_EDGE ( 'NONE', *, *, #138, .F. ) ;
#12 = EDGE_CURVE ( 'NONE', #242, #288, #94, .T. ) ;
#13 = DIRECTION ( 'NONE',  ( -1.000000000000000000, 0.0000000000000000000, 1.224646799147353700E-16 ) ) ;
#14 = VECTOR ( 'NONE', #164, 39.37007874015748143 ) ;
#15 = DIRECTION ( 'NONE',  ( 0.0000000000000000000, 0.0000000000000000000, 1.000000000000000000 ) ) ;
#16 = ADVANCED_FACE ( 'NONE', ( #279 ), #40, .F. ) ;
#17 = DIRECTION ( 'NONE',  ( -1.000000000000000000, 0.0000000000000000000, 0.0000000000000000000 ) ) ;
#18 = ORIENTED_EDGE ( 'NONE', *, *, #237, .F. ) ;
#19 = AXIS2_PLACEMENT_3D ( 'NONE', #184, #161, #296 ) ;
#20 = AXIS2_PLACEMENT_3D ( 'NONE', #73, #150, #151 ) ;
#21 = LINE ( 'NONE', #257, #25 ) ;
#22 = PRODUCT_DEFINITION ( 'UNKNOWN', '', #147, #216 ) ;
#23 = CYLINDRICAL_SURFACE ( 'NONE', #20, 0.1250000000000000000 ) ;
#24 = FILL_AREA_STYLE_COLOUR ( '', #229 ) ;
#25 = VECTOR ( 'NONE', #99, 39.37007874015748143 ) ;
#26 = CARTESIAN_POINT ( 'NONE',  ( 1.872825028598995495E-33, 0.0000000000000000000, 1.529277690435257783E-17 ) ) ;
#27 = ADVANCED_FACE ( 'NONE', ( #159 ), #100, .T. ) ;
#28 = CARTESIAN_POINT ( 'NONE',  ( 0.1250000000000000000, 1.530808498934191201E-17, 3.000000000000000444 ) ) ;
#29 = UNCERTAINTY_MEASURE_WITH_UNIT (LENGTH_MEASURE( 1.000000000000000082E-05 ), #58, 'distance_accuracy_value', 'NONE');
#30 = ORIENTED_EDGE ( 'NONE', *, *, #57, .T. ) ;
#31 = CIRCLE ( 'NONE', #105, 0.1248749999999999999 ) ;
#32 = CIRCLE ( 'NONE', #245, 0.1250000000000000000 ) ;
#33 = ADVANCED_FACE ( 'NONE', ( #253 ), #144, .T. ) ;
#34 = ORIENTED_EDGE ( 'NONE', *, *, #282, .F. ) ;
#35 = ORIENTED_EDGE ( 'NONE', *, *, #12, .F. ) ;
#36 = ADVANCED_FACE ( 'NONE', ( #119 ), #170, .T. ) ;
#37 = CARTESIAN_POINT ( 'NONE',  ( 0.0000000000000000000, 0.0000000000000000000, 3.000000000000000444 ) ) ;
#38 = DIRECTION ( 'NONE',  ( 0.0000000000000000000, 0.0000000000000000000, 1.000000000000000000 ) ) ;
#39 = ORIENTED_EDGE ( 'NONE', *, *, #179, .T. ) ;
#40 = PLANE ( 'NONE',  #53 ) ;
#41 = AXIS2_PLACEMENT_3D ( 'NONE', #153, #236, #50 ) ;
#42 = EDGE_LOOP ( 'NONE', ( #181, #67, #6, #11 ) ) ;
#43 = APPLICATION_PROTOCOL_DEFINITION ( 'draft international standard', 'automotive_design', 1998, #52 ) ;
#44 = CARTESIAN_POINT ( 'NONE',  ( 0.0000000000000000000, 0.0000000000000000000, 0.0000000000000000000 ) ) ;
#45 = DIMENSIONAL_EXPONENTS ( 1.000000000000000000, 0.0000000000000000000, 0.0000000000000000000, 0.0000000000000000000, 0.0000000000000000000, 0.0000000000000000000, 0.0000000000000000000 ) ;
#46 = ADVANCED_FACE ( 'NONE', ( #207 ), #228, .T. ) ;
#47 = DIRECTION ( 'NONE',  ( -1.000000000000000000, 0.0000000000000000000, 1.224646799147353700E-16 ) ) ;
#48 = VECTOR ( 'NONE', #123, 39.37007874015748143 ) ;
#49 = PLANE ( 'NONE',  #186 ) ;
#50 = DIRECTION ( 'NONE',  ( 1.000000000000000000, 0.0000000000000000000, 0.0000000000000000000 ) ) ;
#51 = LINE ( 'NONE', #2, #201 ) ;
#52 = APPLICATION_CONTEXT ( 'automotive_design' ) ;
#53 = AXIS2_PLACEMENT_3D ( 'NONE', #44, #68, #142 ) ;
#54 = MECHANICAL_DESIGN_GEOMETRIC_PRESENTATION_REPRESENTATION (  '', ( #130 ), #262 ) ;
#55 = CARTESIAN_POINT ( 'NONE',  ( -0.1100000000000004446, 0.0000000000000000000, 3.000000000000000444 ) ) ;
#56 = CARTESIAN_POINT ( 'NONE',  ( -0.1249999999999998751, 0.0000000000000000000, 1.000708910227452231 ) ) ;
#57 = EDGE_CURVE ( 'NONE', #290, #62, #244, .T. ) ;
#58 =( CONVERSION_BASED_UNIT ( 'INCH', #131 ) LENGTH_UNIT ( ) NAMED_UNIT ( #45 ) );
#59 = CIRCLE ( 'NONE', #19, 0.1250000000000000000 ) ;
#60 = ORIENTED_EDGE ( 'NONE', *, *, #149, .F. ) ;
#61 = ORIENTED_EDGE ( 'NONE', *, *, #287, .F. ) ;
#62 = VERTEX_POINT ( 'NONE', #293 ) ;
#63 = AXIS2_PLACEMENT_3D ( 'NONE', #203, #140, #205 ) ;
#64 = AXIS2_PLACEMENT_3D ( 'NONE', #204, #38, #247 ) ;
#65 = CYLINDRICAL_SURFACE ( 'NONE', #63, 0.1248749999999999999 ) ;
#66 = DIRECTION ( 'NONE',  ( -1.000000000000000000, 0.0000000000000000000, 0.0000000000000000000 ) ) ;
#67 = ORIENTED_EDGE ( 'NONE', *, *, #287, .T. ) ;
#68 = DIRECTION ( 'NONE',  ( 0.0000000000000000000, 0.0000000000000000000, 1.000000000000000000 ) ) ;
#69 = LINE ( 'NONE', #284, #255 ) ;
#70 = DIRECTION ( 'NONE',  ( 1.000000000000000000, 0.0000000000000000000, -0.0000000000000000000 ) ) ;
#71 = CIRCLE ( 'NONE', #41, 0.1250000000000000000 ) ;
#72 = AXIS2_PLACEMENT_3D ( 'NONE', #74, #285, #283 ) ;
#73 = CARTESIAN_POINT ( 'NONE',  ( 0.0000000000000000000, 0.0000000000000000000, 3.000000000000000444 ) ) ;
#74 = CARTESIAN_POINT ( 'NONE',  ( 0.0000000000000000000, 0.0000000000000000000, 3.000000000000000444 ) ) ;
#75 = CARTESIAN_POINT ( 'NONE',  ( 0.0000000000000000000, 0.0000000000000000000, 3.000000000000000444 ) ) ;
#76 = AXIS2_PLACEMENT_3D ( 'NONE', #96, #88, #13 ) ;
#77 = DIRECTION ( 'NONE',  ( -0.1736481776669311916, 2.126576849575783316E-17, 0.9848077530122080203 ) ) ;
#78 = ADVANCED_FACE ( 'NONE', ( #274 ), #65, .T. ) ;
#79 =( NAMED_UNIT ( * ) SI_UNIT ( $, .STERADIAN. ) SOLID_ANGLE_UNIT ( ) );
#80 = ORIENTED_EDGE ( 'NONE', *, *, #179, .F. ) ;
#81 =( NAMED_UNIT ( * ) PLANE_ANGLE_UNIT ( ) SI_UNIT ( $, .RADIAN. ) );
#82 = VERTEX_POINT ( 'NONE', #160 ) ;
#83 = PRODUCT ( 'Micro_RDB-80', 'Micro_RDB-80', '', ( #90 ) ) ;
#84 = ORIENTED_EDGE ( 'NONE', *, *, #101, .T. ) ;
#85 = VERTEX_POINT ( 'NONE', #202 ) ;
#86 = EDGE_CURVE ( 'NONE', #173, #110, #59, .T. ) ;
#87 = DIMENSIONAL_EXPONENTS ( 1.000000000000000000, 0.0000000000000000000, 0.0000000000000000000, 0.0000000000000000000, 0.0000000000000000000, 0.0000000000000000000, 0.0000000000000000000 ) ;
#88 = DIRECTION ( 'NONE',  ( -1.224646799147353454E-16, -0.0000000000000000000, -1.000000000000000000 ) ) ;
#89 = AXIS2_PLACEMENT_3D ( 'NONE', #75, #254, #98 ) ;
#90 = PRODUCT_CONTEXT ( 'NONE', #208, 'mechanical' ) ;
#91 = ADVANCED_FACE ( 'NONE', ( #93 ), #146, .T. ) ;
#92 = ORIENTED_EDGE ( 'NONE', *, *, #233, .T. ) ;
#93 = FACE_OUTER_BOUND ( 'NONE', #194, .T. ) ;
#94 = LINE ( 'NONE', #277, #14 ) ;
#95 = VECTOR ( 'NONE', #104, 39.37007874015748854 ) ;
#96 = CARTESIAN_POINT ( 'NONE',  ( 0.0000000000000000000, 0.0000000000000000000, 0.0000000000000000000 ) ) ;
#97 = EDGE_CURVE ( 'NONE', #290, #173, #69, .T. ) ;
#98 = DIRECTION ( 'NONE',  ( -1.000000000000000000, 0.0000000000000000000, 0.0000000000000000000 ) ) ;
#99 = DIRECTION ( 'NONE',  ( -1.224646799147353454E-16, -0.0000000000000000000, -1.000000000000000000 ) ) ;
#100 = CONICAL_SURFACE ( 'NONE', #250, 0.1100000000000004446, 0.7853981633974613796 ) ;
#101 = EDGE_CURVE ( 'NONE', #288, #82, #31, .T. ) ;
#102 = CARTESIAN_POINT ( 'NONE',  ( -0.1250000000000000000, 0.0000000000000000000, 3.000000000000000444 ) ) ;
#103 = DIRECTION ( 'NONE',  ( 0.1736481776669313859, 0.0000000000000000000, 0.9848077530122077983 ) ) ;
#104 = DIRECTION ( 'NONE',  ( 0.7071067811865566766, 8.659560562355046257E-17, -0.7071067811865382469 ) ) ;
#105 = AXIS2_PLACEMENT_3D ( 'NONE', #210, #145, #47 ) ;
#106 = PRESENTATION_LAYER_ASSIGNMENT (  '', '', ( #116 ) ) ;
#107 = EDGE_LOOP ( 'NONE', ( #30, #128 ) ) ;
#108 = ORIENTED_EDGE ( 'NONE', *, *, #12, .T. ) ;
#109 =( NAMED_UNIT ( * ) SI_UNIT ( $, .STERADIAN. ) SOLID_ANGLE_UNIT ( ) );
#110 = VERTEX_POINT ( 'NONE', #4 ) ;
#111 = PRESENTATION_STYLE_ASSIGNMENT (( #135 ) ) ;
#112 = MECHANICAL_DESIGN_GEOMETRIC_PRESENTATION_REPRESENTATION (  '', ( #116 ), #251 ) ;
#113 = DIRECTION ( 'NONE',  ( -1.224646799147353454E-16, -0.0000000000000000000, -1.000000000000000000 ) ) ;
#114 = CARTESIAN_POINT ( 'NONE',  ( 1.224646799147353454E-16, 0.0000000000000000000, 1.000000000000000000 ) ) ;
#115 = CARTESIAN_POINT ( 'NONE',  ( 0.0000000000000000000, 0.0000000000000000000, 3.000000000000000444 ) ) ;
#116 = STYLED_ITEM ( 'NONE', ( #111 ), #276 ) ;
#117 = ORIENTED_EDGE ( 'NONE', *, *, #124, .T. ) ;
#118 = ORIENTED_EDGE ( 'NONE', *, *, #212, .F. ) ;
#119 = FACE_OUTER_BOUND ( 'NONE', #42, .T. ) ;
#120 = AXIS2_PLACEMENT_3D ( 'NONE', #37, #15, #200 ) ;
#121 = PRESENTATION_LAYER_ASSIGNMENT (  '', '', ( #130 ) ) ;
#122 = CARTESIAN_POINT ( 'NONE',  ( -0.1248749999999998889, 1.530043094684724646E-17, 1.000000000000000000 ) ) ;
#123 = DIRECTION ( 'NONE',  ( -0.0000000000000000000, -0.0000000000000000000, -1.000000000000000000 ) ) ;
#124 = EDGE_CURVE ( 'NONE', #110, #85, #3, .T. ) ;
#125 = SURFACE_STYLE_FILL_AREA ( #127 ) ;
#126 = SURFACE_STYLE_USAGE ( .BOTH. , #234 ) ;
#127 = FILL_AREA_STYLE ('',( #24 ) ) ;
#128 = ORIENTED_EDGE ( 'NONE', *, *, #163, .T. ) ;
#129 = AXIS2_PLACEMENT_3D ( 'NONE', #275, #249, #187 ) ;
#130 = STYLED_ITEM ( 'NONE', ( #261 ), #281 ) ;
#131 = LENGTH_MEASURE_WITH_UNIT ( LENGTH_MEASURE( 0.02539999999999999897 ), #223 );
#132 = FILL_AREA_STYLE ('',( #192 ) ) ;
#133 = ORIENTED_EDGE ( 'NONE', *, *, #101, .F. ) ;
#134 = AXIS2_PLACEMENT_3D ( 'NONE', #115, #227, #17 ) ;
#135 = SURFACE_STYLE_USAGE ( .BOTH. , #241 ) ;
#136 = VECTOR ( 'NONE', #77, 39.37007874015747433 ) ;
#137 = ORIENTED_EDGE ( 'NONE', *, *, #149, .T. ) ;
#138 = EDGE_CURVE ( 'NONE', #177, #85, #51, .T. ) ;
#139 = ORIENTED_EDGE ( 'NONE', *, *, #97, .F. ) ;
#140 = DIRECTION ( 'NONE',  ( -1.224646799147353454E-16, -0.0000000000000000000, -1.000000000000000000 ) ) ;
#141 = VECTOR ( 'NONE', #230, 39.37007874015748143 ) ;
#142 = DIRECTION ( 'NONE',  ( 1.000000000000000000, 0.0000000000000000000, -0.0000000000000000000 ) ) ;
#143 = EDGE_CURVE ( 'NONE', #85, #292, #71, .T. ) ;
#144 = CYLINDRICAL_SURFACE ( 'NONE', #134, 0.1250000000000000000 ) ;
#145 = DIRECTION ( 'NONE',  ( -1.224646799147353454E-16, -0.0000000000000000000, -1.000000000000000000 ) ) ;
#146 = CONICAL_SURFACE ( 'NONE', #180, 0.1248749999999999999, 0.1745329251994338915 ) ;
#147 = PRODUCT_DEFINITION_FORMATION_WITH_SPECIFIED_SOURCE ( 'ANY', '', #83, .NOT_KNOWN. ) ;
#148 = CARTESIAN_POINT ( 'NONE',  ( 1.224646799147353454E-16, 0.0000000000000000000, 1.000000000000000000 ) ) ;
#149 = EDGE_CURVE ( 'NONE', #110, #173, #32, .T. ) ;
#150 = DIRECTION ( 'NONE',  ( -0.0000000000000000000, -0.0000000000000000000, -1.000000000000000000 ) ) ;
#151 = DIRECTION ( 'NONE',  ( -1.000000000000000000, 0.0000000000000000000, 0.0000000000000000000 ) ) ;
#152 = CIRCLE ( 'NONE', #72, 0.1100000000000004446 ) ;
#153 = CARTESIAN_POINT ( 'NONE',  ( 1.225514963788285700E-16, 0.0000000000000000000, 1.000708910227452231 ) ) ;
#154 = UNCERTAINTY_MEASURE_WITH_UNIT (LENGTH_MEASURE( 1.000000000000000082E-05 ), #174, 'distance_accuracy_value', 'NONE');
#155 =( NAMED_UNIT ( * ) SI_UNIT ( $, .STERADIAN. ) SOLID_ANGLE_UNIT ( ) );
#156 = ORIENTED_EDGE ( 'NONE', *, *, #138, .T. ) ;
#157 = ORIENTED_EDGE ( 'NONE', *, *, #163, .F. ) ;
#158 = LENGTH_MEASURE_WITH_UNIT ( LENGTH_MEASURE( 0.02539999999999999897 ), #291 );
#159 = FACE_OUTER_BOUND ( 'NONE', #175, .T. ) ;
#160 = CARTESIAN_POINT ( 'NONE',  ( 0.1248749999999999999, 1.529277690435257475E-17, 0.0000000000000000000 ) ) ;
#161 = DIRECTION ( 'NONE',  ( 0.0000000000000000000, 0.0000000000000000000, -1.000000000000000000 ) ) ;
#162 = CARTESIAN_POINT ( 'NONE',  ( 1.224646799147353454E-16, 0.0000000000000000000, 1.000000000000000000 ) ) ;
#163 = EDGE_CURVE ( 'NONE', #62, #290, #152, .T. ) ;
#164 = DIRECTION ( 'NONE',  ( -1.224646799147353454E-16, -0.0000000000000000000, -1.000000000000000000 ) ) ;
#165 = DIRECTION ( 'NONE',  ( 0.0000000000000000000, 0.0000000000000000000, -1.000000000000000000 ) ) ;
#166 = FACE_OUTER_BOUND ( 'NONE', #268, .T. ) ;
#167 = DIRECTION ( 'NONE',  ( -1.224646799147353454E-16, -0.0000000000000000000, -1.000000000000000000 ) ) ;
#168 = DIRECTION ( 'NONE',  ( -1.224646799147353454E-16, -0.0000000000000000000, -1.000000000000000000 ) ) ;
#169 = CARTESIAN_POINT ( 'NONE',  ( 0.0000000000000000000, 0.0000000000000000000, 3.000000000000000444 ) ) ;
#170 = CONICAL_SURFACE ( 'NONE', #206, 0.1248749999999999999, 0.1745329251994338915 ) ;
#171 = ADVANCED_FACE ( 'NONE', ( #166 ), #217, .T. ) ;
#172 =( NAMED_UNIT ( * ) PLANE_ANGLE_UNIT ( ) SI_UNIT ( $, .RADIAN. ) );
#173 = VERTEX_POINT ( 'NONE', #190 ) ;
#174 =( CONVERSION_BASED_UNIT ( 'INCH', #176 ) LENGTH_UNIT ( ) NAMED_UNIT ( #87 ) );
#175 = EDGE_LOOP ( 'NONE', ( #80, #270, #219, #60 ) ) ;
#176 = LENGTH_MEASURE_WITH_UNIT ( LENGTH_MEASURE( 0.02539999999999999897 ), #264 );
#177 = VERTEX_POINT ( 'NONE', #211 ) ;
#178 = EDGE_LOOP ( 'NONE', ( #221, #117, #298, #118 ) ) ;
#179 = EDGE_CURVE ( 'NONE', #62, #110, #1, .T. ) ;
#180 = AXIS2_PLACEMENT_3D ( 'NONE', #162, #252, #213 ) ;
#181 = ORIENTED_EDGE ( 'NONE', *, *, #259, .F. ) ;
#182 = DIMENSIONAL_EXPONENTS ( 1.000000000000000000, 0.0000000000000000000, 0.0000000000000000000, 0.0000000000000000000, 0.0000000000000000000, 0.0000000000000000000, 0.0000000000000000000 ) ;
#183 = ORIENTED_EDGE ( 'NONE', *, *, #212, .T. ) ;
#184 = CARTESIAN_POINT ( 'NONE',  ( 0.0000000000000000000, 0.0000000000000000000, 2.985000000000001208 ) ) ;
#185 = EDGE_LOOP ( 'NONE', ( #271, #92, #133, #35 ) ) ;
#186 = AXIS2_PLACEMENT_3D ( 'NONE', #169, #232, #70 ) ;
#187 = DIRECTION ( 'NONE',  ( 1.000000000000000000, 0.0000000000000000000, 0.0000000000000000000 ) ) ;
#188 = DIRECTION ( 'NONE',  ( -1.000000000000000000, 0.0000000000000000000, 1.224646799147353700E-16 ) ) ;
#189 = DIRECTION ( 'NONE',  ( -1.000000000000000000, 0.0000000000000000000, 0.0000000000000000000 ) ) ;
#190 = CARTESIAN_POINT ( 'NONE',  ( -0.1250000000000000000, 0.0000000000000000000, 2.985000000000001208 ) ) ;
#191 = DIRECTION ( 'NONE',  ( 1.000000000000000000, 0.0000000000000000000, 0.0000000000000000000 ) ) ;
#192 = FILL_AREA_STYLE_COLOUR ( '', #294 ) ;
#193 =( NAMED_UNIT ( * ) PLANE_ANGLE_UNIT ( ) SI_UNIT ( $, .RADIAN. ) );
#194 = EDGE_LOOP ( 'NONE', ( #61, #34, #156, #295 ) ) ;
#195 = ORIENTED_EDGE ( 'NONE', *, *, #143, .F. ) ;
#196 = CLOSED_SHELL ( 'NONE', ( #78, #36, #171, #263, #33, #269, #27, #91, #46, #16 ) ) ;
#197 = PRODUCT_DEFINITION_SHAPE ( 'NONE', 'NONE',  #22 ) ;
#198 = AXIS2_PLACEMENT_3D ( 'NONE', #258, #167, #189 ) ;
#199 = SHAPE_DEFINITION_REPRESENTATION ( #197, #276 ) ;
#200 = DIRECTION ( 'NONE',  ( 1.000000000000000000, 0.0000000000000000000, 0.0000000000000000000 ) ) ;
#201 = VECTOR ( 'NONE', #103, 39.37007874015748143 ) ;
#202 = CARTESIAN_POINT ( 'NONE',  ( 0.1250000000000001110, 1.530808498934192433E-17, 1.000708910227452231 ) ) ;
#203 = CARTESIAN_POINT ( 'NONE',  ( 0.0000000000000000000, 0.0000000000000000000, 0.0000000000000000000 ) ) ;
#204 = CARTESIAN_POINT ( 'NONE',  ( 0.0000000000000000000, 0.0000000000000000000, 0.0000000000000000000 ) ) ;
#205 = DIRECTION ( 'NONE',  ( -1.000000000000000000, 0.0000000000000000000, 1.224646799147353700E-16 ) ) ;
#206 = AXIS2_PLACEMENT_3D ( 'NONE', #114, #225, #226 ) ;
#207 = FACE_OUTER_BOUND ( 'NONE', #224, .T. ) ;
#208 = APPLICATION_CONTEXT ( 'automotive_design' ) ;
#209 = FACE_OUTER_BOUND ( 'NONE', #107, .T. ) ;
#210 = CARTESIAN_POINT ( 'NONE',  ( 1.872825028598995495E-33, 0.0000000000000000000, 1.529277690435257783E-17 ) ) ;
#211 = CARTESIAN_POINT ( 'NONE',  ( 0.1248750000000001248, 0.0000000000000000000, 1.000000000000000000 ) ) ;
#212 = EDGE_CURVE ( 'NONE', #173, #292, #299, .T. ) ;
#213 = DIRECTION ( 'NONE',  ( 1.000000000000000000, 0.0000000000000000000, 0.0000000000000000000 ) ) ;
#214 = DIRECTION ( 'NONE',  ( -0.7071067811865566766, 0.0000000000000000000, -0.7071067811865382469 ) ) ;
#215 =( CONVERSION_BASED_UNIT ( 'INCH', #158 ) LENGTH_UNIT ( ) NAMED_UNIT ( #182 ) );
#216 = PRODUCT_DEFINITION_CONTEXT ( 'detailed design', #52, 'design' ) ;
#217 = CONICAL_SURFACE ( 'NONE', #89, 0.1100000000000004446, 0.7853981633974613796 ) ;
#218 = APPLICATION_PROTOCOL_DEFINITION ( 'draft international standard', 'automotive_design', 1998, #208 ) ;
#219 = ORIENTED_EDGE ( 'NONE', *, *, #97, .T. ) ;
#220 = SURFACE_STYLE_FILL_AREA ( #132 ) ;
#221 = ORIENTED_EDGE ( 'NONE', *, *, #86, .T. ) ;
#222 = CIRCLE ( 'NONE', #129, 0.1250000000000000000 ) ;
#223 =( LENGTH_UNIT ( ) NAMED_UNIT ( * ) SI_UNIT ( $, .METRE. ) );
#224 = EDGE_LOOP ( 'NONE', ( #7, #238, #108, #18 ) ) ;
#225 = DIRECTION ( 'NONE',  ( 1.224646799147353454E-16, 0.0000000000000000000, 1.000000000000000000 ) ) ;
#226 = DIRECTION ( 'NONE',  ( 1.000000000000000000, 0.0000000000000000000, 0.0000000000000000000 ) ) ;
#227 = DIRECTION ( 'NONE',  ( -0.0000000000000000000, -0.0000000000000000000, -1.000000000000000000 ) ) ;
#228 = CYLINDRICAL_SURFACE ( 'NONE', #76, 0.1248749999999999999 ) ;
#229 = COLOUR_RGB ( '',0.7921568627450980005, 0.8196078431372548767, 0.9333333333333333481 ) ;
#230 = DIRECTION ( 'NONE',  ( -0.0000000000000000000, -0.0000000000000000000, -1.000000000000000000 ) ) ;
#231 = CARTESIAN_POINT ( 'NONE',  ( 0.0000000000000000000, 0.0000000000000000000, 2.985000000000001208 ) ) ;
#232 = DIRECTION ( 'NONE',  ( 0.0000000000000000000, 0.0000000000000000000, 1.000000000000000000 ) ) ;
#233 = EDGE_CURVE ( 'NONE', #177, #82, #21, .T. ) ;
#234 = SURFACE_SIDE_STYLE ('',( #125 ) ) ;
#235 = CIRCLE ( 'NONE', #10, 0.1248749999999999999 ) ;
#236 = DIRECTION ( 'NONE',  ( -1.224646799147353454E-16, -0.0000000000000000000, -1.000000000000000000 ) ) ;
#237 = EDGE_CURVE ( 'NONE', #82, #288, #235, .T. ) ;
#238 = ORIENTED_EDGE ( 'NONE', *, *, #282, .T. ) ;
#239 = EDGE_LOOP ( 'NONE', ( #84, #289 ) ) ;
#240 =( GEOMETRIC_REPRESENTATION_CONTEXT ( 3 ) GLOBAL_UNCERTAINTY_ASSIGNED_CONTEXT ( ( #29 ) ) GLOBAL_UNIT_ASSIGNED_CONTEXT ( ( #58, #193, #155 ) ) REPRESENTATION_CONTEXT ( 'NONE', 'WORKASPACE' ) );
#241 = SURFACE_SIDE_STYLE ('',( #220 ) ) ;
#242 = VERTEX_POINT ( 'NONE', #122 ) ;
#243 = LINE ( 'NONE', #267, #136 ) ;
#244 = CIRCLE ( 'NONE', #120, 0.1100000000000004446 ) ;
#245 = AXIS2_PLACEMENT_3D ( 'NONE', #231, #165, #191 ) ;
#246 = DIRECTION ( 'NONE',  ( 0.0000000000000000000, 0.0000000000000000000, -1.000000000000000000 ) ) ;
#247 = DIRECTION ( 'NONE',  ( 1.000000000000000000, 0.0000000000000000000, 0.0000000000000000000 ) ) ;
#248 = ORIENTED_EDGE ( 'NONE', *, *, #124, .F. ) ;
#249 = DIRECTION ( 'NONE',  ( -1.224646799147353454E-16, -0.0000000000000000000, -1.000000000000000000 ) ) ;
#250 = AXIS2_PLACEMENT_3D ( 'NONE', #278, #246, #66 ) ;
#251 =( GEOMETRIC_REPRESENTATION_CONTEXT ( 3 ) GLOBAL_UNCERTAINTY_ASSIGNED_CONTEXT ( ( #266 ) ) GLOBAL_UNIT_ASSIGNED_CONTEXT ( ( #215, #81, #109 ) ) REPRESENTATION_CONTEXT ( 'NONE', 'WORKASPACE' ) );
#252 = DIRECTION ( 'NONE',  ( 1.224646799147353454E-16, 0.0000000000000000000, 1.000000000000000000 ) ) ;
#253 = FACE_OUTER_BOUND ( 'NONE', #297, .T. ) ;
#254 = DIRECTION ( 'NONE',  ( 0.0000000000000000000, 0.0000000000000000000, -1.000000000000000000 ) ) ;
#255 = VECTOR ( 'NONE', #214, 39.37007874015748854 ) ;
#256 = CIRCLE ( 'NONE', #198, 0.1248749999999999999 ) ;
#257 = CARTESIAN_POINT ( 'NONE',  ( 0.1248749999999999999, 1.529277690435257475E-17, -1.529277690435257783E-17 ) ) ;
#258 = CARTESIAN_POINT ( 'NONE',  ( 1.224646799147353454E-16, 0.0000000000000000000, 1.000000000000000000 ) ) ;
#259 = EDGE_CURVE ( 'NONE', #242, #177, #256, .T. ) ;
#260 = CARTESIAN_POINT ( 'NONE',  ( 0.1100000000000004446, 1.347111479062094019E-17, 3.000000000000000444 ) ) ;
#261 = PRESENTATION_STYLE_ASSIGNMENT (( #126 ) ) ;
#262 =( GEOMETRIC_REPRESENTATION_CONTEXT ( 3 ) GLOBAL_UNCERTAINTY_ASSIGNED_CONTEXT ( ( #154 ) ) GLOBAL_UNIT_ASSIGNED_CONTEXT ( ( #174, #172, #79 ) ) REPRESENTATION_CONTEXT ( 'NONE', 'WORKASPACE' ) );
#263 = ADVANCED_FACE ( 'NONE', ( #280 ), #23, .T. ) ;
#264 =( LENGTH_UNIT ( ) NAMED_UNIT ( * ) SI_UNIT ( $, .METRE. ) );
#265 = ORIENTED_EDGE ( 'NONE', *, *, #86, .F. ) ;
#266 = UNCERTAINTY_MEASURE_WITH_UNIT (LENGTH_MEASURE( 1.000000000000000082E-05 ), #215, 'distance_accuracy_value', 'NONE');
#267 = CARTESIAN_POINT ( 'NONE',  ( -0.1248749999999998889, 1.529277690435257475E-17, 1.000000000000000000 ) ) ;
#268 = EDGE_LOOP ( 'NONE', ( #157, #39, #265, #139 ) ) ;
#269 = ADVANCED_FACE ( 'NONE', ( #209 ), #49, .T. ) ;
#270 = ORIENTED_EDGE ( 'NONE', *, *, #57, .F. ) ;
#271 = ORIENTED_EDGE ( 'NONE', *, *, #259, .T. ) ;
#272 = AXIS2_PLACEMENT_3D ( 'NONE', #148, #113, #9 ) ;
#273 = PRODUCT_RELATED_PRODUCT_CATEGORY ( 'part', '', ( #83 ) ) ;
#274 = FACE_OUTER_BOUND ( 'NONE', #185, .T. ) ;
#275 = CARTESIAN_POINT ( 'NONE',  ( 1.225514963788285700E-16, 0.0000000000000000000, 1.000708910227452231 ) ) ;
#276 = ADVANCED_BREP_SHAPE_REPRESENTATION ( 'Micro_RDB-80', ( #281, #64 ), #240 ) ;
#277 = CARTESIAN_POINT ( 'NONE',  ( -0.1248749999999999999, 0.0000000000000000000, 1.529277690435257783E-17 ) ) ;
#278 = CARTESIAN_POINT ( 'NONE',  ( 0.0000000000000000000, 0.0000000000000000000, 3.000000000000000444 ) ) ;
#279 = FACE_OUTER_BOUND ( 'NONE', #239, .T. ) ;
#280 = FACE_OUTER_BOUND ( 'NONE', #178, .T. ) ;
#281 = MANIFOLD_SOLID_BREP ( 'Cut-Revolve1', #196 ) ;
#282 = EDGE_CURVE ( 'NONE', #177, #242, #286, .T. ) ;
#283 = DIRECTION ( 'NONE',  ( 1.000000000000000000, 0.0000000000000000000, 0.0000000000000000000 ) ) ;
#284 = CARTESIAN_POINT ( 'NONE',  ( -0.1100000000000004446, 0.0000000000000000000, 3.000000000000000444 ) ) ;
#285 = DIRECTION ( 'NONE',  ( 0.0000000000000000000, 0.0000000000000000000, 1.000000000000000000 ) ) ;
#286 = CIRCLE ( 'NONE', #272, 0.1248749999999999999 ) ;
#287 = EDGE_CURVE ( 'NONE', #242, #292, #243, .T. ) ;
#288 = VERTEX_POINT ( 'NONE', #5 ) ;
#289 = ORIENTED_EDGE ( 'NONE', *, *, #237, .T. ) ;
#290 = VERTEX_POINT ( 'NONE', #55 ) ;
#291 =( LENGTH_UNIT ( ) NAMED_UNIT ( * ) SI_UNIT ( $, .METRE. ) );
#292 = VERTEX_POINT ( 'NONE', #56 ) ;
#293 = CARTESIAN_POINT ( 'NONE',  ( 0.1100000000000004446, 1.438959988998142687E-17, 3.000000000000000444 ) ) ;
#294 = COLOUR_RGB ( '',0.7921568627450980005, 0.8196078431372548767, 0.9333333333333333481 ) ;
#295 = ORIENTED_EDGE ( 'NONE', *, *, #143, .T. ) ;
#296 = DIRECTION ( 'NONE',  ( 1.000000000000000000, 0.0000000000000000000, 0.0000000000000000000 ) ) ;
#297 = EDGE_LOOP ( 'NONE', ( #248, #137, #183, #195 ) ) ;
#298 = ORIENTED_EDGE ( 'NONE', *, *, #8, .F. ) ;
#299 = LINE ( 'NONE', #102, #141 ) ;
ENDSEC;
END-ISO-10303-21;
