ISO-10303-21;
HEADER;
FILE_DESCRIPTION (( 'STEP AP214' ),
    '1' );
FILE_NAME ('59472.STEP',
    '2023-07-24T15:07:11',
    ( '' ),
    ( '' ),
    'SwSTEP 2.0',
    'SolidWorks 2023',
    '' );
FILE_SCHEMA (( 'AUTOMOTIVE_DESIGN' ));
ENDSEC;

DATA;
#1 = CARTESIAN_POINT ( 'NONE',  ( 0.000000000000000000, 1.000000000000000000, -7.000000000000000000 ) ) ;
#2 = DIRECTION ( 'NONE',  ( 1.231212018341879827E-16, -1.000000000000000000, 0.000000000000000000 ) ) ;
#3 = DIRECTION ( 'NONE',  ( -0.000000000000000000, -1.000000000000000000, -0.000000000000000000 ) ) ;
#4 = ADVANCED_FACE ( 'NONE', ( #228 ), #33, .T. ) ;
#5 = AXIS2_PLACEMENT_3D ( 'NONE', #162, #333, #272 ) ;
#6 = ORIENTED_EDGE ( 'NONE', *, *, #262, .F. ) ;
#7 = APPLICATION_PROTOCOL_DEFINITION ( 'draft international standard', 'automotive_design', 1998, #354 ) ;
#8 = DIRECTION ( 'NONE',  ( -1.231212018341879827E-16, 1.000000000000000000, -0.000000000000000000 ) ) ;
#9 = UNCERTAINTY_MEASURE_WITH_UNIT (LENGTH_MEASURE( 1.000000000000000082E-05 ), #170, 'distance_accuracy_value', 'NONE');
#10 = UNCERTAINTY_MEASURE_WITH_UNIT (LENGTH_MEASURE( 1.000000000000000082E-05 ), #278, 'distance_accuracy_value', 'NONE');
#11 =( NAMED_UNIT ( * ) SI_UNIT ( $, .STERADIAN. ) SOLID_ANGLE_UNIT ( ) );
#12 = AXIS2_PLACEMENT_3D ( 'NONE', #152, #236, #352 ) ;
#13 = STYLED_ITEM ( 'NONE', ( #316 ), #219 ) ;
#14 = EDGE_CURVE ( 'NONE', #330, #31, #92, .T. ) ;
#15 = PRESENTATION_STYLE_ASSIGNMENT (( #149 ) ) ;
#16 = CARTESIAN_POINT ( 'NONE',  ( 9.797174393178825657E-16, 0.000000000000000000, 8.000000000000000000 ) ) ;
#17 = DIRECTION ( 'NONE',  ( -1.000000000000000000, 0.000000000000000000, 0.000000000000000000 ) ) ;
#18 = COLOUR_RGB ( '',0.7921568627450980005, 0.8196078431372548767, 0.9333333333333333481 ) ;
#19 = CIRCLE ( 'NONE', #86, 7.000000000000000000 ) ;
#20 = SURFACE_STYLE_USAGE ( .BOTH. , #184 ) ;
#21 = CARTESIAN_POINT ( 'NONE',  ( 0.000000000000000000, 24.00000000000000000, 0.000000000000000000 ) ) ;
#22 = CARTESIAN_POINT ( 'NONE',  ( 0.000000000000000000, 0.000000000000000000, 0.000000000000000000 ) ) ;
#23 = FILL_AREA_STYLE ('',( #331 ) ) ;
#24 = ORIENTED_EDGE ( 'NONE', *, *, #282, .T. ) ;
#25 = DIRECTION ( 'NONE',  ( 0.000000000000000000, 0.000000000000000000, -1.000000000000000000 ) ) ;
#26 = CARTESIAN_POINT ( 'NONE',  ( 0.000000000000000000, 0.000000000000000000, 0.000000000000000000 ) ) ;
#27 = CARTESIAN_POINT ( 'NONE',  ( -1.714505518806293849E-15, 89.00000000000000000, 0.000000000000000000 ) ) ;
#28 = CIRCLE ( 'NONE', #270, 1.000000000000000000 ) ;
#29 = DIRECTION ( 'NONE',  ( 0.000000000000000000, 0.000000000000000000, -1.000000000000000000 ) ) ;
#30 = DIRECTION ( 'NONE',  ( -0.000000000000000000, -1.000000000000000000, -0.000000000000000000 ) ) ;
#31 = VERTEX_POINT ( 'NONE', #300 ) ;
#32 = SURFACE_SIDE_STYLE ('',( #275 ) ) ;
#33 = PLANE ( 'NONE',  #12 ) ;
#34 = CARTESIAN_POINT ( 'NONE',  ( -1.714505518806293849E-15, 89.00000000000000000, 0.000000000000000000 ) ) ;
#35 = AXIS2_PLACEMENT_3D ( 'NONE', #180, #288, #211 ) ;
#36 = PLANE ( 'NONE',  #35 ) ;
#37 = DIRECTION ( 'NONE',  ( -0.000000000000000000, -1.000000000000000000, -0.000000000000000000 ) ) ;
#38 = LINE ( 'NONE', #49, #51 ) ;
#39 = CLOSED_SHELL ( 'NONE', ( #239, #219, #4, #150, #285, #164 ) ) ;
#40 = PRESENTATION_LAYER_ASSIGNMENT (  '', '', ( #322 ) ) ;
#41 = SURFACE_SIDE_STYLE ('',( #345 ) ) ;
#42 = DIRECTION ( 'NONE',  ( 0.000000000000000000, 0.000000000000000000, -1.000000000000000000 ) ) ;
#43 = MANIFOLD_SOLID_BREP ( 'Revolve - Tool Body (Straight Shanked)', #105 ) ;
#44 = VERTEX_POINT ( 'NONE', #161 ) ;
#45 = PLANE ( 'NONE',  #218 ) ;
#46 = FILL_AREA_STYLE ('',( #255 ) ) ;
#47 = DIRECTION ( 'NONE',  ( -1.000000000000000000, 0.000000000000000000, 0.000000000000000000 ) ) ;
#48 = EDGE_LOOP ( 'NONE', ( #313, #123, #305, #176 ) ) ;
#49 = CARTESIAN_POINT ( 'NONE',  ( 0.000000000000000000, 0.000000000000000000, -8.000000000000000000 ) ) ;
#50 = CARTESIAN_POINT ( 'NONE',  ( 6.288372600415925717E-15, 23.99999999999999289, 0.000000000000000000 ) ) ;
#51 = VECTOR ( 'NONE', #327, 1000.000000000000000 ) ;
#52 = CARTESIAN_POINT ( 'NONE',  ( 8.572527594031473190E-16, 1.000000000000000000, 7.000000000000000000 ) ) ;
#53 =( GEOMETRIC_REPRESENTATION_CONTEXT ( 3 ) GLOBAL_UNCERTAINTY_ASSIGNED_CONTEXT ( ( #289 ) ) GLOBAL_UNIT_ASSIGNED_CONTEXT ( ( #109, #110, #315 ) ) REPRESENTATION_CONTEXT ( 'NONE', 'WORKASPACE' ) );
#54 = PRODUCT_DEFINITION_CONTEXT ( 'detailed design', #354, 'design' ) ;
#55 = CARTESIAN_POINT ( 'NONE',  ( 9.797174393178825657E-16, 1.000000000000000000, 8.000000000000000000 ) ) ;
#56 = CARTESIAN_POINT ( 'NONE',  ( 0.000000000000000000, 24.00000000000000000, 0.000000000000000000 ) ) ;
#57 = ORIENTED_EDGE ( 'NONE', *, *, #294, .F. ) ;
#58 = EDGE_LOOP ( 'NONE', ( #97, #258, #104, #80 ) ) ;
#59 = DIRECTION ( 'NONE',  ( 0.000000000000000000, 0.000000000000000000, -1.000000000000000000 ) ) ;
#60 = DIRECTION ( 'NONE',  ( -1.000000000000000000, 0.000000000000000000, 0.000000000000000000 ) ) ;
#61 = SURFACE_STYLE_USAGE ( .BOTH. , #205 ) ;
#62 = TOROIDAL_SURFACE ( 'NONE', #259, 7.000000000000000000, 1.000000000000000000 ) ;
#63 = PRESENTATION_LAYER_ASSIGNMENT (  '', '', ( #244 ) ) ;
#64 = ADVANCED_FACE ( 'NONE', ( #135 ), #363, .T. ) ;
#65 =( LENGTH_UNIT ( ) NAMED_UNIT ( * ) SI_UNIT ( .MILLI., .METRE. ) );
#66 = CARTESIAN_POINT ( 'NONE',  ( 6.288372600415925717E-15, 23.99999999999999289, 0.000000000000000000 ) ) ;
#67 = UNCERTAINTY_MEASURE_WITH_UNIT (LENGTH_MEASURE( 1.000000000000000082E-05 ), #336, 'distance_accuracy_value', 'NONE');
#68 = FACE_OUTER_BOUND ( 'NONE', #154, .T. ) ;
#69 = AXIS2_PLACEMENT_3D ( 'NONE', #21, #365, #25 ) ;
#70 = VECTOR ( 'NONE', #8, 1000.000000000000000 ) ;
#71 = EDGE_CURVE ( 'NONE', #99, #125, #178, .T. ) ;
#72 =( LENGTH_UNIT ( ) NAMED_UNIT ( * ) SI_UNIT ( .MILLI., .METRE. ) );
#73 = VERTEX_POINT ( 'NONE', #308 ) ;
#74 = SURFACE_STYLE_FILL_AREA ( #23 ) ;
#75 = SURFACE_STYLE_FILL_AREA ( #46 ) ;
#76 = DIRECTION ( 'NONE',  ( 0.000000000000000000, 0.000000000000000000, -1.000000000000000000 ) ) ;
#77 = PRESENTATION_STYLE_ASSIGNMENT (( #268 ) ) ;
#78 = COLOUR_RGB ( '',1.000000000000000000, 0.000000000000000000, 0.000000000000000000 ) ;
#79 = EDGE_CURVE ( 'NONE', #99, #250, #28, .T. ) ;
#80 = ORIENTED_EDGE ( 'NONE', *, *, #222, .F. ) ;
#81 = ORIENTED_EDGE ( 'NONE', *, *, #14, .F. ) ;
#82 = EDGE_CURVE ( 'NONE', #139, #73, #234, .T. ) ;
#83 = DIRECTION ( 'NONE',  ( -1.231212018341879827E-16, 1.000000000000000000, -0.000000000000000000 ) ) ;
#84 =( NAMED_UNIT ( * ) SI_UNIT ( $, .STERADIAN. ) SOLID_ANGLE_UNIT ( ) );
#85 = AXIS2_PLACEMENT_3D ( 'NONE', #66, #136, #47 ) ;
#86 = AXIS2_PLACEMENT_3D ( 'NONE', #140, #3, #59 ) ;
#87 =( NAMED_UNIT ( * ) PLANE_ANGLE_UNIT ( ) SI_UNIT ( $, .RADIAN. ) );
#88 = CARTESIAN_POINT ( 'NONE',  ( -1.714505518806293652E-15, 89.00000000000000000, 0.000000000000000000 ) ) ;
#89 = ORIENTED_EDGE ( 'NONE', *, *, #230, .T. ) ;
#90 = FACE_OUTER_BOUND ( 'NONE', #254, .T. ) ;
#91 = EDGE_CURVE ( 'NONE', #125, #99, #280, .T. ) ;
#92 = CIRCLE ( 'NONE', #85, 7.999999999999992895 ) ;
#93 = DIRECTION ( 'NONE',  ( -0.000000000000000000, -1.000000000000000000, -0.000000000000000000 ) ) ;
#94 =( GEOMETRIC_REPRESENTATION_CONTEXT ( 3 ) GLOBAL_UNCERTAINTY_ASSIGNED_CONTEXT ( ( #208 ) ) GLOBAL_UNIT_ASSIGNED_CONTEXT ( ( #132, #353, #247 ) ) REPRESENTATION_CONTEXT ( 'NONE', 'WORKASPACE' ) );
#95 = ORIENTED_EDGE ( 'NONE', *, *, #262, .T. ) ;
#96 = FILL_AREA_STYLE_COLOUR ( '', #111 ) ;
#97 = ORIENTED_EDGE ( 'NONE', *, *, #91, .T. ) ;
#98 = SURFACE_STYLE_FILL_AREA ( #326 ) ;
#99 = VERTEX_POINT ( 'NONE', #55 ) ;
#100 = SURFACE_STYLE_FILL_AREA ( #361 ) ;
#101 = PRODUCT_CONTEXT ( 'NONE', #338, 'mechanical' ) ;
#102 = DIRECTION ( 'NONE',  ( -0.000000000000000000, -1.000000000000000000, -0.000000000000000000 ) ) ;
#103 = ORIENTED_EDGE ( 'NONE', *, *, #231, .F. ) ;
#104 = ORIENTED_EDGE ( 'NONE', *, *, #183, .F. ) ;
#105 = CLOSED_SHELL ( 'NONE', ( #64, #256, #182, #298 ) ) ;
#106 = PRESENTATION_LAYER_ASSIGNMENT (  '', '', ( #13 ) ) ;
#107 = EDGE_LOOP ( 'NONE', ( #6, #24, #137, #279 ) ) ;
#108 = CYLINDRICAL_SURFACE ( 'NONE', #323, 8.000000000000000000 ) ;
#109 =( LENGTH_UNIT ( ) NAMED_UNIT ( * ) SI_UNIT ( .MILLI., .METRE. ) );
#110 =( NAMED_UNIT ( * ) PLANE_ANGLE_UNIT ( ) SI_UNIT ( $, .RADIAN. ) );
#111 = COLOUR_RGB ( '',1.000000000000000000, 0.000000000000000000, 0.000000000000000000 ) ;
#112 = CIRCLE ( 'NONE', #163, 7.999999999999992895 ) ;
#113 = STYLED_ITEM ( 'NONE', ( #115 ), #175 ) ;
#114 = AXIS2_PLACEMENT_3D ( 'NONE', #26, #246, #362 ) ;
#115 = PRESENTATION_STYLE_ASSIGNMENT (( #229 ) ) ;
#116 = SHAPE_DEFINITION_REPRESENTATION ( #291, #357 ) ;
#117 = CARTESIAN_POINT ( 'NONE',  ( 9.184850993605147944E-16, 0.000000000000000000, 7.000000000000000000 ) ) ;
#118 = PRESENTATION_LAYER_ASSIGNMENT (  '', '', ( #318 ) ) ;
#119 = DIRECTION ( 'NONE',  ( 0.000000000000000000, 0.000000000000000000, 1.000000000000000000 ) ) ;
#120 = AXIS2_PLACEMENT_3D ( 'NONE', #317, #303, #42 ) ;
#121 = MECHANICAL_DESIGN_GEOMETRIC_PRESENTATION_REPRESENTATION (  '', ( #13 ), #53 ) ;
#122 = CARTESIAN_POINT ( 'NONE',  ( 8.000000000000000000, 89.00000000000000000, 9.797174393178825657E-16 ) ) ;
#123 = ORIENTED_EDGE ( 'NONE', *, *, #350, .T. ) ;
#124 =( NAMED_UNIT ( * ) PLANE_ANGLE_UNIT ( ) SI_UNIT ( $, .RADIAN. ) );
#125 = VERTEX_POINT ( 'NONE', #242 ) ;
#126 = PRESENTATION_STYLE_ASSIGNMENT (( #20 ) ) ;
#127 = DIRECTION ( 'NONE',  ( 0.000000000000000000, 1.000000000000000000, 0.000000000000000000 ) ) ;
#128 = PRESENTATION_LAYER_ASSIGNMENT (  '', '', ( #253 ) ) ;
#129 = PRODUCT_DEFINITION_FORMATION_WITH_SPECIFIED_SOURCE ( 'ANY', '', #186, .NOT_KNOWN. ) ;
#130 = DIRECTION ( 'NONE',  ( -1.000000000000000000, 0.000000000000000000, 0.000000000000000000 ) ) ;
#131 = EDGE_LOOP ( 'NONE', ( #171, #191 ) ) ;
#132 =( LENGTH_UNIT ( ) NAMED_UNIT ( * ) SI_UNIT ( .MILLI., .METRE. ) );
#133 = SURFACE_SIDE_STYLE ('',( #75 ) ) ;
#134 = EDGE_CURVE ( 'NONE', #139, #125, #38, .T. ) ;
#135 = FACE_OUTER_BOUND ( 'NONE', #48, .T. ) ;
#136 = DIRECTION ( 'NONE',  ( -1.231212018341879827E-16, 1.000000000000000000, -0.000000000000000000 ) ) ;
#137 = ORIENTED_EDGE ( 'NONE', *, *, #134, .T. ) ;
#138 = CARTESIAN_POINT ( 'NONE',  ( 7.999999999999994671, 89.00000000000000000, 9.797174393178821713E-16 ) ) ;
#139 = VERTEX_POINT ( 'NONE', #223 ) ;
#140 = CARTESIAN_POINT ( 'NONE',  ( 0.000000000000000000, 0.000000000000000000, 0.000000000000000000 ) ) ;
#141 = DIRECTION ( 'NONE',  ( -1.231212018341879827E-16, 1.000000000000000000, -0.000000000000000000 ) ) ;
#142 = AXIS2_PLACEMENT_3D ( 'NONE', #1, #210, #119 ) ;
#143 = DIRECTION ( 'NONE',  ( -1.000000000000000000, 0.000000000000000000, 0.000000000000000000 ) ) ;
#144 = SURFACE_SIDE_STYLE ('',( #206 ) ) ;
#145 = MECHANICAL_DESIGN_GEOMETRIC_PRESENTATION_REPRESENTATION (  '', ( #202 ), #243 ) ;
#146 = MECHANICAL_DESIGN_GEOMETRIC_PRESENTATION_REPRESENTATION (  '', ( #322 ), #328 ) ;
#147 = UNCERTAINTY_MEASURE_WITH_UNIT (LENGTH_MEASURE( 1.000000000000000082E-05 ), #237, 'distance_accuracy_value', 'NONE');
#148 =( NAMED_UNIT ( * ) PLANE_ANGLE_UNIT ( ) SI_UNIT ( $, .RADIAN. ) );
#149 = SURFACE_STYLE_USAGE ( .BOTH. , #41 ) ;
#150 = ADVANCED_FACE ( 'NONE', ( #158 ), #62, .T. ) ;
#151 = VECTOR ( 'NONE', #366, 1000.000000000000000 ) ;
#152 = CARTESIAN_POINT ( 'NONE',  ( 0.000000000000000000, 0.000000000000000000, 0.000000000000000000 ) ) ;
#153 = COLOUR_RGB ( '',1.000000000000000000, 0.000000000000000000, 0.000000000000000000 ) ;
#154 = EDGE_LOOP ( 'NONE', ( #198, #95, #274, #335 ) ) ;
#155 = AXIS2_PLACEMENT_3D ( 'NONE', #34, #174, #284 ) ;
#156 = CARTESIAN_POINT ( 'NONE',  ( -1.714505518806293652E-15, 89.00000000000000000, 0.000000000000000000 ) ) ;
#157 = FILL_AREA_STYLE_COLOUR ( '', #18 ) ;
#158 = FACE_OUTER_BOUND ( 'NONE', #364, .T. ) ;
#159 = FILL_AREA_STYLE ('',( #290 ) ) ;
#160 = PRESENTATION_STYLE_ASSIGNMENT (( #340 ) ) ;
#161 = CARTESIAN_POINT ( 'NONE',  ( 0.000000000000000000, 0.000000000000000000, -7.000000000000000000 ) ) ;
#162 = CARTESIAN_POINT ( 'NONE',  ( 0.000000000000000000, 1.000000000000000000, 0.000000000000000000 ) ) ;
#163 = AXIS2_PLACEMENT_3D ( 'NONE', #50, #141, #60 ) ;
#164 = ADVANCED_FACE ( 'NONE', ( #251 ), #45, .T. ) ;
#165 = DIRECTION ( 'NONE',  ( 1.000000000000000000, 0.000000000000000000, -1.224646799147353207E-16 ) ) ;
#166 = ORIENTED_EDGE ( 'NONE', *, *, #79, .F. ) ;
#167 = DIRECTION ( 'NONE',  ( 0.000000000000000000, 0.000000000000000000, -1.000000000000000000 ) ) ;
#168 = FACE_OUTER_BOUND ( 'NONE', #107, .T. ) ;
#169 = EDGE_LOOP ( 'NONE', ( #277, #355, #89, #204 ) ) ;
#170 =( LENGTH_UNIT ( ) NAMED_UNIT ( * ) SI_UNIT ( .MILLI., .METRE. ) );
#171 = ORIENTED_EDGE ( 'NONE', *, *, #183, .T. ) ;
#172 = SURFACE_STYLE_USAGE ( .BOTH. , #144 ) ;
#173 = AXIS2_PLACEMENT_3D ( 'NONE', #88, #83, #143 ) ;
#174 = DIRECTION ( 'NONE',  ( -1.231212018341879827E-16, 1.000000000000000000, -0.000000000000000000 ) ) ;
#175 = MANIFOLD_SOLID_BREP ( 'Revolve - Cutting Edge', #39 ) ;
#176 = ORIENTED_EDGE ( 'NONE', *, *, #230, .F. ) ;
#177 = FILL_AREA_STYLE_COLOUR ( '', #78 ) ;
#178 = CIRCLE ( 'NONE', #226, 8.000000000000000000 ) ;
#179 = COLOUR_RGB ( '',1.000000000000000000, 0.000000000000000000, 0.000000000000000000 ) ;
#180 = CARTESIAN_POINT ( 'NONE',  ( 6.288372600415925717E-15, 24.00000000000000000, 0.000000000000000000 ) ) ;
#181 = CYLINDRICAL_SURFACE ( 'NONE', #120, 8.000000000000000000 ) ;
#182 = ADVANCED_FACE ( 'NONE', ( #369 ), #306, .T. ) ;
#183 = EDGE_CURVE ( 'NONE', #44, #250, #19, .T. ) ;
#184 = SURFACE_SIDE_STYLE ('',( #98 ) ) ;
#185 = PRESENTATION_STYLE_ASSIGNMENT (( #214 ) ) ;
#186 = PRODUCT ( '59472', '59472', '', ( #101 ) ) ;
#187 = COLOUR_RGB ( '',1.000000000000000000, 0.000000000000000000, 0.000000000000000000 ) ;
#188 = FILL_AREA_STYLE ('',( #96 ) ) ;
#189 = CARTESIAN_POINT ( 'NONE',  ( 0.000000000000000000, 1.000000000000000000, 0.000000000000000000 ) ) ;
#190 = CARTESIAN_POINT ( 'NONE',  ( -8.000000000000003553, 89.00000000000000000, 0.000000000000000000 ) ) ;
#191 = ORIENTED_EDGE ( 'NONE', *, *, #231, .T. ) ;
#192 = SURFACE_SIDE_STYLE ('',( #100 ) ) ;
#193 = CARTESIAN_POINT ( 'NONE',  ( 8.000000000000000000, 89.00000000000000000, 0.000000000000000000 ) ) ;
#194 = DIRECTION ( 'NONE',  ( -1.231212018341879827E-16, 1.000000000000000000, -0.000000000000000000 ) ) ;
#195 =( GEOMETRIC_REPRESENTATION_CONTEXT ( 3 ) GLOBAL_UNCERTAINTY_ASSIGNED_CONTEXT ( ( #346 ) ) GLOBAL_UNIT_ASSIGNED_CONTEXT ( ( #360, #225, #358 ) ) REPRESENTATION_CONTEXT ( 'NONE', 'WORKASPACE' ) );
#196 =( NAMED_UNIT ( * ) SI_UNIT ( $, .STERADIAN. ) SOLID_ANGLE_UNIT ( ) );
#197 = AXIS2_PLACEMENT_3D ( 'NONE', #156, #264, #17 ) ;
#198 = ORIENTED_EDGE ( 'NONE', *, *, #82, .T. ) ;
#199 = FACE_OUTER_BOUND ( 'NONE', #58, .T. ) ;
#200 = SURFACE_STYLE_FILL_AREA ( #337 ) ;
#201 =( NAMED_UNIT ( * ) SI_UNIT ( $, .STERADIAN. ) SOLID_ANGLE_UNIT ( ) );
#202 = STYLED_ITEM ( 'NONE', ( #341 ), #4 ) ;
#203 = COLOUR_RGB ( '',1.000000000000000000, 0.000000000000000000, 0.000000000000000000 ) ;
#204 = ORIENTED_EDGE ( 'NONE', *, *, #263, .F. ) ;
#205 = SURFACE_SIDE_STYLE ('',( #200 ) ) ;
#206 = SURFACE_STYLE_FILL_AREA ( #311 ) ;
#207 = EDGE_CURVE ( 'NONE', #302, #267, #368, .T. ) ;
#208 = UNCERTAINTY_MEASURE_WITH_UNIT (LENGTH_MEASURE( 1.000000000000000082E-05 ), #132, 'distance_accuracy_value', 'NONE');
#209 = PRESENTATION_LAYER_ASSIGNMENT (  '', '', ( #299 ) ) ;
#210 = DIRECTION ( 'NONE',  ( -1.000000000000000000, 0.000000000000000000, 0.000000000000000000 ) ) ;
#211 = DIRECTION ( 'NONE',  ( -1.000000000000000000, -1.231212018341879827E-16, 0.000000000000000000 ) ) ;
#212 = MECHANICAL_DESIGN_GEOMETRIC_PRESENTATION_REPRESENTATION (  '', ( #113 ), #351 ) ;
#213 =( GEOMETRIC_REPRESENTATION_CONTEXT ( 3 ) GLOBAL_UNCERTAINTY_ASSIGNED_CONTEXT ( ( #10 ) ) GLOBAL_UNIT_ASSIGNED_CONTEXT ( ( #278, #220, #84 ) ) REPRESENTATION_CONTEXT ( 'NONE', 'WORKASPACE' ) );
#214 = SURFACE_STYLE_USAGE ( .BOTH. , #32 ) ;
#215 = FILL_AREA_STYLE_COLOUR ( '', #314 ) ;
#216 = AXIS2_PLACEMENT_3D ( 'NONE', #27, #194, #130 ) ;
#217 = ORIENTED_EDGE ( 'NONE', *, *, #82, .F. ) ;
#218 = AXIS2_PLACEMENT_3D ( 'NONE', #269, #127, #245 ) ;
#219 = ADVANCED_FACE ( 'NONE', ( #199 ), #359, .T. ) ;
#220 =( NAMED_UNIT ( * ) PLANE_ANGLE_UNIT ( ) SI_UNIT ( $, .RADIAN. ) );
#221 = CARTESIAN_POINT ( 'NONE',  ( 0.000000000000000000, 1.000000000000000000, 0.000000000000000000 ) ) ;
#222 = EDGE_CURVE ( 'NONE', #125, #44, #265, .T. ) ;
#223 = CARTESIAN_POINT ( 'NONE',  ( 0.000000000000000000, 24.00000000000000000, -8.000000000000000000 ) ) ;
#224 = FACE_OUTER_BOUND ( 'NONE', #329, .T. ) ;
#225 =( NAMED_UNIT ( * ) PLANE_ANGLE_UNIT ( ) SI_UNIT ( $, .RADIAN. ) );
#226 = AXIS2_PLACEMENT_3D ( 'NONE', #221, #30, #76 ) ;
#227 = APPLICATION_PROTOCOL_DEFINITION ( 'draft international standard', 'automotive_design', 1998, #338 ) ;
#228 = FACE_OUTER_BOUND ( 'NONE', #131, .T. ) ;
#229 = SURFACE_STYLE_USAGE ( .BOTH. , #192 ) ;
#230 = EDGE_CURVE ( 'NONE', #330, #302, #319, .T. ) ;
#231 = EDGE_CURVE ( 'NONE', #250, #44, #334, .T. ) ;
#232 = UNCERTAINTY_MEASURE_WITH_UNIT (LENGTH_MEASURE( 1.000000000000000082E-05 ), #72, 'distance_accuracy_value', 'NONE');
#233 =( GEOMETRIC_REPRESENTATION_CONTEXT ( 3 ) GLOBAL_UNCERTAINTY_ASSIGNED_CONTEXT ( ( #147 ) ) GLOBAL_UNIT_ASSIGNED_CONTEXT ( ( #237, #124, #240 ) ) REPRESENTATION_CONTEXT ( 'NONE', 'WORKASPACE' ) );
#234 = CIRCLE ( 'NONE', #69, 8.000000000000000000 ) ;
#235 = CIRCLE ( 'NONE', #281, 8.000000000000000000 ) ;
#236 = DIRECTION ( 'NONE',  ( 0.000000000000000000, -1.000000000000000000, -0.000000000000000000 ) ) ;
#237 =( LENGTH_UNIT ( ) NAMED_UNIT ( * ) SI_UNIT ( .MILLI., .METRE. ) );
#238 = ORIENTED_EDGE ( 'NONE', *, *, #222, .T. ) ;
#239 = ADVANCED_FACE ( 'NONE', ( #68 ), #181, .T. ) ;
#240 =( NAMED_UNIT ( * ) SI_UNIT ( $, .STERADIAN. ) SOLID_ANGLE_UNIT ( ) );
#241 = EDGE_LOOP ( 'NONE', ( #217, #339 ) ) ;
#242 = CARTESIAN_POINT ( 'NONE',  ( 0.000000000000000000, 1.000000000000000000, -8.000000000000000000 ) ) ;
#243 =( GEOMETRIC_REPRESENTATION_CONTEXT ( 3 ) GLOBAL_UNCERTAINTY_ASSIGNED_CONTEXT ( ( #320 ) ) GLOBAL_UNIT_ASSIGNED_CONTEXT ( ( #65, #148, #11 ) ) REPRESENTATION_CONTEXT ( 'NONE', 'WORKASPACE' ) );
#244 = STYLED_ITEM ( 'NONE', ( #160 ), #285 ) ;
#245 = DIRECTION ( 'NONE',  ( 0.000000000000000000, -0.000000000000000000, 1.000000000000000000 ) ) ;
#246 = DIRECTION ( 'NONE',  ( 0.000000000000000000, 0.000000000000000000, 1.000000000000000000 ) ) ;
#247 =( NAMED_UNIT ( * ) SI_UNIT ( $, .STERADIAN. ) SOLID_ANGLE_UNIT ( ) );
#248 = LINE ( 'NONE', #138, #151 ) ;
#249 = DIRECTION ( 'NONE',  ( -1.224646799147353454E-16, 0.000000000000000000, -1.000000000000000000 ) ) ;
#250 = VERTEX_POINT ( 'NONE', #117 ) ;
#251 = FACE_OUTER_BOUND ( 'NONE', #241, .T. ) ;
#252 =( NAMED_UNIT ( * ) PLANE_ANGLE_UNIT ( ) SI_UNIT ( $, .RADIAN. ) );
#253 = STYLED_ITEM ( 'NONE', ( #126 ), #43 ) ;
#254 = EDGE_LOOP ( 'NONE', ( #81, #57 ) ) ;
#255 = FILL_AREA_STYLE_COLOUR ( '', #203 ) ;
#256 = ADVANCED_FACE ( 'NONE', ( #90 ), #36, .F. ) ;
#257 = PRODUCT_RELATED_PRODUCT_CATEGORY ( 'part', '', ( #186 ) ) ;
#258 = ORIENTED_EDGE ( 'NONE', *, *, #79, .T. ) ;
#259 = AXIS2_PLACEMENT_3D ( 'NONE', #189, #102, #167 ) ;
#260 = VECTOR ( 'NONE', #37, 1000.000000000000000 ) ;
#261 = CARTESIAN_POINT ( 'NONE',  ( -7.999999999999998224, 89.00000000000000000, 0.000000000000000000 ) ) ;
#262 = EDGE_CURVE ( 'NONE', #73, #99, #321, .T. ) ;
#263 = EDGE_CURVE ( 'NONE', #267, #302, #309, .T. ) ;
#264 = DIRECTION ( 'NONE',  ( -1.231212018341879827E-16, 1.000000000000000000, -0.000000000000000000 ) ) ;
#265 = CIRCLE ( 'NONE', #142, 1.000000000000000000 ) ;
#266 =( NAMED_UNIT ( * ) PLANE_ANGLE_UNIT ( ) SI_UNIT ( $, .RADIAN. ) );
#267 = VERTEX_POINT ( 'NONE', #122 ) ;
#268 = SURFACE_STYLE_USAGE ( .BOTH. , #295 ) ;
#269 = CARTESIAN_POINT ( 'NONE',  ( 0.000000000000000000, 24.00000000000000000, 0.000000000000000000 ) ) ;
#270 = AXIS2_PLACEMENT_3D ( 'NONE', #52, #165, #249 ) ;
#271 =( GEOMETRIC_REPRESENTATION_CONTEXT ( 3 ) GLOBAL_UNCERTAINTY_ASSIGNED_CONTEXT ( ( #9 ) ) GLOBAL_UNIT_ASSIGNED_CONTEXT ( ( #170, #252, #196 ) ) REPRESENTATION_CONTEXT ( 'NONE', 'WORKASPACE' ) );
#272 = DIRECTION ( 'NONE',  ( 0.000000000000000000, 0.000000000000000000, -1.000000000000000000 ) ) ;
#273 = CARTESIAN_POINT ( 'NONE',  ( -7.999999999999986677, 23.99999999999999289, 0.000000000000000000 ) ) ;
#274 = ORIENTED_EDGE ( 'NONE', *, *, #91, .F. ) ;
#275 = SURFACE_STYLE_FILL_AREA ( #188 ) ;
#276 = CARTESIAN_POINT ( 'NONE',  ( 0.000000000000000000, 0.000000000000000000, 0.000000000000000000 ) ) ;
#277 = ORIENTED_EDGE ( 'NONE', *, *, #350, .F. ) ;
#278 =( LENGTH_UNIT ( ) NAMED_UNIT ( * ) SI_UNIT ( .MILLI., .METRE. ) );
#279 = ORIENTED_EDGE ( 'NONE', *, *, #71, .F. ) ;
#280 = CIRCLE ( 'NONE', #5, 8.000000000000000000 ) ;
#281 = AXIS2_PLACEMENT_3D ( 'NONE', #56, #332, #312 ) ;
#282 = EDGE_CURVE ( 'NONE', #73, #139, #235, .T. ) ;
#283 = FILL_AREA_STYLE_COLOUR ( '', #187 ) ;
#284 = DIRECTION ( 'NONE',  ( -1.000000000000000000, 0.000000000000000000, 0.000000000000000000 ) ) ;
#285 = ADVANCED_FACE ( 'NONE', ( #168 ), #108, .T. ) ;
#286 = PRESENTATION_LAYER_ASSIGNMENT (  '', '', ( #202 ) ) ;
#287 = PRESENTATION_LAYER_ASSIGNMENT (  '', '', ( #113 ) ) ;
#288 = DIRECTION ( 'NONE',  ( -1.231212018341879827E-16, 1.000000000000000000, 0.000000000000000000 ) ) ;
#289 = UNCERTAINTY_MEASURE_WITH_UNIT (LENGTH_MEASURE( 1.000000000000000082E-05 ), #109, 'distance_accuracy_value', 'NONE');
#290 = FILL_AREA_STYLE_COLOUR ( '', #179 ) ;
#291 = PRODUCT_DEFINITION_SHAPE ( 'NONE', 'NONE',  #325 ) ;
#292 = DIRECTION ( 'NONE',  ( 0.000000000000000000, 0.000000000000000000, -1.000000000000000000 ) ) ;
#293 = AXIS2_PLACEMENT_3D ( 'NONE', #22, #93, #292 ) ;
#294 = EDGE_CURVE ( 'NONE', #31, #330, #112, .T. ) ;
#295 = SURFACE_SIDE_STYLE ('',( #74 ) ) ;
#296 = DIRECTION ( 'NONE',  ( -0.000000000000000000, -1.000000000000000000, -0.000000000000000000 ) ) ;
#297 = MECHANICAL_DESIGN_GEOMETRIC_PRESENTATION_REPRESENTATION (  '', ( #318 ), #94 ) ;
#298 = ADVANCED_FACE ( 'NONE', ( #224 ), #307, .F. ) ;
#299 = STYLED_ITEM ( 'NONE', ( #15 ), #239 ) ;
#300 = CARTESIAN_POINT ( 'NONE',  ( 8.000000000000000000, 23.99999999999999289, 9.797174393178825657E-16 ) ) ;
#301 = AXIS2_PLACEMENT_3D ( 'NONE', #193, #2, #310 ) ;
#302 = VERTEX_POINT ( 'NONE', #190 ) ;
#303 = DIRECTION ( 'NONE',  ( -0.000000000000000000, -1.000000000000000000, -0.000000000000000000 ) ) ;
#304 = ORIENTED_EDGE ( 'NONE', *, *, #263, .T. ) ;
#305 = ORIENTED_EDGE ( 'NONE', *, *, #207, .F. ) ;
#306 = CYLINDRICAL_SURFACE ( 'NONE', #155, 7.999999999999996447 ) ;
#307 = PLANE ( 'NONE',  #301 ) ;
#308 = CARTESIAN_POINT ( 'NONE',  ( 9.797174393178825657E-16, 24.00000000000000000, 8.000000000000000000 ) ) ;
#309 = CIRCLE ( 'NONE', #197, 8.000000000000001776 ) ;
#310 = DIRECTION ( 'NONE',  ( 1.000000000000000000, 1.231212018341879827E-16, 0.000000000000000000 ) ) ;
#311 = FILL_AREA_STYLE ('',( #177 ) ) ;
#312 = DIRECTION ( 'NONE',  ( 0.000000000000000000, 0.000000000000000000, -1.000000000000000000 ) ) ;
#313 = ORIENTED_EDGE ( 'NONE', *, *, #14, .T. ) ;
#314 = COLOUR_RGB ( '',0.7921568627450980005, 0.8196078431372548767, 0.9333333333333333481 ) ;
#315 =( NAMED_UNIT ( * ) SI_UNIT ( $, .STERADIAN. ) SOLID_ANGLE_UNIT ( ) );
#316 = PRESENTATION_STYLE_ASSIGNMENT (( #172 ) ) ;
#317 = CARTESIAN_POINT ( 'NONE',  ( 0.000000000000000000, 0.000000000000000000, 0.000000000000000000 ) ) ;
#318 = STYLED_ITEM ( 'NONE', ( #77 ), #150 ) ;
#319 = LINE ( 'NONE', #261, #70 ) ;
#320 = UNCERTAINTY_MEASURE_WITH_UNIT (LENGTH_MEASURE( 1.000000000000000082E-05 ), #65, 'distance_accuracy_value', 'NONE');
#321 = LINE ( 'NONE', #16, #260 ) ;
#322 = STYLED_ITEM ( 'NONE', ( #185 ), #164 ) ;
#323 = AXIS2_PLACEMENT_3D ( 'NONE', #276, #370, #29 ) ;
#324 = MECHANICAL_DESIGN_GEOMETRIC_PRESENTATION_REPRESENTATION (  '', ( #244 ), #271 ) ;
#325 = PRODUCT_DEFINITION ( 'UNKNOWN', '', #129, #54 ) ;
#326 = FILL_AREA_STYLE ('',( #157 ) ) ;
#327 = DIRECTION ( 'NONE',  ( -0.000000000000000000, -1.000000000000000000, -0.000000000000000000 ) ) ;
#328 =( GEOMETRIC_REPRESENTATION_CONTEXT ( 3 ) GLOBAL_UNCERTAINTY_ASSIGNED_CONTEXT ( ( #232 ) ) GLOBAL_UNIT_ASSIGNED_CONTEXT ( ( #72, #266, #356 ) ) REPRESENTATION_CONTEXT ( 'NONE', 'WORKASPACE' ) );
#329 = EDGE_LOOP ( 'NONE', ( #367, #304 ) ) ;
#330 = VERTEX_POINT ( 'NONE', #273 ) ;
#331 = FILL_AREA_STYLE_COLOUR ( '', #153 ) ;
#332 = DIRECTION ( 'NONE',  ( -0.000000000000000000, -1.000000000000000000, -0.000000000000000000 ) ) ;
#333 = DIRECTION ( 'NONE',  ( -0.000000000000000000, -1.000000000000000000, -0.000000000000000000 ) ) ;
#334 = CIRCLE ( 'NONE', #293, 7.000000000000000000 ) ;
#335 = ORIENTED_EDGE ( 'NONE', *, *, #134, .F. ) ;
#336 =( LENGTH_UNIT ( ) NAMED_UNIT ( * ) SI_UNIT ( .MILLI., .METRE. ) );
#337 = FILL_AREA_STYLE ('',( #283 ) ) ;
#338 = APPLICATION_CONTEXT ( 'automotive_design' ) ;
#339 = ORIENTED_EDGE ( 'NONE', *, *, #282, .F. ) ;
#340 = SURFACE_STYLE_USAGE ( .BOTH. , #133 ) ;
#341 = PRESENTATION_STYLE_ASSIGNMENT (( #61 ) ) ;
#342 = MECHANICAL_DESIGN_GEOMETRIC_PRESENTATION_REPRESENTATION (  '', ( #253 ), #195 ) ;
#343 = AXIS2_PLACEMENT_3D ( 'NONE', #347, #296, #349 ) ;
#344 = ORIENTED_EDGE ( 'NONE', *, *, #71, .T. ) ;
#345 = SURFACE_STYLE_FILL_AREA ( #159 ) ;
#346 = UNCERTAINTY_MEASURE_WITH_UNIT (LENGTH_MEASURE( 1.000000000000000082E-05 ), #360, 'distance_accuracy_value', 'NONE');
#347 = CARTESIAN_POINT ( 'NONE',  ( 0.000000000000000000, 1.000000000000000000, 0.000000000000000000 ) ) ;
#348 = MECHANICAL_DESIGN_GEOMETRIC_PRESENTATION_REPRESENTATION (  '', ( #299 ), #233 ) ;
#349 = DIRECTION ( 'NONE',  ( 0.000000000000000000, 0.000000000000000000, -1.000000000000000000 ) ) ;
#350 = EDGE_CURVE ( 'NONE', #31, #267, #248, .T. ) ;
#351 =( GEOMETRIC_REPRESENTATION_CONTEXT ( 3 ) GLOBAL_UNCERTAINTY_ASSIGNED_CONTEXT ( ( #67 ) ) GLOBAL_UNIT_ASSIGNED_CONTEXT ( ( #336, #87, #201 ) ) REPRESENTATION_CONTEXT ( 'NONE', 'WORKASPACE' ) );
#352 = DIRECTION ( 'NONE',  ( 0.000000000000000000, 0.000000000000000000, -1.000000000000000000 ) ) ;
#353 =( NAMED_UNIT ( * ) PLANE_ANGLE_UNIT ( ) SI_UNIT ( $, .RADIAN. ) );
#354 = APPLICATION_CONTEXT ( 'automotive_design' ) ;
#355 = ORIENTED_EDGE ( 'NONE', *, *, #294, .T. ) ;
#356 =( NAMED_UNIT ( * ) SI_UNIT ( $, .STERADIAN. ) SOLID_ANGLE_UNIT ( ) );
#357 = ADVANCED_BREP_SHAPE_REPRESENTATION ( '59472', ( #175, #43, #114 ), #213 ) ;
#358 =( NAMED_UNIT ( * ) SI_UNIT ( $, .STERADIAN. ) SOLID_ANGLE_UNIT ( ) );
#359 = TOROIDAL_SURFACE ( 'NONE', #343, 7.000000000000000000, 1.000000000000000000 ) ;
#360 =( LENGTH_UNIT ( ) NAMED_UNIT ( * ) SI_UNIT ( .MILLI., .METRE. ) );
#361 = FILL_AREA_STYLE ('',( #215 ) ) ;
#362 = DIRECTION ( 'NONE',  ( 1.000000000000000000, 0.000000000000000000, 0.000000000000000000 ) ) ;
#363 = CYLINDRICAL_SURFACE ( 'NONE', #216, 7.999999999999996447 ) ;
#364 = EDGE_LOOP ( 'NONE', ( #166, #344, #238, #103 ) ) ;
#365 = DIRECTION ( 'NONE',  ( -0.000000000000000000, -1.000000000000000000, -0.000000000000000000 ) ) ;
#366 = DIRECTION ( 'NONE',  ( -1.231212018341879827E-16, 1.000000000000000000, -0.000000000000000000 ) ) ;
#367 = ORIENTED_EDGE ( 'NONE', *, *, #207, .T. ) ;
#368 = CIRCLE ( 'NONE', #173, 8.000000000000001776 ) ;
#369 = FACE_OUTER_BOUND ( 'NONE', #169, .T. ) ;
#370 = DIRECTION ( 'NONE',  ( -0.000000000000000000, -1.000000000000000000, -0.000000000000000000 ) ) ;
ENDSEC;
END-ISO-10303-21;
