ISO-10303-21;
HEADER;
/* Generated by software containing ST-Developer
 * from STEP Tools, Inc. (www.steptools.com) 
 */

FILE_DESCRIPTION(
/* description */ (''),
/* implementation_level */ '2;1');

FILE_NAME(
/* name */ 'Helical_86348.step',
/* time_stamp */ '2023-07-10T16:36:11-04:00',
/* author */ (''),
/* organization */ (''),
/* preprocessor_version */ 'ST-DEVELOPER v19.2',
/* originating_system */ 'Autodesk Translation Framework v12.6.0.85',
/* authorisation */ '');

FILE_SCHEMA (('AUTOMOTIVE_DESIGN { 1 0 10303 214 3 1 1 }'));
ENDSEC;

DATA;
#10=MECHANICAL_DESIGN_GEOMETRIC_PRESENTATION_REPRESENTATION('',(#13),#171);
#11=SHAPE_REPRESENTATION_RELATIONSHIP('SRR','None',#181,#12);
#12=ADVANCED_BREP_SHAPE_REPRESENTATION('',(#14),#170);
#13=STYLED_ITEM('',(#190),#14);
#14=MANIFOLD_SOLID_BREP('Body1',#73);
#15=(
BOUNDED_SURFACE()
B_SPLINE_SURFACE(2,2,((#140,#141,#142,#143,#144,#145,#146,#147,#148),(#149,
#150,#151,#152,#153,#154,#155,#156,#157),(#158,#159,#160,#161,#162,#163,
#164,#165,#166)),.UNSPECIFIED.,.F.,.T.,.F.)
B_SPLINE_SURFACE_WITH_KNOTS((3,3),(3,2,2,2,3),(0.781708902257174,0.789087424537722),
(-3.14159265358979,-1.5707963267949,0.,1.5707963267949,3.14159265358979),
 .UNSPECIFIED.)
GEOMETRIC_REPRESENTATION_ITEM()
RATIONAL_B_SPLINE_SURFACE(((1.,0.707106781186548,1.,0.707106781186548,1.,
0.707106781186548,1.,0.707106781186548,1.),(0.999993194683838,0.707101969101341,
0.999993194683838,0.707101969101341,0.999993194683838,0.707101969101341,
0.999993194683838,0.707101969101341,0.999993194683838),(1.,0.707106781186548,
1.,0.707106781186548,1.,0.707106781186548,1.,0.707106781186548,1.)))
REPRESENTATION_ITEM('')
SURFACE()
);
#16=TOROIDAL_SURFACE('',#94,0.1875,0.0625);
#17=LINE('',#134,#18);
#18=VECTOR('',#112,0.25);
#19=CYLINDRICAL_SURFACE('',#91,0.25);
#20=PLANE('',#89);
#21=FACE_OUTER_BOUND('',#26,.T.);
#22=FACE_OUTER_BOUND('',#27,.T.);
#23=FACE_OUTER_BOUND('',#28,.T.);
#24=FACE_OUTER_BOUND('',#29,.T.);
#25=FACE_OUTER_BOUND('',#30,.T.);
#26=EDGE_LOOP('',(#51));
#27=EDGE_LOOP('',(#52));
#28=EDGE_LOOP('',(#53,#54,#55,#56,#57));
#29=EDGE_LOOP('',(#58,#59,#60,#61,#62));
#30=EDGE_LOOP('',(#63,#64,#65,#66));
#31=CIRCLE('',#88,0.0440308295905989);
#32=CIRCLE('',#90,0.25);
#33=CIRCLE('',#92,0.25);
#34=CIRCLE('',#93,0.25);
#35=CIRCLE('',#95,0.23185691654708);
#36=CIRCLE('',#96,0.0625);
#37=CIRCLE('',#97,36.);
#38=VERTEX_POINT('',#125);
#39=VERTEX_POINT('',#128);
#40=VERTEX_POINT('',#131);
#41=VERTEX_POINT('',#132);
#42=VERTEX_POINT('',#137);
#43=EDGE_CURVE('',#38,#38,#31,.T.);
#44=EDGE_CURVE('',#39,#39,#32,.T.);
#45=EDGE_CURVE('',#40,#41,#33,.T.);
#46=EDGE_CURVE('',#40,#39,#17,.T.);
#47=EDGE_CURVE('',#41,#40,#34,.T.);
#48=EDGE_CURVE('',#42,#42,#35,.T.);
#49=EDGE_CURVE('',#42,#41,#36,.T.);
#50=EDGE_CURVE('',#38,#42,#37,.T.);
#51=ORIENTED_EDGE('',*,*,#43,.T.);
#52=ORIENTED_EDGE('',*,*,#44,.F.);
#53=ORIENTED_EDGE('',*,*,#45,.F.);
#54=ORIENTED_EDGE('',*,*,#46,.T.);
#55=ORIENTED_EDGE('',*,*,#44,.T.);
#56=ORIENTED_EDGE('',*,*,#46,.F.);
#57=ORIENTED_EDGE('',*,*,#47,.F.);
#58=ORIENTED_EDGE('',*,*,#48,.F.);
#59=ORIENTED_EDGE('',*,*,#49,.T.);
#60=ORIENTED_EDGE('',*,*,#47,.T.);
#61=ORIENTED_EDGE('',*,*,#45,.T.);
#62=ORIENTED_EDGE('',*,*,#49,.F.);
#63=ORIENTED_EDGE('',*,*,#43,.F.);
#64=ORIENTED_EDGE('',*,*,#50,.T.);
#65=ORIENTED_EDGE('',*,*,#48,.T.);
#66=ORIENTED_EDGE('',*,*,#50,.F.);
#67=SPHERICAL_SURFACE('',#87,0.0624999999999962);
#68=ADVANCED_FACE('',(#21),#67,.T.);
#69=ADVANCED_FACE('',(#22),#20,.T.);
#70=ADVANCED_FACE('',(#23),#19,.T.);
#71=ADVANCED_FACE('',(#24),#16,.T.);
#72=ADVANCED_FACE('',(#25),#15,.F.);
#73=CLOSED_SHELL('',(#68,#69,#70,#71,#72));
#74=DERIVED_UNIT_ELEMENT(#76,1.);
#75=DERIVED_UNIT_ELEMENT(#175,-3.);
#76=(
MASS_UNIT()
NAMED_UNIT(*)
SI_UNIT(.KILO.,.GRAM.)
);
#77=DERIVED_UNIT((#74,#75));
#78=MEASURE_REPRESENTATION_ITEM('density measure',
POSITIVE_RATIO_MEASURE(7850.),#77);
#79=PROPERTY_DEFINITION_REPRESENTATION(#84,#81);
#80=PROPERTY_DEFINITION_REPRESENTATION(#85,#82);
#81=REPRESENTATION('material name',(#83),#170);
#82=REPRESENTATION('density',(#78),#170);
#83=DESCRIPTIVE_REPRESENTATION_ITEM('Steel','Steel');
#84=PROPERTY_DEFINITION('material property','material name',#183);
#85=PROPERTY_DEFINITION('material property','density of part',#183);
#86=AXIS2_PLACEMENT_3D('',#123,#98,#99);
#87=AXIS2_PLACEMENT_3D('',#124,#100,#101);
#88=AXIS2_PLACEMENT_3D('',#126,#102,#103);
#89=AXIS2_PLACEMENT_3D('',#127,#104,#105);
#90=AXIS2_PLACEMENT_3D('',#129,#106,#107);
#91=AXIS2_PLACEMENT_3D('',#130,#108,#109);
#92=AXIS2_PLACEMENT_3D('',#133,#110,#111);
#93=AXIS2_PLACEMENT_3D('',#135,#113,#114);
#94=AXIS2_PLACEMENT_3D('',#136,#115,#116);
#95=AXIS2_PLACEMENT_3D('',#138,#117,#118);
#96=AXIS2_PLACEMENT_3D('',#139,#119,#120);
#97=AXIS2_PLACEMENT_3D('',#167,#121,#122);
#98=DIRECTION('axis',(0.,0.,1.));
#99=DIRECTION('refdir',(1.,0.,0.));
#100=DIRECTION('center_axis',(6.12323399573682E-17,0.,1.));
#101=DIRECTION('ref_axis',(1.,0.,0.));
#102=DIRECTION('center_axis',(2.E-16,-1.,0.));
#103=DIRECTION('ref_axis',(1.,2.E-16,0.));
#104=DIRECTION('center_axis',(-2.E-16,1.,0.));
#105=DIRECTION('ref_axis',(0.,0.,1.));
#106=DIRECTION('center_axis',(2.E-16,-1.,0.));
#107=DIRECTION('ref_axis',(1.,2.E-16,0.));
#108=DIRECTION('center_axis',(2.E-16,-1.,0.));
#109=DIRECTION('ref_axis',(1.,0.,0.));
#110=DIRECTION('center_axis',(2.E-16,-1.,0.));
#111=DIRECTION('ref_axis',(1.,2.E-16,0.));
#112=DIRECTION('',(-2.E-16,1.,0.));
#113=DIRECTION('center_axis',(2.E-16,-1.,0.));
#114=DIRECTION('ref_axis',(1.,2.E-16,0.));
#115=DIRECTION('center_axis',(2.E-16,-1.,0.));
#116=DIRECTION('ref_axis',(0.,0.,-1.));
#117=DIRECTION('center_axis',(2.E-16,-1.,0.));
#118=DIRECTION('ref_axis',(1.,2.E-16,0.));
#119=DIRECTION('center_axis',(-1.,-2.E-16,-1.22464679914735E-16));
#120=DIRECTION('ref_axis',(-1.22464679914735E-16,0.,1.));
#121=DIRECTION('center_axis',(-1.,-2.E-16,-1.22464679914735E-16));
#122=DIRECTION('ref_axis',(-1.22464679914735E-16,0.,1.));
#123=CARTESIAN_POINT('',(0.,0.,0.));
#124=CARTESIAN_POINT('Origin',(-6.E-16,0.0624999999999956,0.));
#125=CARTESIAN_POINT('',(-9.02083814277932E-18,0.018143083452931,0.0440308295905989));
#126=CARTESIAN_POINT('Origin',(-3.62861669058668E-18,0.0181430834529334,
0.));
#127=CARTESIAN_POINT('Origin',(0.25,3.,0.));
#128=CARTESIAN_POINT('',(-0.25,3.,-3.06161699786838E-17));
#129=CARTESIAN_POINT('Origin',(-6.E-16,3.,0.));
#130=CARTESIAN_POINT('Origin',(-3.25E-16,1.625,0.));
#131=CARTESIAN_POINT('',(-0.25,0.249999999999996,-3.06161699786838E-17));
#132=CARTESIAN_POINT('',(-8.0616169978683E-17,0.249999999999996,0.25));
#133=CARTESIAN_POINT('Origin',(-4.99999999999992E-17,0.249999999999996,
0.));
#134=CARTESIAN_POINT('',(-0.25,1.625,-3.06161699786838E-17));
#135=CARTESIAN_POINT('Origin',(-4.99999999999992E-17,0.249999999999996,
0.));
#136=CARTESIAN_POINT('Origin',(-4.99999999999992E-17,0.249999999999996,
0.));
#137=CARTESIAN_POINT('',(-6.95881171528374E-17,0.205969170409408,0.23185691654708));
#138=CARTESIAN_POINT('Origin',(-4.11938340818818E-17,0.205969170409408,
0.));
#139=CARTESIAN_POINT('Origin',(-7.29621274840121E-17,0.249999999999996,
0.1875));
#140=CARTESIAN_POINT('Ctrl Pts',(-4.11938340818827E-17,0.205969170409413,
0.231856916547085));
#141=CARTESIAN_POINT('Ctrl Pts',(-0.231856916547085,0.205969170409413,0.231856916547085));
#142=CARTESIAN_POINT('Ctrl Pts',(-0.231856916547085,0.205969170409412,-3.16181840025936E-31));
#143=CARTESIAN_POINT('Ctrl Pts',(-0.231856916547085,0.205969170409411,-0.231856916547085));
#144=CARTESIAN_POINT('Ctrl Pts',(-4.11938340818816E-17,0.205969170409411,
-0.231856916547085));
#145=CARTESIAN_POINT('Ctrl Pts',(0.231856916547085,0.205969170409411,-0.231856916547085));
#146=CARTESIAN_POINT('Ctrl Pts',(0.231856916547085,0.205969170409412,3.16181840025936E-31));
#147=CARTESIAN_POINT('Ctrl Pts',(0.231856916547085,0.205969170409413,0.231856916547085));
#148=CARTESIAN_POINT('Ctrl Pts',(-4.11938340818827E-17,0.205969170409413,
0.231856916547085));
#149=CARTESIAN_POINT('Ctrl Pts',(-2.23419311234805E-17,0.1117096556174,
0.138290344382614));
#150=CARTESIAN_POINT('Ctrl Pts',(-0.138290344382614,0.1117096556174,0.138290344382614));
#151=CARTESIAN_POINT('Ctrl Pts',(-0.138290344382614,0.1117096556174,-5.00208869189157E-31));
#152=CARTESIAN_POINT('Ctrl Pts',(-0.138290344382614,0.111709655617399,-0.138290344382614));
#153=CARTESIAN_POINT('Ctrl Pts',(-2.23419311234792E-17,0.111709655617399,
-0.138290344382614));
#154=CARTESIAN_POINT('Ctrl Pts',(0.138290344382614,0.111709655617399,-0.138290344382614));
#155=CARTESIAN_POINT('Ctrl Pts',(0.138290344382614,0.1117096556174,5.00208869189157E-31));
#156=CARTESIAN_POINT('Ctrl Pts',(0.138290344382614,0.1117096556174,0.138290344382614));
#157=CARTESIAN_POINT('Ctrl Pts',(-2.23419311234805E-17,0.1117096556174,
0.138290344382614));
#158=CARTESIAN_POINT('Ctrl Pts',(-3.6286166905848E-18,0.0181430834529227,
0.0440308295906022));
#159=CARTESIAN_POINT('Ctrl Pts',(-0.0440308295906022,0.0181430834529227,
0.0440308295906022));
#160=CARTESIAN_POINT('Ctrl Pts',(-0.0440308295906022,0.0181430834529253,
-4.37410808214142E-31));
#161=CARTESIAN_POINT('Ctrl Pts',(-0.0440308295906022,0.018143083452928,
-0.0440308295906022));
#162=CARTESIAN_POINT('Ctrl Pts',(-3.62861669058498E-18,0.018143083452928,
-0.0440308295906022));
#163=CARTESIAN_POINT('Ctrl Pts',(0.0440308295906022,0.018143083452928,-0.0440308295906022));
#164=CARTESIAN_POINT('Ctrl Pts',(0.0440308295906022,0.0181430834529254,
4.37410808214142E-31));
#165=CARTESIAN_POINT('Ctrl Pts',(0.0440308295906022,0.0181430834529227,
0.0440308295906022));
#166=CARTESIAN_POINT('Ctrl Pts',(-3.6286166905848E-18,0.0181430834529227,
0.0440308295906022));
#167=CARTESIAN_POINT('Origin',(-2.01301806790678E-15,25.5677270145795,-25.3177270145795));
#168=UNCERTAINTY_MEASURE_WITH_UNIT(LENGTH_MEASURE(0.000393700787401575),
#173,'DISTANCE_ACCURACY_VALUE',
'Maximum model space distance between geometric entities at asserted c
onnectivities');
#169=UNCERTAINTY_MEASURE_WITH_UNIT(LENGTH_MEASURE(0.000393700787401575),
#173,'DISTANCE_ACCURACY_VALUE',
'Maximum model space distance between geometric entities at asserted c
onnectivities');
#170=(
GEOMETRIC_REPRESENTATION_CONTEXT(3)
GLOBAL_UNCERTAINTY_ASSIGNED_CONTEXT((#168))
GLOBAL_UNIT_ASSIGNED_CONTEXT((#173,#177,#178))
REPRESENTATION_CONTEXT('','3D')
);
#171=(
GEOMETRIC_REPRESENTATION_CONTEXT(3)
GLOBAL_UNCERTAINTY_ASSIGNED_CONTEXT((#169))
GLOBAL_UNIT_ASSIGNED_CONTEXT((#173,#177,#178))
REPRESENTATION_CONTEXT('','3D')
);
#172=DIMENSIONAL_EXPONENTS(1.,0.,0.,0.,0.,0.,0.);
#173=(
CONVERSION_BASED_UNIT('inch',#176)
LENGTH_UNIT()
NAMED_UNIT(#172)
);
#174=(
LENGTH_UNIT()
NAMED_UNIT(*)
SI_UNIT(.MILLI.,.METRE.)
);
#175=(
LENGTH_UNIT()
NAMED_UNIT(*)
SI_UNIT($,.METRE.)
);
#176=LENGTH_MEASURE_WITH_UNIT(LENGTH_MEASURE(25.4),#174);
#177=(
NAMED_UNIT(*)
PLANE_ANGLE_UNIT()
SI_UNIT($,.RADIAN.)
);
#178=(
NAMED_UNIT(*)
SI_UNIT($,.STERADIAN.)
SOLID_ANGLE_UNIT()
);
#179=SHAPE_DEFINITION_REPRESENTATION(#180,#181);
#180=PRODUCT_DEFINITION_SHAPE('',$,#183);
#181=SHAPE_REPRESENTATION('',(#86),#170);
#182=PRODUCT_DEFINITION_CONTEXT('part definition',#187,'design');
#183=PRODUCT_DEFINITION('(Unsaved)','(Unsaved)',#184,#182);
#184=PRODUCT_DEFINITION_FORMATION('',$,#189);
#185=PRODUCT_RELATED_PRODUCT_CATEGORY('(Unsaved)','(Unsaved)',(#189));
#186=APPLICATION_PROTOCOL_DEFINITION('international standard',
'automotive_design',2009,#187);
#187=APPLICATION_CONTEXT(
'Core Data for Automotive Mechanical Design Process');
#188=PRODUCT_CONTEXT('part definition',#187,'mechanical');
#189=PRODUCT('(Unsaved)','(Unsaved)',$,(#188));
#190=PRESENTATION_STYLE_ASSIGNMENT((#191));
#191=SURFACE_STYLE_USAGE(.BOTH.,#192);
#192=SURFACE_SIDE_STYLE('',(#193));
#193=SURFACE_STYLE_FILL_AREA(#194);
#194=FILL_AREA_STYLE('Steel - Satin',(#195));
#195=FILL_AREA_STYLE_COLOUR('Steel - Satin',#196);
#196=COLOUR_RGB('Steel - Satin',0.627450980392157,0.627450980392157,0.627450980392157);
ENDSEC;
END-ISO-10303-21;
