ISO-10303-21;
HEADER;
FILE_DESCRIPTION (( 'STEP AP214' ),
    '1' );
FILE_NAME ('Micro_RSC-125-2.STEP',
    '2021-09-03T17:44:23',
    ( '' ),
    ( '' ),
    'SwSTEP 2.0',
    'SolidWorks 2020',
    '' );
FILE_SCHEMA (( 'AUTOMOTIVE_DESIGN' ));
ENDSEC;

DATA;
#1 = DIRECTION ( 'NONE',  ( -0.0000000000000000000, -0.0000000000000000000, -1.000000000000000000 ) ) ;
#2 = CARTESIAN_POINT ( 'NONE',  ( 0.003999999999999999216, 0.0000000000000000000, 2.000000000000000000 ) ) ;
#3 = ADVANCED_FACE ( 'NONE', ( #17 ), #208, .T. ) ;
#4 = DIRECTION ( 'NONE',  ( -1.000000000000000000, 0.0000000000000000000, 0.0000000000000000000 ) ) ;
#5 = CIRCLE ( 'NONE', #49, 0.003999999999999999216 ) ;
#6 =( GEOMETRIC_REPRESENTATION_CONTEXT ( 3 ) GLOBAL_UNCERTAINTY_ASSIGNED_CONTEXT ( ( #29 ) ) GLOBAL_UNIT_ASSIGNED_CONTEXT ( ( #103, #156, #131 ) ) REPRESENTATION_CONTEXT ( 'NONE', 'WORKASPACE' ) );
#7 = CARTESIAN_POINT ( 'NONE',  ( 0.0000000000000000000, 0.0000000000000000000, 0.1013249722427790322 ) ) ;
#8 = EDGE_CURVE ( 'NONE', #228, #193, #190, .T. ) ;
#9 = MECHANICAL_DESIGN_GEOMETRIC_PRESENTATION_REPRESENTATION (  '', ( #181 ), #37 ) ;
#10 = CARTESIAN_POINT ( 'NONE',  ( 0.0000000000000000000, 0.0000000000000000000, 2.000000000000000000 ) ) ;
#11 = VERTEX_POINT ( 'NONE', #77 ) ;
#12 = ADVANCED_FACE ( 'NONE', ( #177 ), #31, .T. ) ;
#13 = CARTESIAN_POINT ( 'NONE',  ( 0.0000000000000000000, 0.0000000000000000000, 0.0000000000000000000 ) ) ;
#14 = CARTESIAN_POINT ( 'NONE',  ( 0.0000000000000000000, 0.0000000000000000000, 0.0000000000000000000 ) ) ;
#15 = LENGTH_MEASURE_WITH_UNIT ( LENGTH_MEASURE( 0.02539999999999999897 ), #172 );
#16 = PRODUCT ( 'Micro_RSC-125-2', 'Micro_RSC-125-2', '', ( #212 ) ) ;
#17 = FACE_OUTER_BOUND ( 'NONE', #61, .T. ) ;
#18 = APPLICATION_PROTOCOL_DEFINITION ( 'draft international standard', 'automotive_design', 1998, #65 ) ;
#19 = AXIS2_PLACEMENT_3D ( 'NONE', #166, #1, #233 ) ;
#20 = PRESENTATION_LAYER_ASSIGNMENT (  '', '', ( #70 ) ) ;
#21 =( NAMED_UNIT ( * ) PLANE_ANGLE_UNIT ( ) SI_UNIT ( $, .RADIAN. ) );
#22 = EDGE_LOOP ( 'NONE', ( #178, #179 ) ) ;
#23 = SURFACE_SIDE_STYLE ('',( #108 ) ) ;
#24 = LENGTH_MEASURE_WITH_UNIT ( LENGTH_MEASURE( 0.02539999999999999897 ), #164 );
#25 = AXIS2_PLACEMENT_3D ( 'NONE', #13, #57, #95 ) ;
#26 = EDGE_CURVE ( 'NONE', #245, #11, #248, .T. ) ;
#27 = DIRECTION ( 'NONE',  ( 1.000000000000000000, 0.0000000000000000000, -0.0000000000000000000 ) ) ;
#28 = DIRECTION ( 'NONE',  ( -0.0000000000000000000, -0.0000000000000000000, -1.000000000000000000 ) ) ;
#29 = UNCERTAINTY_MEASURE_WITH_UNIT (LENGTH_MEASURE( 1.000000000000000082E-05 ), #103, 'distance_accuracy_value', 'NONE');
#30 = DIRECTION ( 'NONE',  ( 0.0000000000000000000, 0.0000000000000000000, -1.000000000000000000 ) ) ;
#31 = CONICAL_SURFACE ( 'NONE', #152, 0.003999999999999999216, 0.5235987755983000369 ) ;
#32 = COLOUR_RGB ( '',0.7921568627450980005, 0.8196078431372548767, 0.9333333333333333481 ) ;
#33 = PRESENTATION_STYLE_ASSIGNMENT (( #205 ) ) ;
#34 = ORIENTED_EDGE ( 'NONE', *, *, #124, .T. ) ;
#35 =( CONVERSION_BASED_UNIT ( 'INCH', #15 ) LENGTH_UNIT ( ) NAMED_UNIT ( #50 ) );
#36 = VECTOR ( 'NONE', #28, 39.37007874015748143 ) ;
#37 =( GEOMETRIC_REPRESENTATION_CONTEXT ( 3 ) GLOBAL_UNCERTAINTY_ASSIGNED_CONTEXT ( ( #107 ) ) GLOBAL_UNIT_ASSIGNED_CONTEXT ( ( #192, #21, #141 ) ) REPRESENTATION_CONTEXT ( 'NONE', 'WORKASPACE' ) );
#38 = EDGE_LOOP ( 'NONE', ( #117, #239, #229, #62 ) ) ;
#39 = ORIENTED_EDGE ( 'NONE', *, *, #246, .F. ) ;
#40 = ADVANCED_FACE ( 'NONE', ( #199 ), #200, .T. ) ;
#41 = ORIENTED_EDGE ( 'NONE', *, *, #55, .T. ) ;
#42 = CARTESIAN_POINT ( 'NONE',  ( 0.0000000000000000000, 0.0000000000000000000, 0.0000000000000000000 ) ) ;
#43 = CARTESIAN_POINT ( 'NONE',  ( -0.06249999999999997918, 0.0000000000000000000, 2.000000000000000000 ) ) ;
#44 = DIRECTION ( 'NONE',  ( 0.0000000000000000000, 0.0000000000000000000, -1.000000000000000000 ) ) ;
#45 = DIRECTION ( 'NONE',  ( 0.5000000000000009992, 0.0000000000000000000, -0.8660254037844380415 ) ) ;
#46 = CARTESIAN_POINT ( 'NONE',  ( -0.06249999999999997918, 0.0000000000000000000, 0.1013249722427790322 ) ) ;
#47 = FILL_AREA_STYLE_COLOUR ( '', #139 ) ;
#48 = CARTESIAN_POINT ( 'NONE',  ( 0.06249999999999997918, 7.654042494670956004E-18, 0.1013249722427790322 ) ) ;
#49 = AXIS2_PLACEMENT_3D ( 'NONE', #217, #197, #232 ) ;
#50 = DIMENSIONAL_EXPONENTS ( 1.000000000000000000, 0.0000000000000000000, 0.0000000000000000000, 0.0000000000000000000, 0.0000000000000000000, 0.0000000000000000000, 0.0000000000000000000 ) ;
#51 = CARTESIAN_POINT ( 'NONE',  ( -0.003999999999999999216, 4.071950607164948101E-18, 0.0000000000000000000 ) ) ;
#52 = PRODUCT_DEFINITION_FORMATION_WITH_SPECIFIED_SOURCE ( 'ANY', '', #16, .NOT_KNOWN. ) ;
#53 = DIMENSIONAL_EXPONENTS ( 1.000000000000000000, 0.0000000000000000000, 0.0000000000000000000, 0.0000000000000000000, 0.0000000000000000000, 0.0000000000000000000, 0.0000000000000000000 ) ;
#54 = SURFACE_STYLE_FILL_AREA ( #75 ) ;
#55 = EDGE_CURVE ( 'NONE', #159, #228, #99, .T. ) ;
#56 = EDGE_LOOP ( 'NONE', ( #39, #101, #34, #241 ) ) ;
#57 = DIRECTION ( 'NONE',  ( 0.0000000000000000000, 0.0000000000000000000, 1.000000000000000000 ) ) ;
#58 = ORIENTED_EDGE ( 'NONE', *, *, #59, .T. ) ;
#59 = EDGE_CURVE ( 'NONE', #81, #140, #5, .T. ) ;
#60 = DIRECTION ( 'NONE',  ( 0.0000000000000000000, 0.0000000000000000000, 1.000000000000000000 ) ) ;
#61 = EDGE_LOOP ( 'NONE', ( #210, #123, #121, #213 ) ) ;
#62 = ORIENTED_EDGE ( 'NONE', *, *, #124, .F. ) ;
#63 = VECTOR ( 'NONE', #173, 39.37007874015748143 ) ;
#64 = CARTESIAN_POINT ( 'NONE',  ( 0.003999999999999999216, 0.0000000000000000000, 2.000000000000000000 ) ) ;
#65 = APPLICATION_CONTEXT ( 'automotive_design' ) ;
#66 = DIRECTION ( 'NONE',  ( 1.000000000000000000, 0.0000000000000000000, -0.0000000000000000000 ) ) ;
#67 = UNCERTAINTY_MEASURE_WITH_UNIT (LENGTH_MEASURE( 1.000000000000000082E-05 ), #35, 'distance_accuracy_value', 'NONE');
#68 = DIRECTION ( 'NONE',  ( 1.000000000000000000, 0.0000000000000000000, 0.0000000000000000000 ) ) ;
#69 = AXIS2_PLACEMENT_3D ( 'NONE', #87, #129, #150 ) ;
#70 = STYLED_ITEM ( 'NONE', ( #216 ), #174 ) ;
#71 = CARTESIAN_POINT ( 'NONE',  ( 0.0000000000000000000, 0.0000000000000000000, 2.000000000000000000 ) ) ;
#72 = ADVANCED_FACE ( 'NONE', ( #149 ), #247, .F. ) ;
#73 = APPLICATION_CONTEXT ( 'automotive_design' ) ;
#74 = CONICAL_SURFACE ( 'NONE', #194, 0.003999999999999999216, 0.5235987755983000369 ) ;
#75 = FILL_AREA_STYLE ('',( #238 ) ) ;
#76 = EDGE_CURVE ( 'NONE', #81, #228, #145, .T. ) ;
#77 = CARTESIAN_POINT ( 'NONE',  ( 0.003999999999999999216, 0.0000000000000000000, 0.0000000000000000000 ) ) ;
#78 = DIRECTION ( 'NONE',  ( -1.000000000000000000, 0.0000000000000000000, 0.0000000000000000000 ) ) ;
#79 = EDGE_LOOP ( 'NONE', ( #161, #120, #195, #98 ) ) ;
#80 = ORIENTED_EDGE ( 'NONE', *, *, #227, .T. ) ;
#81 = VERTEX_POINT ( 'NONE', #2 ) ;
#82 = SHAPE_DEFINITION_REPRESENTATION ( #183, #125 ) ;
#83 = CARTESIAN_POINT ( 'NONE',  ( 0.06249999999999997918, 7.654042494670956004E-18, 2.000000000000000000 ) ) ;
#84 = VECTOR ( 'NONE', #218, 39.37007874015748143 ) ;
#85 = LINE ( 'NONE', #43, #36 ) ;
#86 = CARTESIAN_POINT ( 'NONE',  ( 0.0000000000000000000, 0.0000000000000000000, 1.898675027757220857 ) ) ;
#87 = CARTESIAN_POINT ( 'NONE',  ( 0.0000000000000000000, 0.0000000000000000000, 0.0000000000000000000 ) ) ;
#88 = DIRECTION ( 'NONE',  ( -0.0000000000000000000, -0.0000000000000000000, -1.000000000000000000 ) ) ;
#89 = AXIS2_PLACEMENT_3D ( 'NONE', #86, #44, #180 ) ;
#90 = CONICAL_SURFACE ( 'NONE', #25, 0.003999999999999999216, 0.5235987755983000369 ) ;
#91 = CARTESIAN_POINT ( 'NONE',  ( 0.06249999999999997918, 7.654042494670956004E-18, 1.898675027757220857 ) ) ;
#92 = VECTOR ( 'NONE', #163, 39.37007874015748143 ) ;
#93 = LINE ( 'NONE', #206, #153 ) ;
#94 = ORIENTED_EDGE ( 'NONE', *, *, #185, .F. ) ;
#95 = DIRECTION ( 'NONE',  ( 1.000000000000000000, 0.0000000000000000000, 0.0000000000000000000 ) ) ;
#96 = DIRECTION ( 'NONE',  ( 1.000000000000000000, 0.0000000000000000000, 0.0000000000000000000 ) ) ;
#97 = DIRECTION ( 'NONE',  ( -0.0000000000000000000, -0.0000000000000000000, -1.000000000000000000 ) ) ;
#98 = ORIENTED_EDGE ( 'NONE', *, *, #114, .F. ) ;
#99 = CIRCLE ( 'NONE', #89, 0.06249999999999997918 ) ;
#100 = AXIS2_PLACEMENT_3D ( 'NONE', #7, #105, #184 ) ;
#101 = ORIENTED_EDGE ( 'NONE', *, *, #220, .F. ) ;
#102 = CARTESIAN_POINT ( 'NONE',  ( 0.0000000000000000000, 0.0000000000000000000, 2.000000000000000000 ) ) ;
#103 =( CONVERSION_BASED_UNIT ( 'INCH', #24 ) LENGTH_UNIT ( ) NAMED_UNIT ( #53 ) );
#104 = PRESENTATION_LAYER_ASSIGNMENT (  '', '', ( #181 ) ) ;
#105 = DIRECTION ( 'NONE',  ( -0.0000000000000000000, -0.0000000000000000000, -1.000000000000000000 ) ) ;
#106 = CARTESIAN_POINT ( 'NONE',  ( -0.003999999999999999216, -4.071950607164948101E-18, 2.000000000000000000 ) ) ;
#107 = UNCERTAINTY_MEASURE_WITH_UNIT (LENGTH_MEASURE( 1.000000000000000082E-05 ), #192, 'distance_accuracy_value', 'NONE');
#108 = SURFACE_STYLE_FILL_AREA ( #130 ) ;
#109 = PRODUCT_RELATED_PRODUCT_CATEGORY ( 'part', '', ( #16 ) ) ;
#110 = AXIS2_PLACEMENT_3D ( 'NONE', #142, #226, #211 ) ;
#111 = CIRCLE ( 'NONE', #242, 0.003999999999999999216 ) ;
#112 = CARTESIAN_POINT ( 'NONE',  ( -0.003999999999999999216, -4.898587196589411612E-19, 2.000000000000000000 ) ) ;
#113 = APPLICATION_PROTOCOL_DEFINITION ( 'draft international standard', 'automotive_design', 1998, #73 ) ;
#114 = EDGE_CURVE ( 'NONE', #193, #137, #132, .T. ) ;
#115 = AXIS2_PLACEMENT_3D ( 'NONE', #102, #88, #4 ) ;
#116 = CARTESIAN_POINT ( 'NONE',  ( 0.0000000000000000000, 0.0000000000000000000, 0.0000000000000000000 ) ) ;
#117 = ORIENTED_EDGE ( 'NONE', *, *, #26, .F. ) ;
#118 = ADVANCED_FACE ( 'NONE', ( #214 ), #74, .T. ) ;
#119 =( NAMED_UNIT ( * ) PLANE_ANGLE_UNIT ( ) SI_UNIT ( $, .RADIAN. ) );
#120 = ORIENTED_EDGE ( 'NONE', *, *, #201, .T. ) ;
#121 = ORIENTED_EDGE ( 'NONE', *, *, #76, .T. ) ;
#122 =( LENGTH_UNIT ( ) NAMED_UNIT ( * ) SI_UNIT ( $, .METRE. ) );
#123 = ORIENTED_EDGE ( 'NONE', *, *, #185, .T. ) ;
#124 = EDGE_CURVE ( 'NONE', #11, #193, #148, .T. ) ;
#125 = ADVANCED_BREP_SHAPE_REPRESENTATION ( 'Micro_RSC-125-2', ( #174, #169 ), #160 ) ;
#126 = CARTESIAN_POINT ( 'NONE',  ( 0.0000000000000000000, 0.0000000000000000000, 2.000000000000000000 ) ) ;
#127 = CARTESIAN_POINT ( 'NONE',  ( 0.003999999999999999216, 0.0000000000000000000, 0.0000000000000000000 ) ) ;
#128 = CIRCLE ( 'NONE', #209, 0.06249999999999997918 ) ;
#129 = DIRECTION ( 'NONE',  ( -0.0000000000000000000, -0.0000000000000000000, -1.000000000000000000 ) ) ;
#130 = FILL_AREA_STYLE ('',( #47 ) ) ;
#131 =( NAMED_UNIT ( * ) SI_UNIT ( $, .STERADIAN. ) SOLID_ANGLE_UNIT ( ) );
#132 = CIRCLE ( 'NONE', #19, 0.06249999999999997918 ) ;
#133 = AXIS2_PLACEMENT_3D ( 'NONE', #116, #97, #151 ) ;
#134 = ADVANCED_FACE ( 'NONE', ( #198 ), #219, .T. ) ;
#135 = SURFACE_SIDE_STYLE ('',( #54 ) ) ;
#136 = FACE_OUTER_BOUND ( 'NONE', #56, .T. ) ;
#137 = VERTEX_POINT ( 'NONE', #46 ) ;
#138 = PRODUCT_DEFINITION ( 'UNKNOWN', '', #52, #147 ) ;
#139 = COLOUR_RGB ( '',0.7921568627450980005, 0.8196078431372548767, 0.9333333333333333481 ) ;
#140 = VERTEX_POINT ( 'NONE', #106 ) ;
#141 =( NAMED_UNIT ( * ) SI_UNIT ( $, .STERADIAN. ) SOLID_ANGLE_UNIT ( ) );
#142 = CARTESIAN_POINT ( 'NONE',  ( 0.0000000000000000000, 0.0000000000000000000, 2.000000000000000000 ) ) ;
#143 = DIRECTION ( 'NONE',  ( 1.000000000000000000, 0.0000000000000000000, 0.0000000000000000000 ) ) ;
#144 = ORIENTED_EDGE ( 'NONE', *, *, #201, .F. ) ;
#145 = LINE ( 'NONE', #64, #234 ) ;
#146 = SURFACE_STYLE_USAGE ( .BOTH. , #23 ) ;
#147 = PRODUCT_DEFINITION_CONTEXT ( 'detailed design', #65, 'design' ) ;
#148 = LINE ( 'NONE', #127, #84 ) ;
#149 = FACE_OUTER_BOUND ( 'NONE', #22, .T. ) ;
#150 = DIRECTION ( 'NONE',  ( -1.000000000000000000, 0.0000000000000000000, 0.0000000000000000000 ) ) ;
#151 = DIRECTION ( 'NONE',  ( -1.000000000000000000, 0.0000000000000000000, 0.0000000000000000000 ) ) ;
#152 = AXIS2_PLACEMENT_3D ( 'NONE', #14, #158, #96 ) ;
#153 = VECTOR ( 'NONE', #223, 39.37007874015748143 ) ;
#154 = EDGE_CURVE ( 'NONE', #159, #137, #85, .T. ) ;
#155 = DIRECTION ( 'NONE',  ( -1.000000000000000000, 0.0000000000000000000, 0.0000000000000000000 ) ) ;
#156 =( NAMED_UNIT ( * ) PLANE_ANGLE_UNIT ( ) SI_UNIT ( $, .RADIAN. ) );
#157 = DIRECTION ( 'NONE',  ( -0.0000000000000000000, -0.0000000000000000000, -1.000000000000000000 ) ) ;
#158 = DIRECTION ( 'NONE',  ( 0.0000000000000000000, 0.0000000000000000000, 1.000000000000000000 ) ) ;
#159 = VERTEX_POINT ( 'NONE', #196 ) ;
#160 =( GEOMETRIC_REPRESENTATION_CONTEXT ( 3 ) GLOBAL_UNCERTAINTY_ASSIGNED_CONTEXT ( ( #67 ) ) GLOBAL_UNIT_ASSIGNED_CONTEXT ( ( #35, #119, #176 ) ) REPRESENTATION_CONTEXT ( 'NONE', 'WORKASPACE' ) );
#161 = ORIENTED_EDGE ( 'NONE', *, *, #8, .F. ) ;
#162 = EDGE_LOOP ( 'NONE', ( #41, #188, #244, #207 ) ) ;
#163 = DIRECTION ( 'NONE',  ( -0.0000000000000000000, -0.0000000000000000000, -1.000000000000000000 ) ) ;
#164 =( LENGTH_UNIT ( ) NAMED_UNIT ( * ) SI_UNIT ( $, .METRE. ) );
#165 = DIRECTION ( 'NONE',  ( 0.0000000000000000000, 0.0000000000000000000, 1.000000000000000000 ) ) ;
#166 = CARTESIAN_POINT ( 'NONE',  ( 0.0000000000000000000, 0.0000000000000000000, 0.1013249722427790322 ) ) ;
#167 = CLOSED_SHELL ( 'NONE', ( #118, #12, #134, #204, #215, #72, #3, #40 ) ) ;
#168 = DIRECTION ( 'NONE',  ( 0.0000000000000000000, 0.0000000000000000000, -1.000000000000000000 ) ) ;
#169 = AXIS2_PLACEMENT_3D ( 'NONE', #42, #60, #143 ) ;
#170 = CARTESIAN_POINT ( 'NONE',  ( 0.0000000000000000000, 0.0000000000000000000, 0.0000000000000000000 ) ) ;
#171 = EDGE_CURVE ( 'NONE', #137, #193, #203, .T. ) ;
#172 =( LENGTH_UNIT ( ) NAMED_UNIT ( * ) SI_UNIT ( $, .METRE. ) );
#173 = DIRECTION ( 'NONE',  ( -0.5000000000000009992, -6.123233995736778362E-17, -0.8660254037844380415 ) ) ;
#174 = MANIFOLD_SOLID_BREP ( 'Mirror1', #167 ) ;
#175 = EDGE_LOOP ( 'NONE', ( #224, #94 ) ) ;
#176 =( NAMED_UNIT ( * ) SI_UNIT ( $, .STERADIAN. ) SOLID_ANGLE_UNIT ( ) );
#177 = FACE_OUTER_BOUND ( 'NONE', #38, .T. ) ;
#178 = ORIENTED_EDGE ( 'NONE', *, *, #220, .T. ) ;
#179 = ORIENTED_EDGE ( 'NONE', *, *, #26, .T. ) ;
#180 = DIRECTION ( 'NONE',  ( -1.000000000000000000, 0.0000000000000000000, 0.0000000000000000000 ) ) ;
#181 = STYLED_ITEM ( 'NONE', ( #33 ), #125 ) ;
#182 = DIRECTION ( 'NONE',  ( 0.0000000000000000000, 0.0000000000000000000, 1.000000000000000000 ) ) ;
#183 = PRODUCT_DEFINITION_SHAPE ( 'NONE', 'NONE',  #138 ) ;
#184 = DIRECTION ( 'NONE',  ( -1.000000000000000000, 0.0000000000000000000, 0.0000000000000000000 ) ) ;
#185 = EDGE_CURVE ( 'NONE', #140, #81, #111, .T. ) ;
#186 = CYLINDRICAL_SURFACE ( 'NONE', #235, 0.06249999999999997918 ) ;
#187 = DIRECTION ( 'NONE',  ( -1.000000000000000000, 0.0000000000000000000, 0.0000000000000000000 ) ) ;
#188 = ORIENTED_EDGE ( 'NONE', *, *, #8, .T. ) ;
#189 = DIRECTION ( 'NONE',  ( 0.0000000000000000000, 0.0000000000000000000, -1.000000000000000000 ) ) ;
#190 = LINE ( 'NONE', #83, #92 ) ;
#191 = ORIENTED_EDGE ( 'NONE', *, *, #76, .F. ) ;
#192 =( CONVERSION_BASED_UNIT ( 'INCH', #243 ) LENGTH_UNIT ( ) NAMED_UNIT ( #221 ) );
#193 = VERTEX_POINT ( 'NONE', #48 ) ;
#194 = AXIS2_PLACEMENT_3D ( 'NONE', #126, #168, #68 ) ;
#195 = ORIENTED_EDGE ( 'NONE', *, *, #154, .T. ) ;
#196 = CARTESIAN_POINT ( 'NONE',  ( -0.06249999999999997918, 0.0000000000000000000, 1.898675027757220857 ) ) ;
#197 = DIRECTION ( 'NONE',  ( 0.0000000000000000000, 0.0000000000000000000, -1.000000000000000000 ) ) ;
#198 = FACE_OUTER_BOUND ( 'NONE', #162, .T. ) ;
#199 = FACE_OUTER_BOUND ( 'NONE', #175, .T. ) ;
#200 = PLANE ( 'NONE',  #202 ) ;
#201 = EDGE_CURVE ( 'NONE', #228, #159, #128, .T. ) ;
#202 = AXIS2_PLACEMENT_3D ( 'NONE', #236, #182, #27 ) ;
#203 = CIRCLE ( 'NONE', #100, 0.06249999999999997918 ) ;
#204 = ADVANCED_FACE ( 'NONE', ( #222 ), #186, .T. ) ;
#205 = SURFACE_STYLE_USAGE ( .BOTH. , #135 ) ;
#206 = CARTESIAN_POINT ( 'NONE',  ( -0.003999999999999999216, 4.898587196589411612E-19, 0.0000000000000000000 ) ) ;
#207 = ORIENTED_EDGE ( 'NONE', *, *, #154, .F. ) ;
#208 = CONICAL_SURFACE ( 'NONE', #110, 0.003999999999999999216, 0.5235987755983000369 ) ;
#209 = AXIS2_PLACEMENT_3D ( 'NONE', #225, #189, #78 ) ;
#210 = ORIENTED_EDGE ( 'NONE', *, *, #227, .F. ) ;
#211 = DIRECTION ( 'NONE',  ( 1.000000000000000000, 0.0000000000000000000, 0.0000000000000000000 ) ) ;
#212 = PRODUCT_CONTEXT ( 'NONE', #73, 'mechanical' ) ;
#213 = ORIENTED_EDGE ( 'NONE', *, *, #55, .F. ) ;
#214 = FACE_OUTER_BOUND ( 'NONE', #230, .T. ) ;
#215 = ADVANCED_FACE ( 'NONE', ( #136 ), #90, .T. ) ;
#216 = PRESENTATION_STYLE_ASSIGNMENT (( #146 ) ) ;
#217 = CARTESIAN_POINT ( 'NONE',  ( 0.0000000000000000000, 0.0000000000000000000, 2.000000000000000000 ) ) ;
#218 = DIRECTION ( 'NONE',  ( 0.5000000000000009992, 0.0000000000000000000, 0.8660254037844380415 ) ) ;
#219 = CYLINDRICAL_SURFACE ( 'NONE', #115, 0.06249999999999997918 ) ;
#220 = EDGE_CURVE ( 'NONE', #11, #245, #237, .T. ) ;
#221 = DIMENSIONAL_EXPONENTS ( 1.000000000000000000, 0.0000000000000000000, 0.0000000000000000000, 0.0000000000000000000, 0.0000000000000000000, 0.0000000000000000000, 0.0000000000000000000 ) ;
#222 = FACE_OUTER_BOUND ( 'NONE', #79, .T. ) ;
#223 = DIRECTION ( 'NONE',  ( -0.5000000000000009992, 6.123233995736778362E-17, 0.8660254037844380415 ) ) ;
#224 = ORIENTED_EDGE ( 'NONE', *, *, #59, .F. ) ;
#225 = CARTESIAN_POINT ( 'NONE',  ( 0.0000000000000000000, 0.0000000000000000000, 1.898675027757220857 ) ) ;
#226 = DIRECTION ( 'NONE',  ( 0.0000000000000000000, 0.0000000000000000000, -1.000000000000000000 ) ) ;
#227 = EDGE_CURVE ( 'NONE', #140, #159, #240, .T. ) ;
#228 = VERTEX_POINT ( 'NONE', #91 ) ;
#229 = ORIENTED_EDGE ( 'NONE', *, *, #171, .T. ) ;
#230 = EDGE_LOOP ( 'NONE', ( #58, #80, #144, #191 ) ) ;
#231 = AXIS2_PLACEMENT_3D ( 'NONE', #170, #165, #66 ) ;
#232 = DIRECTION ( 'NONE',  ( -1.000000000000000000, 0.0000000000000000000, 0.0000000000000000000 ) ) ;
#233 = DIRECTION ( 'NONE',  ( -1.000000000000000000, 0.0000000000000000000, 0.0000000000000000000 ) ) ;
#234 = VECTOR ( 'NONE', #45, 39.37007874015748143 ) ;
#235 = AXIS2_PLACEMENT_3D ( 'NONE', #10, #157, #187 ) ;
#236 = CARTESIAN_POINT ( 'NONE',  ( 0.0000000000000000000, 0.0000000000000000000, 2.000000000000000000 ) ) ;
#237 = CIRCLE ( 'NONE', #133, 0.003999999999999999216 ) ;
#238 = FILL_AREA_STYLE_COLOUR ( '', #32 ) ;
#239 = ORIENTED_EDGE ( 'NONE', *, *, #246, .T. ) ;
#240 = LINE ( 'NONE', #112, #63 ) ;
#241 = ORIENTED_EDGE ( 'NONE', *, *, #114, .T. ) ;
#242 = AXIS2_PLACEMENT_3D ( 'NONE', #71, #30, #155 ) ;
#243 = LENGTH_MEASURE_WITH_UNIT ( LENGTH_MEASURE( 0.02539999999999999897 ), #122 );
#244 = ORIENTED_EDGE ( 'NONE', *, *, #171, .F. ) ;
#245 = VERTEX_POINT ( 'NONE', #51 ) ;
#246 = EDGE_CURVE ( 'NONE', #245, #137, #93, .T. ) ;
#247 = PLANE ( 'NONE',  #231 ) ;
#248 = CIRCLE ( 'NONE', #69, 0.003999999999999999216 ) ;
#249 = MECHANICAL_DESIGN_GEOMETRIC_PRESENTATION_REPRESENTATION (  '', ( #70 ), #6 ) ;
ENDSEC;
END-ISO-10303-21;
