ISO-10303-21;
HEADER;
FILE_DESCRIPTION (( 'STEP AP214' ),
    '1' );
FILE_NAME ('59673.STEP',
    '2023-07-24T15:52:34',
    ( '' ),
    ( '' ),
    'SwSTEP 2.0',
    'SolidWorks 2023',
    '' );
FILE_SCHEMA (( 'AUTOMOTIVE_DESIGN' ));
ENDSEC;

DATA;
#1 = FILL_AREA_STYLE ('',( #131 ) ) ;
#2 = DIRECTION ( 'NONE',  ( 0.000000000000000000, 0.000000000000000000, -1.000000000000000000 ) ) ;
#3 = FILL_AREA_STYLE_COLOUR ( '', #171 ) ;
#4 = FACE_OUTER_BOUND ( 'NONE', #187, .T. ) ;
#5 = FILL_AREA_STYLE ('',( #3 ) ) ;
#6 = ORIENTED_EDGE ( 'NONE', *, *, #193, .T. ) ;
#7 = EDGE_CURVE ( 'NONE', #162, #95, #176, .T. ) ;
#8 = CLOSED_SHELL ( 'NONE', ( #265, #218, #197, #242 ) ) ;
#9 = DIRECTION ( 'NONE',  ( 1.360718665719280903E-16, 1.000000000000000000, -0.000000000000000000 ) ) ;
#10 = PRESENTATION_LAYER_ASSIGNMENT (  '', '', ( #126 ) ) ;
#11 = DIRECTION ( 'NONE',  ( -1.000000000000000000, 0.000000000000000000, 0.000000000000000000 ) ) ;
#12 = CYLINDRICAL_SURFACE ( 'NONE', #250, 6.000000000000000000 ) ;
#13 = ORIENTED_EDGE ( 'NONE', *, *, #211, .T. ) ;
#14 = CIRCLE ( 'NONE', #161, 5.999999999999993783 ) ;
#15 =( GEOMETRIC_REPRESENTATION_CONTEXT ( 3 ) GLOBAL_UNCERTAINTY_ASSIGNED_CONTEXT ( ( #226 ) ) GLOBAL_UNIT_ASSIGNED_CONTEXT ( ( #71, #117, #255 ) ) REPRESENTATION_CONTEXT ( 'NONE', 'WORKASPACE' ) );
#16 =( NAMED_UNIT ( * ) PLANE_ANGLE_UNIT ( ) SI_UNIT ( $, .RADIAN. ) );
#17 = AXIS2_PLACEMENT_3D ( 'NONE', #99, #58, #103 ) ;
#18 = PLANE ( 'NONE',  #61 ) ;
#19 = CARTESIAN_POINT ( 'NONE',  ( 0.000000000000000000, 0.000000000000000000, 0.000000000000000000 ) ) ;
#20 =( NAMED_UNIT ( * ) PLANE_ANGLE_UNIT ( ) SI_UNIT ( $, .RADIAN. ) );
#21 = AXIS2_PLACEMENT_3D ( 'NONE', #183, #31, #28 ) ;
#22 = DIRECTION ( 'NONE',  ( 0.000000000000000000, -1.000000000000000000, -0.000000000000000000 ) ) ;
#23 = EDGE_CURVE ( 'NONE', #100, #135, #254, .T. ) ;
#24 = VECTOR ( 'NONE', #256, 1000.000000000000000 ) ;
#25 = MANIFOLD_SOLID_BREP ( 'Revolve - Tool Body (Straight Shanked)', #129 ) ;
#26 = EDGE_CURVE ( 'NONE', #95, #162, #47, .T. ) ;
#27 = VERTEX_POINT ( 'NONE', #184 ) ;
#28 = DIRECTION ( 'NONE',  ( 0.000000000000000000, 0.000000000000000000, -1.000000000000000000 ) ) ;
#29 = LINE ( 'NONE', #52, #24 ) ;
#30 = EDGE_LOOP ( 'NONE', ( #6, #37 ) ) ;
#31 = DIRECTION ( 'NONE',  ( -0.000000000000000000, -1.000000000000000000, -0.000000000000000000 ) ) ;
#32 = FACE_OUTER_BOUND ( 'NONE', #30, .T. ) ;
#33 = CIRCLE ( 'NONE', #201, 6.000000000000000000 ) ;
#34 = AXIS2_PLACEMENT_3D ( 'NONE', #155, #200, #266 ) ;
#35 = CARTESIAN_POINT ( 'NONE',  ( -5.999999999999990230, 75.00000000000000000, 0.000000000000000000 ) ) ;
#36 = DIRECTION ( 'NONE',  ( -1.000000000000000000, 0.000000000000000000, 0.000000000000000000 ) ) ;
#37 = ORIENTED_EDGE ( 'NONE', *, *, #75, .T. ) ;
#38 = PRESENTATION_STYLE_ASSIGNMENT (( #278 ) ) ;
#39 = CARTESIAN_POINT ( 'NONE',  ( 6.000000000000000000, 30.00000000000000000, 7.347880794884117764E-16 ) ) ;
#40 = CIRCLE ( 'NONE', #43, 6.000000000000000000 ) ;
#41 = PRODUCT_DEFINITION_SHAPE ( 'NONE', 'NONE',  #158 ) ;
#42 = EDGE_CURVE ( 'NONE', #51, #162, #276, .T. ) ;
#43 = AXIS2_PLACEMENT_3D ( 'NONE', #151, #127, #219 ) ;
#44 = DIRECTION ( 'NONE',  ( 0.000000000000000000, 1.000000000000000000, 0.000000000000000000 ) ) ;
#45 = SURFACE_SIDE_STYLE ('',( #159 ) ) ;
#46 =( NAMED_UNIT ( * ) SI_UNIT ( $, .STERADIAN. ) SOLID_ANGLE_UNIT ( ) );
#47 = CIRCLE ( 'NONE', #86, 6.000000000000000000 ) ;
#48 =( NAMED_UNIT ( * ) SI_UNIT ( $, .STERADIAN. ) SOLID_ANGLE_UNIT ( ) );
#49 = CARTESIAN_POINT ( 'NONE',  ( -7.703719777548943412E-31, 30.00000000000000000, 0.000000000000000000 ) ) ;
#50 = DIRECTION ( 'NONE',  ( 0.000000000000000000, 0.000000000000000000, -1.000000000000000000 ) ) ;
#51 = VERTEX_POINT ( 'NONE', #212 ) ;
#52 = CARTESIAN_POINT ( 'NONE',  ( 7.347880794884119736E-16, 0.000000000000000000, 6.000000000000000000 ) ) ;
#53 = EDGE_LOOP ( 'NONE', ( #81, #120 ) ) ;
#54 = PRODUCT_CONTEXT ( 'NONE', #179, 'mechanical' ) ;
#55 = COLOUR_RGB ( '',1.000000000000000000, 0.000000000000000000, 0.000000000000000000 ) ;
#56 = FILL_AREA_STYLE ('',( #141 ) ) ;
#57 = PLANE ( 'NONE',  #17 ) ;
#58 = DIRECTION ( 'NONE',  ( -1.360718665719280903E-16, -1.000000000000000000, 0.000000000000000000 ) ) ;
#59 = UNCERTAINTY_MEASURE_WITH_UNIT (LENGTH_MEASURE( 1.000000000000000082E-05 ), #195, 'distance_accuracy_value', 'NONE');
#60 = EDGE_CURVE ( 'NONE', #72, #100, #33, .T. ) ;
#61 = AXIS2_PLACEMENT_3D ( 'NONE', #154, #44, #243 ) ;
#62 = SURFACE_STYLE_FILL_AREA ( #84 ) ;
#63 =( GEOMETRIC_REPRESENTATION_CONTEXT ( 3 ) GLOBAL_UNCERTAINTY_ASSIGNED_CONTEXT ( ( #261 ) ) GLOBAL_UNIT_ASSIGNED_CONTEXT ( ( #157, #225, #48 ) ) REPRESENTATION_CONTEXT ( 'NONE', 'WORKASPACE' ) );
#64 = PRODUCT_DEFINITION_FORMATION_WITH_SPECIFIED_SOURCE ( 'ANY', '', #122, .NOT_KNOWN. ) ;
#65 = PRESENTATION_STYLE_ASSIGNMENT (( #112 ) ) ;
#66 = SURFACE_STYLE_FILL_AREA ( #1 ) ;
#67 = UNCERTAINTY_MEASURE_WITH_UNIT (LENGTH_MEASURE( 1.000000000000000082E-05 ), #202, 'distance_accuracy_value', 'NONE');
#68 = PRESENTATION_LAYER_ASSIGNMENT (  '', '', ( #285 ) ) ;
#69 = FACE_OUTER_BOUND ( 'NONE', #113, .T. ) ;
#70 = AXIS2_PLACEMENT_3D ( 'NONE', #280, #192, #238 ) ;
#71 =( LENGTH_UNIT ( ) NAMED_UNIT ( * ) SI_UNIT ( .MILLI., .METRE. ) );
#72 = VERTEX_POINT ( 'NONE', #39 ) ;
#73 = DIRECTION ( 'NONE',  ( -0.000000000000000000, -1.000000000000000000, -0.000000000000000000 ) ) ;
#74 = APPLICATION_PROTOCOL_DEFINITION ( 'draft international standard', 'automotive_design', 1998, #179 ) ;
#75 = EDGE_CURVE ( 'NONE', #185, #135, #14, .T. ) ;
#76 = CARTESIAN_POINT ( 'NONE',  ( 0.000000000000000000, 30.00000000000000000, 0.000000000000000000 ) ) ;
#77 = FILL_AREA_STYLE ('',( #277 ) ) ;
#78 = VECTOR ( 'NONE', #124, 1000.000000000000000 ) ;
#79 = ORIENTED_EDGE ( 'NONE', *, *, #132, .T. ) ;
#80 =( LENGTH_UNIT ( ) NAMED_UNIT ( * ) SI_UNIT ( .MILLI., .METRE. ) );
#81 = ORIENTED_EDGE ( 'NONE', *, *, #132, .F. ) ;
#82 = DIRECTION ( 'NONE',  ( -1.000000000000000000, 0.000000000000000000, 0.000000000000000000 ) ) ;
#83 = UNCERTAINTY_MEASURE_WITH_UNIT (LENGTH_MEASURE( 1.000000000000000082E-05 ), #271, 'distance_accuracy_value', 'NONE');
#84 = FILL_AREA_STYLE ('',( #173 ) ) ;
#85 = FILL_AREA_STYLE_COLOUR ( '', #55 ) ;
#86 = AXIS2_PLACEMENT_3D ( 'NONE', #236, #186, #50 ) ;
#87 = FILL_AREA_STYLE ('',( #85 ) ) ;
#88 = ADVANCED_FACE ( 'NONE', ( #32 ), #57, .F. ) ;
#89 = CARTESIAN_POINT ( 'NONE',  ( 0.000000000000000000, 0.000000000000000000, 0.000000000000000000 ) ) ;
#90 = PRESENTATION_LAYER_ASSIGNMENT (  '', '', ( #143 ) ) ;
#91 = PRESENTATION_STYLE_ASSIGNMENT (( #248 ) ) ;
#92 =( NAMED_UNIT ( * ) PLANE_ANGLE_UNIT ( ) SI_UNIT ( $, .RADIAN. ) );
#93 = EDGE_LOOP ( 'NONE', ( #115, #259, #204, #229 ) ) ;
#94 = STYLED_ITEM ( 'NONE', ( #150 ), #218 ) ;
#95 = VERTEX_POINT ( 'NONE', #166 ) ;
#96 = FACE_OUTER_BOUND ( 'NONE', #206, .T. ) ;
#97 = ADVANCED_BREP_SHAPE_REPRESENTATION ( '59673', ( #222, #25, #156 ), #15 ) ;
#98 = ORIENTED_EDGE ( 'NONE', *, *, #75, .F. ) ;
#99 = CARTESIAN_POINT ( 'NONE',  ( 6.000000000000000000, 75.00000000000000000, 0.000000000000000000 ) ) ;
#100 = VERTEX_POINT ( 'NONE', #118 ) ;
#101 =( GEOMETRIC_REPRESENTATION_CONTEXT ( 3 ) GLOBAL_UNCERTAINTY_ASSIGNED_CONTEXT ( ( #281 ) ) GLOBAL_UNIT_ASSIGNED_CONTEXT ( ( #80, #16, #231 ) ) REPRESENTATION_CONTEXT ( 'NONE', 'WORKASPACE' ) );
#102 = DIRECTION ( 'NONE',  ( -0.000000000000000000, -1.000000000000000000, -0.000000000000000000 ) ) ;
#103 = DIRECTION ( 'NONE',  ( 1.000000000000000000, -1.360718665719280903E-16, 0.000000000000000000 ) ) ;
#104 = SURFACE_STYLE_USAGE ( .BOTH. , #286 ) ;
#105 = SURFACE_STYLE_USAGE ( .BOTH. , #188 ) ;
#106 = PRESENTATION_LAYER_ASSIGNMENT (  '', '', ( #94 ) ) ;
#107 = PRODUCT_RELATED_PRODUCT_CATEGORY ( 'part', '', ( #122 ) ) ;
#108 = DIRECTION ( 'NONE',  ( -0.000000000000000000, -1.000000000000000000, -0.000000000000000000 ) ) ;
#109 = COLOUR_RGB ( '',0.7921568627450980005, 0.8196078431372548767, 0.9333333333333333481 ) ;
#110 = APPLICATION_CONTEXT ( 'automotive_design' ) ;
#111 = CARTESIAN_POINT ( 'NONE',  ( 6.123233995736762930E-15, 75.00000000000000000, 0.000000000000000000 ) ) ;
#112 = SURFACE_STYLE_USAGE ( .BOTH. , #180 ) ;
#113 = EDGE_LOOP ( 'NONE', ( #79, #189, #215, #145 ) ) ;
#114 = DIRECTION ( 'NONE',  ( 1.360718665719280903E-16, 1.000000000000000000, -0.000000000000000000 ) ) ;
#115 = ORIENTED_EDGE ( 'NONE', *, *, #274, .T. ) ;
#116 = MECHANICAL_DESIGN_GEOMETRIC_PRESENTATION_REPRESENTATION (  '', ( #143 ), #170 ) ;
#117 =( NAMED_UNIT ( * ) PLANE_ANGLE_UNIT ( ) SI_UNIT ( $, .RADIAN. ) );
#118 = CARTESIAN_POINT ( 'NONE',  ( -6.000000000000000000, 30.00000000000000000, 0.000000000000000000 ) ) ;
#119 = SURFACE_STYLE_FILL_AREA ( #56 ) ;
#120 = ORIENTED_EDGE ( 'NONE', *, *, #211, .F. ) ;
#121 = ORIENTED_EDGE ( 'NONE', *, *, #26, .F. ) ;
#122 = PRODUCT ( '59673', '59673', '', ( #54 ) ) ;
#123 = CIRCLE ( 'NONE', #190, 5.999999999999993783 ) ;
#124 = DIRECTION ( 'NONE',  ( 1.360718665719280903E-16, 1.000000000000000000, -0.000000000000000000 ) ) ;
#125 = UNCERTAINTY_MEASURE_WITH_UNIT (LENGTH_MEASURE( 1.000000000000000082E-05 ), #241, 'distance_accuracy_value', 'NONE');
#126 = STYLED_ITEM ( 'NONE', ( #65 ), #242 ) ;
#127 = DIRECTION ( 'NONE',  ( -0.000000000000000000, -1.000000000000000000, -0.000000000000000000 ) ) ;
#128 = PRESENTATION_STYLE_ASSIGNMENT (( #249 ) ) ;
#129 = CLOSED_SHELL ( 'NONE', ( #262, #137, #244, #88 ) ) ;
#130 = PRESENTATION_LAYER_ASSIGNMENT (  '', '', ( #182 ) ) ;
#131 = FILL_AREA_STYLE_COLOUR ( '', #247 ) ;
#132 = EDGE_CURVE ( 'NONE', #51, #27, #152, .T. ) ;
#133 = DIRECTION ( 'NONE',  ( -1.000000000000000000, 0.000000000000000000, 0.000000000000000000 ) ) ;
#134 = MECHANICAL_DESIGN_GEOMETRIC_PRESENTATION_REPRESENTATION (  '', ( #126 ), #63 ) ;
#135 = VERTEX_POINT ( 'NONE', #214 ) ;
#136 = APPLICATION_PROTOCOL_DEFINITION ( 'draft international standard', 'automotive_design', 1998, #110 ) ;
#137 = ADVANCED_FACE ( 'NONE', ( #191 ), #146, .F. ) ;
#138 = CARTESIAN_POINT ( 'NONE',  ( 6.123233995736762930E-15, 75.00000000000000000, 0.000000000000000000 ) ) ;
#139 = ORIENTED_EDGE ( 'NONE', *, *, #7, .T. ) ;
#140 = CARTESIAN_POINT ( 'NONE',  ( 0.000000000000000000, 0.000000000000000000, 0.000000000000000000 ) ) ;
#141 = FILL_AREA_STYLE_COLOUR ( '', #268 ) ;
#142 = DIRECTION ( 'NONE',  ( 1.360718665719280903E-16, 1.000000000000000000, -0.000000000000000000 ) ) ;
#143 = STYLED_ITEM ( 'NONE', ( #91 ), #222 ) ;
#144 = SURFACE_SIDE_STYLE ('',( #172 ) ) ;
#145 = ORIENTED_EDGE ( 'NONE', *, *, #42, .F. ) ;
#146 = PLANE ( 'NONE',  #70 ) ;
#147 = ORIENTED_EDGE ( 'NONE', *, *, #175, .F. ) ;
#148 = CARTESIAN_POINT ( 'NONE',  ( 6.000000000000002665, 75.00000000000000000, 7.347880794884115792E-16 ) ) ;
#149 = MECHANICAL_DESIGN_GEOMETRIC_PRESENTATION_REPRESENTATION (  '', ( #177 ), #101 ) ;
#150 = PRESENTATION_STYLE_ASSIGNMENT (( #104 ) ) ;
#151 = CARTESIAN_POINT ( 'NONE',  ( 0.000000000000000000, 30.00000000000000000, 0.000000000000000000 ) ) ;
#152 = CIRCLE ( 'NONE', #288, 6.000000000000000000 ) ;
#153 = CIRCLE ( 'NONE', #273, 6.000000000000000000 ) ;
#154 = CARTESIAN_POINT ( 'NONE',  ( 0.000000000000000000, 30.00000000000000000, 0.000000000000000000 ) ) ;
#155 = CARTESIAN_POINT ( 'NONE',  ( 6.123233995736762930E-15, 75.00000000000000000, 0.000000000000000000 ) ) ;
#156 = AXIS2_PLACEMENT_3D ( 'NONE', #140, #272, #230 ) ;
#157 =( LENGTH_UNIT ( ) NAMED_UNIT ( * ) SI_UNIT ( .MILLI., .METRE. ) );
#158 = PRODUCT_DEFINITION ( 'UNKNOWN', '', #64, #199 ) ;
#159 = SURFACE_STYLE_FILL_AREA ( #5 ) ;
#160 = SURFACE_SIDE_STYLE ('',( #62 ) ) ;
#161 = AXIS2_PLACEMENT_3D ( 'NONE', #138, #165, #168 ) ;
#162 = VERTEX_POINT ( 'NONE', #164 ) ;
#163 = DIRECTION ( 'NONE',  ( 0.000000000000000000, 0.000000000000000000, -1.000000000000000000 ) ) ;
#164 = CARTESIAN_POINT ( 'NONE',  ( 0.000000000000000000, 0.000000000000000000, -6.000000000000000000 ) ) ;
#165 = DIRECTION ( 'NONE',  ( 1.360718665719280903E-16, 1.000000000000000000, -0.000000000000000000 ) ) ;
#166 = CARTESIAN_POINT ( 'NONE',  ( 7.347880794884119736E-16, 0.000000000000000000, 6.000000000000000000 ) ) ;
#167 = ORIENTED_EDGE ( 'NONE', *, *, #169, .F. ) ;
#168 = DIRECTION ( 'NONE',  ( -1.000000000000000000, 0.000000000000000000, 0.000000000000000000 ) ) ;
#169 = EDGE_CURVE ( 'NONE', #72, #185, #258, .T. ) ;
#170 =( GEOMETRIC_REPRESENTATION_CONTEXT ( 3 ) GLOBAL_UNCERTAINTY_ASSIGNED_CONTEXT ( ( #83 ) ) GLOBAL_UNIT_ASSIGNED_CONTEXT ( ( #271, #269, #46 ) ) REPRESENTATION_CONTEXT ( 'NONE', 'WORKASPACE' ) );
#171 = COLOUR_RGB ( '',1.000000000000000000, 0.000000000000000000, 0.000000000000000000 ) ;
#172 = SURFACE_STYLE_FILL_AREA ( #77 ) ;
#173 = FILL_AREA_STYLE_COLOUR ( '', #260 ) ;
#174 = SURFACE_STYLE_FILL_AREA ( #87 ) ;
#175 = EDGE_CURVE ( 'NONE', #27, #95, #29, .T. ) ;
#176 = CIRCLE ( 'NONE', #207, 6.000000000000000000 ) ;
#177 = STYLED_ITEM ( 'NONE', ( #38 ), #25 ) ;
#178 = CYLINDRICAL_SURFACE ( 'NONE', #21, 6.000000000000000000 ) ;
#179 = APPLICATION_CONTEXT ( 'automotive_design' ) ;
#180 = SURFACE_SIDE_STYLE ('',( #66 ) ) ;
#181 = ORIENTED_EDGE ( 'NONE', *, *, #60, .F. ) ;
#182 = STYLED_ITEM ( 'NONE', ( #128 ), #265 ) ;
#183 = CARTESIAN_POINT ( 'NONE',  ( 0.000000000000000000, 0.000000000000000000, 0.000000000000000000 ) ) ;
#184 = CARTESIAN_POINT ( 'NONE',  ( 7.347880794884119736E-16, 30.00000000000000000, 6.000000000000000000 ) ) ;
#185 = VERTEX_POINT ( 'NONE', #217 ) ;
#186 = DIRECTION ( 'NONE',  ( -0.000000000000000000, -1.000000000000000000, -0.000000000000000000 ) ) ;
#187 = EDGE_LOOP ( 'NONE', ( #167, #237, #210, #98 ) ) ;
#188 = SURFACE_SIDE_STYLE ('',( #119 ) ) ;
#189 = ORIENTED_EDGE ( 'NONE', *, *, #175, .T. ) ;
#190 = AXIS2_PLACEMENT_3D ( 'NONE', #282, #9, #82 ) ;
#191 = FACE_OUTER_BOUND ( 'NONE', #235, .T. ) ;
#192 = DIRECTION ( 'NONE',  ( 1.360718665719280903E-16, 1.000000000000000000, -0.000000000000000000 ) ) ;
#193 = EDGE_CURVE ( 'NONE', #135, #185, #123, .T. ) ;
#194 = VECTOR ( 'NONE', #257, 1000.000000000000000 ) ;
#195 =( LENGTH_UNIT ( ) NAMED_UNIT ( * ) SI_UNIT ( .MILLI., .METRE. ) );
#196 =( NAMED_UNIT ( * ) PLANE_ANGLE_UNIT ( ) SI_UNIT ( $, .RADIAN. ) );
#197 = ADVANCED_FACE ( 'NONE', ( #96 ), #12, .T. ) ;
#198 = DIRECTION ( 'NONE',  ( 1.360718665719280903E-16, 1.000000000000000000, -0.000000000000000000 ) ) ;
#199 = PRODUCT_DEFINITION_CONTEXT ( 'detailed design', #110, 'design' ) ;
#200 = DIRECTION ( 'NONE',  ( 1.360718665719280903E-16, 1.000000000000000000, -0.000000000000000000 ) ) ;
#201 = AXIS2_PLACEMENT_3D ( 'NONE', #209, #234, #36 ) ;
#202 =( LENGTH_UNIT ( ) NAMED_UNIT ( * ) SI_UNIT ( .MILLI., .METRE. ) );
#203 = CYLINDRICAL_SURFACE ( 'NONE', #263, 5.999999999999996447 ) ;
#204 = ORIENTED_EDGE ( 'NONE', *, *, #193, .F. ) ;
#205 = CARTESIAN_POINT ( 'NONE',  ( 0.000000000000000000, 0.000000000000000000, -6.000000000000000000 ) ) ;
#206 = EDGE_LOOP ( 'NONE', ( #147, #13, #232, #121 ) ) ;
#207 = AXIS2_PLACEMENT_3D ( 'NONE', #275, #73, #163 ) ;
#208 = AXIS2_PLACEMENT_3D ( 'NONE', #89, #22, #2 ) ;
#209 = CARTESIAN_POINT ( 'NONE',  ( -7.703719777548943412E-31, 30.00000000000000000, 0.000000000000000000 ) ) ;
#210 = ORIENTED_EDGE ( 'NONE', *, *, #23, .T. ) ;
#211 = EDGE_CURVE ( 'NONE', #27, #51, #40, .T. ) ;
#212 = CARTESIAN_POINT ( 'NONE',  ( 0.000000000000000000, 30.00000000000000000, -6.000000000000000000 ) ) ;
#213 = ORIENTED_EDGE ( 'NONE', *, *, #274, .F. ) ;
#214 = CARTESIAN_POINT ( 'NONE',  ( -5.999999999999987566, 75.00000000000000000, 0.000000000000000000 ) ) ;
#215 = ORIENTED_EDGE ( 'NONE', *, *, #7, .F. ) ;
#216 = PRESENTATION_LAYER_ASSIGNMENT (  '', '', ( #177 ) ) ;
#217 = CARTESIAN_POINT ( 'NONE',  ( 6.000000000000000000, 75.00000000000000000, 7.347880794884117764E-16 ) ) ;
#218 = ADVANCED_FACE ( 'NONE', ( #264 ), #18, .T. ) ;
#219 = DIRECTION ( 'NONE',  ( 0.000000000000000000, 0.000000000000000000, -1.000000000000000000 ) ) ;
#220 =( GEOMETRIC_REPRESENTATION_CONTEXT ( 3 ) GLOBAL_UNCERTAINTY_ASSIGNED_CONTEXT ( ( #125 ) ) GLOBAL_UNIT_ASSIGNED_CONTEXT ( ( #241, #196, #221 ) ) REPRESENTATION_CONTEXT ( 'NONE', 'WORKASPACE' ) );
#221 =( NAMED_UNIT ( * ) SI_UNIT ( $, .STERADIAN. ) SOLID_ANGLE_UNIT ( ) );
#222 = MANIFOLD_SOLID_BREP ( 'Revolve - Cutting Edge', #8 ) ;
#223 =( NAMED_UNIT ( * ) SI_UNIT ( $, .STERADIAN. ) SOLID_ANGLE_UNIT ( ) );
#224 = FACE_OUTER_BOUND ( 'NONE', #228, .T. ) ;
#225 =( NAMED_UNIT ( * ) PLANE_ANGLE_UNIT ( ) SI_UNIT ( $, .RADIAN. ) );
#226 = UNCERTAINTY_MEASURE_WITH_UNIT (LENGTH_MEASURE( 1.000000000000000082E-05 ), #71, 'distance_accuracy_value', 'NONE');
#227 =( GEOMETRIC_REPRESENTATION_CONTEXT ( 3 ) GLOBAL_UNCERTAINTY_ASSIGNED_CONTEXT ( ( #59 ) ) GLOBAL_UNIT_ASSIGNED_CONTEXT ( ( #195, #20, #223 ) ) REPRESENTATION_CONTEXT ( 'NONE', 'WORKASPACE' ) );
#228 = EDGE_LOOP ( 'NONE', ( #139, #252 ) ) ;
#229 = ORIENTED_EDGE ( 'NONE', *, *, #23, .F. ) ;
#230 = DIRECTION ( 'NONE',  ( 1.000000000000000000, 0.000000000000000000, 0.000000000000000000 ) ) ;
#231 =( NAMED_UNIT ( * ) SI_UNIT ( $, .STERADIAN. ) SOLID_ANGLE_UNIT ( ) );
#232 = ORIENTED_EDGE ( 'NONE', *, *, #42, .T. ) ;
#233 = MECHANICAL_DESIGN_GEOMETRIC_PRESENTATION_REPRESENTATION (  '', ( #285 ), #227 ) ;
#234 = DIRECTION ( 'NONE',  ( 1.360718665719280903E-16, 1.000000000000000000, -0.000000000000000000 ) ) ;
#235 = EDGE_LOOP ( 'NONE', ( #213, #181 ) ) ;
#236 = CARTESIAN_POINT ( 'NONE',  ( 0.000000000000000000, 0.000000000000000000, 0.000000000000000000 ) ) ;
#237 = ORIENTED_EDGE ( 'NONE', *, *, #60, .T. ) ;
#238 = DIRECTION ( 'NONE',  ( -1.000000000000000000, 1.360718665719280903E-16, 0.000000000000000000 ) ) ;
#239 = MECHANICAL_DESIGN_GEOMETRIC_PRESENTATION_REPRESENTATION (  '', ( #94 ), #220 ) ;
#240 = PRESENTATION_STYLE_ASSIGNMENT (( #105 ) ) ;
#241 =( LENGTH_UNIT ( ) NAMED_UNIT ( * ) SI_UNIT ( .MILLI., .METRE. ) );
#242 = ADVANCED_FACE ( 'NONE', ( #224 ), #287, .T. ) ;
#243 = DIRECTION ( 'NONE',  ( 0.000000000000000000, -0.000000000000000000, 1.000000000000000000 ) ) ;
#244 = ADVANCED_FACE ( 'NONE', ( #4 ), #203, .T. ) ;
#245 = FACE_OUTER_BOUND ( 'NONE', #93, .T. ) ;
#246 = CYLINDRICAL_SURFACE ( 'NONE', #34, 5.999999999999996447 ) ;
#247 = COLOUR_RGB ( '',1.000000000000000000, 0.000000000000000000, 0.000000000000000000 ) ;
#248 = SURFACE_STYLE_USAGE ( .BOTH. , #160 ) ;
#249 = SURFACE_STYLE_USAGE ( .BOTH. , #45 ) ;
#250 = AXIS2_PLACEMENT_3D ( 'NONE', #19, #108, #283 ) ;
#251 = SHAPE_DEFINITION_REPRESENTATION ( #41, #97 ) ;
#252 = ORIENTED_EDGE ( 'NONE', *, *, #26, .T. ) ;
#253 = DIRECTION ( 'NONE',  ( 0.000000000000000000, 0.000000000000000000, -1.000000000000000000 ) ) ;
#254 = LINE ( 'NONE', #35, #284 ) ;
#255 =( NAMED_UNIT ( * ) SI_UNIT ( $, .STERADIAN. ) SOLID_ANGLE_UNIT ( ) );
#256 = DIRECTION ( 'NONE',  ( -0.000000000000000000, -1.000000000000000000, -0.000000000000000000 ) ) ;
#257 = DIRECTION ( 'NONE',  ( -0.000000000000000000, -1.000000000000000000, -0.000000000000000000 ) ) ;
#258 = LINE ( 'NONE', #148, #78 ) ;
#259 = ORIENTED_EDGE ( 'NONE', *, *, #169, .T. ) ;
#260 = COLOUR_RGB ( '',0.7921568627450980005, 0.8196078431372548767, 0.9333333333333333481 ) ;
#261 = UNCERTAINTY_MEASURE_WITH_UNIT (LENGTH_MEASURE( 1.000000000000000082E-05 ), #157, 'distance_accuracy_value', 'NONE');
#262 = ADVANCED_FACE ( 'NONE', ( #245 ), #246, .T. ) ;
#263 = AXIS2_PLACEMENT_3D ( 'NONE', #111, #198, #133 ) ;
#264 = FACE_OUTER_BOUND ( 'NONE', #53, .T. ) ;
#265 = ADVANCED_FACE ( 'NONE', ( #69 ), #178, .T. ) ;
#266 = DIRECTION ( 'NONE',  ( -1.000000000000000000, 0.000000000000000000, 0.000000000000000000 ) ) ;
#267 =( NAMED_UNIT ( * ) SI_UNIT ( $, .STERADIAN. ) SOLID_ANGLE_UNIT ( ) );
#268 = COLOUR_RGB ( '',1.000000000000000000, 0.000000000000000000, 0.000000000000000000 ) ;
#269 =( NAMED_UNIT ( * ) PLANE_ANGLE_UNIT ( ) SI_UNIT ( $, .RADIAN. ) );
#270 = MECHANICAL_DESIGN_GEOMETRIC_PRESENTATION_REPRESENTATION (  '', ( #182 ), #279 ) ;
#271 =( LENGTH_UNIT ( ) NAMED_UNIT ( * ) SI_UNIT ( .MILLI., .METRE. ) );
#272 = DIRECTION ( 'NONE',  ( 0.000000000000000000, 0.000000000000000000, 1.000000000000000000 ) ) ;
#273 = AXIS2_PLACEMENT_3D ( 'NONE', #49, #114, #11 ) ;
#274 = EDGE_CURVE ( 'NONE', #100, #72, #153, .T. ) ;
#275 = CARTESIAN_POINT ( 'NONE',  ( 0.000000000000000000, 0.000000000000000000, 0.000000000000000000 ) ) ;
#276 = LINE ( 'NONE', #205, #194 ) ;
#277 = FILL_AREA_STYLE_COLOUR ( '', #109 ) ;
#278 = SURFACE_STYLE_USAGE ( .BOTH. , #144 ) ;
#279 =( GEOMETRIC_REPRESENTATION_CONTEXT ( 3 ) GLOBAL_UNCERTAINTY_ASSIGNED_CONTEXT ( ( #67 ) ) GLOBAL_UNIT_ASSIGNED_CONTEXT ( ( #202, #92, #267 ) ) REPRESENTATION_CONTEXT ( 'NONE', 'WORKASPACE' ) );
#280 = CARTESIAN_POINT ( 'NONE',  ( 5.554665861710580935E-32, 30.00000000000000000, 0.000000000000000000 ) ) ;
#281 = UNCERTAINTY_MEASURE_WITH_UNIT (LENGTH_MEASURE( 1.000000000000000082E-05 ), #80, 'distance_accuracy_value', 'NONE');
#282 = CARTESIAN_POINT ( 'NONE',  ( 6.123233995736762930E-15, 75.00000000000000000, 0.000000000000000000 ) ) ;
#283 = DIRECTION ( 'NONE',  ( 0.000000000000000000, 0.000000000000000000, -1.000000000000000000 ) ) ;
#284 = VECTOR ( 'NONE', #142, 1000.000000000000000 ) ;
#285 = STYLED_ITEM ( 'NONE', ( #240 ), #197 ) ;
#286 = SURFACE_SIDE_STYLE ('',( #174 ) ) ;
#287 = PLANE ( 'NONE',  #208 ) ;
#288 = AXIS2_PLACEMENT_3D ( 'NONE', #76, #102, #253 ) ;
ENDSEC;
END-ISO-10303-21;
