ISO-10303-21;
HEADER;
FILE_DESCRIPTION (( 'STEP AP214' ),
    '1' );
FILE_NAME ('Micro_MMBM-015-7.STEP',
    '2021-09-03T16:29:47',
    ( '' ),
    ( '' ),
    'SwSTEP 2.0',
    'SolidWorks 2020',
    '' );
FILE_SCHEMA (( 'AUTOMOTIVE_DESIGN' ));
ENDSEC;

DATA;
#1 = FACE_OUTER_BOUND ( 'NONE', #306, .T. ) ;
#2 = CARTESIAN_POINT ( 'NONE',  ( 0.02952454724999999808, 3.615714228598728577E-18, 0.0000000000000000000 ) ) ;
#3 = ADVANCED_FACE ( 'NONE', ( #328 ), #110, .F. ) ;
#4 = DIRECTION ( 'NONE',  ( -0.0000000000000000000, -0.0000000000000000000, -1.000000000000000000 ) ) ;
#5 =( LENGTH_UNIT ( ) NAMED_UNIT ( * ) SI_UNIT ( $, .METRE. ) );
#6 = CIRCLE ( 'NONE', #267, 0.02952454724999999808 ) ;
#7 = SURFACE_STYLE_USAGE ( .BOTH. , #352 ) ;
#8 = CARTESIAN_POINT ( 'NONE',  ( 0.02952454724999999808, 3.615714228598728577E-18, 0.0000000000000000000 ) ) ;
#9 = DIRECTION ( 'NONE',  ( -0.0000000000000000000, -0.0000000000000000000, -1.000000000000000000 ) ) ;
#10 = VERTEX_POINT ( 'NONE', #238 ) ;
#11 = DIRECTION ( 'NONE',  ( -1.000000000000000000, 0.0000000000000000000, 0.0000000000000000000 ) ) ;
#12 = EDGE_LOOP ( 'NONE', ( #368, #278, #304, #64 ) ) ;
#13 = ORIENTED_EDGE ( 'NONE', *, *, #80, .T. ) ;
#14 = DIRECTION ( 'NONE',  ( -0.0000000000000000000, -0.0000000000000000000, -1.000000000000000000 ) ) ;
#15 = ADVANCED_FACE ( 'NONE', ( #87, #208 ), #353, .T. ) ;
#16 = EDGE_LOOP ( 'NONE', ( #340, #181 ) ) ;
#17 = DIRECTION ( 'NONE',  ( -0.0000000000000000000, -0.0000000000000000000, -1.000000000000000000 ) ) ;
#18 = EDGE_LOOP ( 'NONE', ( #92, #70, #178, #362 ) ) ;
#19 = CARTESIAN_POINT ( 'NONE',  ( 0.0000000000000000000, 0.0000000000000000000, 2.244094000000000033 ) ) ;
#20 = AXIS2_PLACEMENT_3D ( 'NONE', #331, #85, #144 ) ;
#21 = DIRECTION ( 'NONE',  ( -1.000000000000000000, 0.0000000000000000000, 0.0000000000000000000 ) ) ;
#22 = AXIS2_PLACEMENT_3D ( 'NONE', #226, #194, #345 ) ;
#23 = EDGE_CURVE ( 'NONE', #273, #365, #31, .T. ) ;
#24 = CARTESIAN_POINT ( 'NONE',  ( 0.02854350000000000637, 3.555642409872488112E-18, 0.06461879543311090102 ) ) ;
#25 = DIRECTION ( 'NONE',  ( -0.0000000000000000000, -0.0000000000000000000, -1.000000000000000000 ) ) ;
#26 = CARTESIAN_POINT ( 'NONE',  ( 0.0000000000000000000, 0.0000000000000000000, 0.05905500000000000332 ) ) ;
#27 = VECTOR ( 'NONE', #147, 39.37007874015748143 ) ;
#28 =( CONVERSION_BASED_UNIT ( 'INCH', #350 ) LENGTH_UNIT ( ) NAMED_UNIT ( #165 ) );
#29 = DIRECTION ( 'NONE',  ( 0.7071067811865358044, 8.659560562354788645E-17, -0.7071067811865590080 ) ) ;
#30 = ADVANCED_FACE ( 'NONE', ( #114 ), #206, .T. ) ;
#31 = CIRCLE ( 'NONE', #20, 0.1181100000000000066 ) ;
#32 = AXIS2_PLACEMENT_3D ( 'NONE', #26, #76, #51 ) ;
#33 =( CONVERSION_BASED_UNIT ( 'INCH', #56 ) LENGTH_UNIT ( ) NAMED_UNIT ( #296 ) );
#34 = DIRECTION ( 'NONE',  ( -0.0000000000000000000, -0.0000000000000000000, -1.000000000000000000 ) ) ;
#35 = CARTESIAN_POINT ( 'NONE',  ( -0.02952454724999999808, 0.0000000000000000000, 0.05905500000000000332 ) ) ;
#36 = ORIENTED_EDGE ( 'NONE', *, *, #23, .T. ) ;
#37 = MANIFOLD_SOLID_BREP ( 'Cut-Revolve1', #58 ) ;
#38 = DIRECTION ( 'NONE',  ( -0.0000000000000000000, -0.0000000000000000000, -1.000000000000000000 ) ) ;
#39 = ORIENTED_EDGE ( 'NONE', *, *, #260, .T. ) ;
#40 = LINE ( 'NONE', #145, #261 ) ;
#41 =( GEOMETRIC_REPRESENTATION_CONTEXT ( 3 ) GLOBAL_UNCERTAINTY_ASSIGNED_CONTEXT ( ( #326 ) ) GLOBAL_UNIT_ASSIGNED_CONTEXT ( ( #33, #139, #293 ) ) REPRESENTATION_CONTEXT ( 'NONE', 'WORKASPACE' ) );
#42 = EDGE_LOOP ( 'NONE', ( #97, #13, #62, #129 ) ) ;
#43 = LINE ( 'NONE', #274, #167 ) ;
#44 = EDGE_LOOP ( 'NONE', ( #73, #141 ) ) ;
#45 = DIRECTION ( 'NONE',  ( -1.000000000000000000, 0.0000000000000000000, 0.0000000000000000000 ) ) ;
#46 = EDGE_LOOP ( 'NONE', ( #332, #249, #156, #180 ) ) ;
#47 = DIRECTION ( 'NONE',  ( 1.000000000000000000, 0.0000000000000000000, -0.0000000000000000000 ) ) ;
#48 = VECTOR ( 'NONE', #240, 39.37007874015748854 ) ;
#49 = AXIS2_PLACEMENT_3D ( 'NONE', #378, #25, #379 ) ;
#50 = CARTESIAN_POINT ( 'NONE',  ( 0.0000000000000000000, 0.0000000000000000000, 2.244094000000000033 ) ) ;
#51 = DIRECTION ( 'NONE',  ( -1.000000000000000000, 0.0000000000000000000, 0.0000000000000000000 ) ) ;
#52 = CARTESIAN_POINT ( 'NONE',  ( -0.02952454724999999808, 0.0000000000000000000, 0.0000000000000000000 ) ) ;
#53 = CARTESIAN_POINT ( 'NONE',  ( 0.0000000000000000000, 0.0000000000000000000, 2.244094000000000033 ) ) ;
#54 = DIRECTION ( 'NONE',  ( 0.0000000000000000000, 0.0000000000000000000, 1.000000000000000000 ) ) ;
#55 = ORIENTED_EDGE ( 'NONE', *, *, #65, .T. ) ;
#56 = LENGTH_MEASURE_WITH_UNIT ( LENGTH_MEASURE( 0.02539999999999999897 ), #5 );
#57 = APPLICATION_CONTEXT ( 'automotive_design' ) ;
#58 = CLOSED_SHELL ( 'NONE', ( #196, #30, #356, #370, #109, #297, #317, #245, #15, #72, #346, #153, #3 ) ) ;
#59 = SURFACE_STYLE_USAGE ( .BOTH. , #168 ) ;
#60 = CARTESIAN_POINT ( 'NONE',  ( 0.0000000000000000000, 0.0000000000000000000, 0.0000000000000000000 ) ) ;
#61 = AXIS2_PLACEMENT_3D ( 'NONE', #60, #336, #45 ) ;
#62 = ORIENTED_EDGE ( 'NONE', *, *, #23, .F. ) ;
#63 = CARTESIAN_POINT ( 'NONE',  ( 0.0000000000000000000, 0.0000000000000000000, 0.06461879543311090102 ) ) ;
#64 = ORIENTED_EDGE ( 'NONE', *, *, #132, .F. ) ;
#65 = EDGE_CURVE ( 'NONE', #223, #101, #264, .T. ) ;
#66 = DIRECTION ( 'NONE',  ( -0.0000000000000000000, -0.0000000000000000000, -1.000000000000000000 ) ) ;
#67 = ORIENTED_EDGE ( 'NONE', *, *, #320, .F. ) ;
#68 = CARTESIAN_POINT ( 'NONE',  ( 0.1031100000000002570, 1.354581824536888722E-17, 2.244094000000000033 ) ) ;
#69 = CONICAL_SURFACE ( 'NONE', #289, 0.1031100000000002570, 0.7853981633974318477 ) ;
#70 = ORIENTED_EDGE ( 'NONE', *, *, #292, .T. ) ;
#71 = DIRECTION ( 'NONE',  ( -0.0000000000000000000, -0.0000000000000000000, -1.000000000000000000 ) ) ;
#72 = ADVANCED_FACE ( 'NONE', ( #294 ), #299, .T. ) ;
#73 = ORIENTED_EDGE ( 'NONE', *, *, #266, .T. ) ;
#74 =( NAMED_UNIT ( * ) PLANE_ANGLE_UNIT ( ) SI_UNIT ( $, .RADIAN. ) );
#75 = ADVANCED_BREP_SHAPE_REPRESENTATION ( 'Micro_MMBM-015-7', ( #37, #203 ), #213 ) ;
#76 = DIRECTION ( 'NONE',  ( -0.0000000000000000000, -0.0000000000000000000, -1.000000000000000000 ) ) ;
#77 = AXIS2_PLACEMENT_3D ( 'NONE', #152, #218, #11 ) ;
#78 = APPLICATION_CONTEXT ( 'automotive_design' ) ;
#79 = DIRECTION ( 'NONE',  ( -0.0000000000000000000, -0.0000000000000000000, -1.000000000000000000 ) ) ;
#80 = EDGE_CURVE ( 'NONE', #219, #365, #361, .T. ) ;
#81 = CARTESIAN_POINT ( 'NONE',  ( 0.0000000000000000000, 0.0000000000000000000, 2.229093999999999465 ) ) ;
#82 = FILL_AREA_STYLE_COLOUR ( '', #95 ) ;
#83 = PRODUCT_DEFINITION_FORMATION_WITH_SPECIFIED_SOURCE ( 'ANY', '', #287, .NOT_KNOWN. ) ;
#84 = PRESENTATION_STYLE_ASSIGNMENT (( #59 ) ) ;
#85 = DIRECTION ( 'NONE',  ( 0.0000000000000000000, 0.0000000000000000000, -1.000000000000000000 ) ) ;
#86 = APPLICATION_PROTOCOL_DEFINITION ( 'draft international standard', 'automotive_design', 1998, #57 ) ;
#87 = FACE_BOUND ( 'NONE', #301, .T. ) ;
#88 = AXIS2_PLACEMENT_3D ( 'NONE', #142, #34, #236 ) ;
#89 = PRODUCT_CONTEXT ( 'NONE', #57, 'mechanical' ) ;
#90 = DIRECTION ( 'NONE',  ( 1.000000000000000000, 0.0000000000000000000, -0.0000000000000000000 ) ) ;
#91 = DIRECTION ( 'NONE',  ( 0.0000000000000000000, 0.0000000000000000000, 1.000000000000000000 ) ) ;
#92 = ORIENTED_EDGE ( 'NONE', *, *, #173, .F. ) ;
#93 = FACE_OUTER_BOUND ( 'NONE', #186, .T. ) ;
#94 = CIRCLE ( 'NONE', #327, 0.02952454724999999808 ) ;
#95 = COLOUR_RGB ( '',0.7921568627450980005, 0.8196078431372548767, 0.9333333333333333481 ) ;
#96 = EDGE_CURVE ( 'NONE', #241, #10, #257, .T. ) ;
#97 = ORIENTED_EDGE ( 'NONE', *, *, #136, .F. ) ;
#98 = LINE ( 'NONE', #117, #197 ) ;
#99 = EDGE_LOOP ( 'NONE', ( #118, #154 ) ) ;
#100 = CARTESIAN_POINT ( 'NONE',  ( -0.02952454724999999808, 0.0000000000000000000, 0.0000000000000000000 ) ) ;
#101 = VERTEX_POINT ( 'NONE', #2 ) ;
#102 = DIRECTION ( 'NONE',  ( -0.0000000000000000000, -0.0000000000000000000, -1.000000000000000000 ) ) ;
#103 = CIRCLE ( 'NONE', #237, 0.1181100000000000066 ) ;
#104 = ORIENTED_EDGE ( 'NONE', *, *, #329, .F. ) ;
#105 = CARTESIAN_POINT ( 'NONE',  ( 0.1181100000000000066, 1.446430334472939084E-17, 2.244094000000000033 ) ) ;
#106 = CARTESIAN_POINT ( 'NONE',  ( 0.1181100000000000066, 1.446430334472939084E-17, 0.2755909999999999749 ) ) ;
#107 = PLANE ( 'NONE',  #316 ) ;
#108 = FACE_OUTER_BOUND ( 'NONE', #16, .T. ) ;
#109 = ADVANCED_FACE ( 'NONE', ( #1 ), #357, .T. ) ;
#110 = PLANE ( 'NONE',  #338 ) ;
#111 = ORIENTED_EDGE ( 'NONE', *, *, #363, .T. ) ;
#112 = DIRECTION ( 'NONE',  ( -0.0000000000000000000, -0.0000000000000000000, -1.000000000000000000 ) ) ;
#113 = FILL_AREA_STYLE ('',( #82 ) ) ;
#114 = FACE_OUTER_BOUND ( 'NONE', #285, .T. ) ;
#115 = CIRCLE ( 'NONE', #150, 0.1031100000000002570 ) ;
#116 = DIRECTION ( 'NONE',  ( -0.0000000000000000000, -0.0000000000000000000, -1.000000000000000000 ) ) ;
#117 = CARTESIAN_POINT ( 'NONE',  ( -0.1031100000000002570, 0.0000000000000000000, 2.244094000000000033 ) ) ;
#118 = ORIENTED_EDGE ( 'NONE', *, *, #286, .T. ) ;
#119 = CYLINDRICAL_SURFACE ( 'NONE', #184, 0.02952454724999999808 ) ;
#120 = AXIS2_PLACEMENT_3D ( 'NONE', #53, #112, #204 ) ;
#121 = VERTEX_POINT ( 'NONE', #250 ) ;
#122 = DIRECTION ( 'NONE',  ( -1.000000000000000000, 0.0000000000000000000, 0.0000000000000000000 ) ) ;
#123 = ORIENTED_EDGE ( 'NONE', *, *, #253, .T. ) ;
#124 = CARTESIAN_POINT ( 'NONE',  ( 0.0000000000000000000, 0.0000000000000000000, 0.2755909999999999749 ) ) ;
#125 = PRODUCT_DEFINITION_CONTEXT ( 'detailed design', #78, 'design' ) ;
#126 = VERTEX_POINT ( 'NONE', #100 ) ;
#127 = DIRECTION ( 'NONE',  ( -1.000000000000000000, 0.0000000000000000000, 0.0000000000000000000 ) ) ;
#128 = VECTOR ( 'NONE', #29, 39.37007874015748854 ) ;
#129 = ORIENTED_EDGE ( 'NONE', *, *, #140, .F. ) ;
#130 = DIRECTION ( 'NONE',  ( 0.1736481776669310528, 2.126576849575780543E-17, -0.9848077530122080203 ) ) ;
#131 =( NAMED_UNIT ( * ) SI_UNIT ( $, .STERADIAN. ) SOLID_ANGLE_UNIT ( ) );
#132 = EDGE_CURVE ( 'NONE', #322, #121, #307, .T. ) ;
#133 = DIRECTION ( 'NONE',  ( -1.000000000000000000, 0.0000000000000000000, 0.0000000000000000000 ) ) ;
#134 = CIRCLE ( 'NONE', #262, 0.1181100000000000066 ) ;
#135 = DIRECTION ( 'NONE',  ( -1.000000000000000000, 0.0000000000000000000, 0.0000000000000000000 ) ) ;
#136 = EDGE_CURVE ( 'NONE', #219, #360, #115, .T. ) ;
#137 = DIRECTION ( 'NONE',  ( -1.000000000000000000, 0.0000000000000000000, 0.0000000000000000000 ) ) ;
#138 = ORIENTED_EDGE ( 'NONE', *, *, #96, .F. ) ;
#139 =( NAMED_UNIT ( * ) PLANE_ANGLE_UNIT ( ) SI_UNIT ( $, .RADIAN. ) );
#140 = EDGE_CURVE ( 'NONE', #360, #273, #98, .T. ) ;
#141 = ORIENTED_EDGE ( 'NONE', *, *, #272, .T. ) ;
#142 = CARTESIAN_POINT ( 'NONE',  ( 0.0000000000000000000, 0.0000000000000000000, 0.05905500000000000332 ) ) ;
#143 =( CONVERSION_BASED_UNIT ( 'INCH', #170 ) LENGTH_UNIT ( ) NAMED_UNIT ( #199 ) );
#144 = DIRECTION ( 'NONE',  ( 1.000000000000000000, 0.0000000000000000000, 0.0000000000000000000 ) ) ;
#145 = CARTESIAN_POINT ( 'NONE',  ( -0.02854350000000002024, 0.0000000000000000000, 0.0000000000000000000 ) ) ;
#146 = EDGE_LOOP ( 'NONE', ( #312, #151, #246, #335 ) ) ;
#147 = DIRECTION ( 'NONE',  ( -0.0000000000000000000, -0.0000000000000000000, -1.000000000000000000 ) ) ;
#148 = ORIENTED_EDGE ( 'NONE', *, *, #232, .F. ) ;
#149 = DIRECTION ( 'NONE',  ( -0.0000000000000000000, -0.0000000000000000000, -1.000000000000000000 ) ) ;
#150 = AXIS2_PLACEMENT_3D ( 'NONE', #19, #367, #220 ) ;
#151 = ORIENTED_EDGE ( 'NONE', *, *, #320, .T. ) ;
#152 = CARTESIAN_POINT ( 'NONE',  ( 0.0000000000000000000, 0.0000000000000000000, 2.244094000000000033 ) ) ;
#153 = ADVANCED_FACE ( 'NONE', ( #252 ), #119, .T. ) ;
#154 = ORIENTED_EDGE ( 'NONE', *, *, #229, .T. ) ;
#155 = DIRECTION ( 'NONE',  ( -1.000000000000000000, 0.0000000000000000000, 0.0000000000000000000 ) ) ;
#156 = ORIENTED_EDGE ( 'NONE', *, *, #140, .T. ) ;
#157 = FACE_OUTER_BOUND ( 'NONE', #42, .T. ) ;
#158 = CONICAL_SURFACE ( 'NONE', #309, 0.02952454724999999808, 0.1745329251994336694 ) ;
#159 = CARTESIAN_POINT ( 'NONE',  ( -0.1031100000000002570, 0.0000000000000000000, 2.244094000000000033 ) ) ;
#160 = LINE ( 'NONE', #52, #185 ) ;
#161 = VECTOR ( 'NONE', #9, 39.37007874015748143 ) ;
#162 = CIRCLE ( 'NONE', #22, 0.1031100000000002570 ) ;
#163 = DIRECTION ( 'NONE',  ( 0.0000000000000000000, 0.0000000000000000000, -1.000000000000000000 ) ) ;
#164 = DIRECTION ( 'NONE',  ( 1.000000000000000000, 0.0000000000000000000, 0.0000000000000000000 ) ) ;
#165 = DIMENSIONAL_EXPONENTS ( 1.000000000000000000, 0.0000000000000000000, 0.0000000000000000000, 0.0000000000000000000, 0.0000000000000000000, 0.0000000000000000000, 0.0000000000000000000 ) ;
#166 = ORIENTED_EDGE ( 'NONE', *, *, #229, .F. ) ;
#167 = VECTOR ( 'NONE', #102, 39.37007874015748143 ) ;
#168 = SURFACE_SIDE_STYLE ('',( #171 ) ) ;
#169 = PRODUCT_RELATED_PRODUCT_CATEGORY ( 'part', '', ( #287 ) ) ;
#170 = LENGTH_MEASURE_WITH_UNIT ( LENGTH_MEASURE( 0.02539999999999999897 ), #235 );
#171 = SURFACE_STYLE_FILL_AREA ( #231 ) ;
#172 = PRESENTATION_STYLE_ASSIGNMENT (( #7 ) ) ;
#173 = EDGE_CURVE ( 'NONE', #365, #372, #269, .T. ) ;
#174 = DIRECTION ( 'NONE',  ( -1.000000000000000000, 0.0000000000000000000, 0.0000000000000000000 ) ) ;
#175 = CIRCLE ( 'NONE', #283, 0.02952454724999999808 ) ;
#176 = ORIENTED_EDGE ( 'NONE', *, *, #286, .F. ) ;
#177 = DIRECTION ( 'NONE',  ( -1.000000000000000000, 0.0000000000000000000, 0.0000000000000000000 ) ) ;
#178 = ORIENTED_EDGE ( 'NONE', *, *, #225, .T. ) ;
#179 = DIRECTION ( 'NONE',  ( -0.7071067811865358044, 0.0000000000000000000, -0.7071067811865590080 ) ) ;
#180 = ORIENTED_EDGE ( 'NONE', *, *, #292, .F. ) ;
#181 = ORIENTED_EDGE ( 'NONE', *, *, #136, .T. ) ;
#182 = CARTESIAN_POINT ( 'NONE',  ( 0.02854350000000003412, 3.495570591146251498E-18, 0.2755909999999999749 ) ) ;
#183 = PRODUCT_DEFINITION ( 'UNKNOWN', '', #83, #125 ) ;
#184 = AXIS2_PLACEMENT_3D ( 'NONE', #373, #215, #224 ) ;
#185 = VECTOR ( 'NONE', #314, 39.37007874015748143 ) ;
#186 = EDGE_LOOP ( 'NONE', ( #281, #55, #176, #188 ) ) ;
#187 = CARTESIAN_POINT ( 'NONE',  ( 0.0000000000000000000, 0.0000000000000000000, 0.2755909999999999749 ) ) ;
#188 = ORIENTED_EDGE ( 'NONE', *, *, #363, .F. ) ;
#189 = CYLINDRICAL_SURFACE ( 'NONE', #49, 0.1181100000000000066 ) ;
#190 = FACE_OUTER_BOUND ( 'NONE', #12, .T. ) ;
#191 = AXIS2_PLACEMENT_3D ( 'NONE', #325, #201, #234 ) ;
#192 = CIRCLE ( 'NONE', #348, 0.02854350000000003412 ) ;
#193 = CARTESIAN_POINT ( 'NONE',  ( 0.1181100000000000066, 1.446430334472939084E-17, 2.229093999999999465 ) ) ;
#194 = DIRECTION ( 'NONE',  ( 0.0000000000000000000, 0.0000000000000000000, 1.000000000000000000 ) ) ;
#195 = DIRECTION ( 'NONE',  ( -0.0000000000000000000, -0.0000000000000000000, -1.000000000000000000 ) ) ;
#196 = ADVANCED_FACE ( 'NONE', ( #93 ), #211, .T. ) ;
#197 = VECTOR ( 'NONE', #179, 39.37007874015748854 ) ;
#198 = CARTESIAN_POINT ( 'NONE',  ( 0.0000000000000000000, 0.0000000000000000000, 0.0000000000000000000 ) ) ;
#199 = DIMENSIONAL_EXPONENTS ( 1.000000000000000000, 0.0000000000000000000, 0.0000000000000000000, 0.0000000000000000000, 0.0000000000000000000, 0.0000000000000000000, 0.0000000000000000000 ) ;
#200 = EDGE_CURVE ( 'NONE', #270, #223, #94, .T. ) ;
#201 = DIRECTION ( 'NONE',  ( -0.0000000000000000000, 0.0000000000000000000, -1.000000000000000000 ) ) ;
#202 = STYLED_ITEM ( 'NONE', ( #84 ), #37 ) ;
#203 = AXIS2_PLACEMENT_3D ( 'NONE', #198, #54, #164 ) ;
#204 = DIRECTION ( 'NONE',  ( -1.000000000000000000, 0.0000000000000000000, 0.0000000000000000000 ) ) ;
#205 = APPLICATION_PROTOCOL_DEFINITION ( 'draft international standard', 'automotive_design', 1998, #78 ) ;
#206 = CYLINDRICAL_SURFACE ( 'NONE', #275, 0.02854350000000002024 ) ;
#207 = EDGE_CURVE ( 'NONE', #121, #270, #300, .T. ) ;
#208 = FACE_OUTER_BOUND ( 'NONE', #44, .T. ) ;
#209 = UNCERTAINTY_MEASURE_WITH_UNIT (LENGTH_MEASURE( 1.000000000000000082E-05 ), #143, 'distance_accuracy_value', 'NONE');
#210 = VERTEX_POINT ( 'NONE', #305 ) ;
#211 = CYLINDRICAL_SURFACE ( 'NONE', #61, 0.02952454724999999808 ) ;
#212 = AXIS2_PLACEMENT_3D ( 'NONE', #259, #4, #263 ) ;
#213 =( GEOMETRIC_REPRESENTATION_CONTEXT ( 3 ) GLOBAL_UNCERTAINTY_ASSIGNED_CONTEXT ( ( #248 ) ) GLOBAL_UNIT_ASSIGNED_CONTEXT ( ( #28, #74, #131 ) ) REPRESENTATION_CONTEXT ( 'NONE', 'WORKASPACE' ) );
#214 = ORIENTED_EDGE ( 'NONE', *, *, #266, .F. ) ;
#215 = DIRECTION ( 'NONE',  ( -0.0000000000000000000, -0.0000000000000000000, -1.000000000000000000 ) ) ;
#216 = ORIENTED_EDGE ( 'NONE', *, *, #217, .F. ) ;
#217 = EDGE_CURVE ( 'NONE', #10, #121, #40, .T. ) ;
#218 = DIRECTION ( 'NONE',  ( 0.0000000000000000000, 0.0000000000000000000, -1.000000000000000000 ) ) ;
#219 = VERTEX_POINT ( 'NONE', #68 ) ;
#220 = DIRECTION ( 'NONE',  ( 1.000000000000000000, 0.0000000000000000000, 0.0000000000000000000 ) ) ;
#221 = CIRCLE ( 'NONE', #315, 0.02854350000000000637 ) ;
#222 = PRESENTATION_LAYER_ASSIGNMENT (  '', '', ( #244 ) ) ;
#223 = VERTEX_POINT ( 'NONE', #271 ) ;
#224 = DIRECTION ( 'NONE',  ( -1.000000000000000000, 0.0000000000000000000, 0.0000000000000000000 ) ) ;
#225 = EDGE_CURVE ( 'NONE', #273, #210, #342, .T. ) ;
#226 = CARTESIAN_POINT ( 'NONE',  ( 0.0000000000000000000, 0.0000000000000000000, 2.244094000000000033 ) ) ;
#227 = CARTESIAN_POINT ( 'NONE',  ( 0.0000000000000000000, 0.0000000000000000000, 0.0000000000000000000 ) ) ;
#228 = DIRECTION ( 'NONE',  ( -0.0000000000000000000, -0.0000000000000000000, -1.000000000000000000 ) ) ;
#229 = EDGE_CURVE ( 'NONE', #101, #126, #175, .T. ) ;
#230 = AXIS2_PLACEMENT_3D ( 'NONE', #63, #279, #155 ) ;
#231 = FILL_AREA_STYLE ('',( #330 ) ) ;
#232 = EDGE_CURVE ( 'NONE', #121, #322, #221, .T. ) ;
#233 = SURFACE_STYLE_FILL_AREA ( #113 ) ;
#234 = DIRECTION ( 'NONE',  ( -1.000000000000000000, 0.0000000000000000000, 0.0000000000000000000 ) ) ;
#235 =( LENGTH_UNIT ( ) NAMED_UNIT ( * ) SI_UNIT ( $, .METRE. ) );
#236 = DIRECTION ( 'NONE',  ( -1.000000000000000000, 0.0000000000000000000, 0.0000000000000000000 ) ) ;
#237 = AXIS2_PLACEMENT_3D ( 'NONE', #124, #71, #311 ) ;
#238 = CARTESIAN_POINT ( 'NONE',  ( -0.02854350000000003412, 0.0000000000000000000, 0.2755909999999999749 ) ) ;
#239 = CARTESIAN_POINT ( 'NONE',  ( 0.1031100000000002570, 1.262733314600838667E-17, 2.244094000000000033 ) ) ;
#240 = DIRECTION ( 'NONE',  ( -0.1736481776669310528, 0.0000000000000000000, -0.9848077530122080203 ) ) ;
#241 = VERTEX_POINT ( 'NONE', #182 ) ;
#242 = CARTESIAN_POINT ( 'NONE',  ( 0.0000000000000000000, 0.0000000000000000000, 0.2755909999999999749 ) ) ;
#243 = CONICAL_SURFACE ( 'NONE', #77, 0.1031100000000002570, 0.7853981633974318477 ) ;
#244 = STYLED_ITEM ( 'NONE', ( #172 ), #75 ) ;
#245 = ADVANCED_FACE ( 'NONE', ( #308 ), #243, .T. ) ;
#246 = ORIENTED_EDGE ( 'NONE', *, *, #200, .F. ) ;
#247 = CARTESIAN_POINT ( 'NONE',  ( -0.02952454724999999808, 0.0000000000000000000, 0.05905500000000000332 ) ) ;
#248 = UNCERTAINTY_MEASURE_WITH_UNIT (LENGTH_MEASURE( 1.000000000000000082E-05 ), #28, 'distance_accuracy_value', 'NONE');
#249 = ORIENTED_EDGE ( 'NONE', *, *, #302, .F. ) ;
#250 = CARTESIAN_POINT ( 'NONE',  ( -0.02854350000000000637, 0.0000000000000000000, 0.06461879543311090102 ) ) ;
#251 = ORIENTED_EDGE ( 'NONE', *, *, #253, .F. ) ;
#252 = FACE_OUTER_BOUND ( 'NONE', #310, .T. ) ;
#253 = EDGE_CURVE ( 'NONE', #10, #241, #192, .T. ) ;
#254 = EDGE_LOOP ( 'NONE', ( #67, #337, #290, #104 ) ) ;
#255 = DIRECTION ( 'NONE',  ( 1.000000000000000000, 0.0000000000000000000, 0.0000000000000000000 ) ) ;
#256 = DIRECTION ( 'NONE',  ( 0.0000000000000000000, 0.0000000000000000000, 1.000000000000000000 ) ) ;
#257 = CIRCLE ( 'NONE', #212, 0.02854350000000003412 ) ;
#258 =( LENGTH_UNIT ( ) NAMED_UNIT ( * ) SI_UNIT ( $, .METRE. ) );
#259 = CARTESIAN_POINT ( 'NONE',  ( 0.0000000000000000000, 0.0000000000000000000, 0.2755909999999999749 ) ) ;
#260 = EDGE_CURVE ( 'NONE', #241, #322, #43, .T. ) ;
#261 = VECTOR ( 'NONE', #17, 39.37007874015748143 ) ;
#262 = AXIS2_PLACEMENT_3D ( 'NONE', #187, #14, #122 ) ;
#263 = DIRECTION ( 'NONE',  ( -1.000000000000000000, 0.0000000000000000000, 0.0000000000000000000 ) ) ;
#264 = LINE ( 'NONE', #8, #358 ) ;
#265 = CARTESIAN_POINT ( 'NONE',  ( 0.0000000000000000000, 0.0000000000000000000, 0.0000000000000000000 ) ) ;
#266 = EDGE_CURVE ( 'NONE', #210, #372, #134, .T. ) ;
#267 = AXIS2_PLACEMENT_3D ( 'NONE', #282, #195, #137 ) ;
#268 = ORIENTED_EDGE ( 'NONE', *, *, #225, .F. ) ;
#269 = LINE ( 'NONE', #105, #27 ) ;
#270 = VERTEX_POINT ( 'NONE', #247 ) ;
#271 = CARTESIAN_POINT ( 'NONE',  ( 0.02952454724999999808, 3.615714228598728577E-18, 0.05905500000000000332 ) ) ;
#272 = EDGE_CURVE ( 'NONE', #372, #210, #103, .T. ) ;
#273 = VERTEX_POINT ( 'NONE', #344 ) ;
#274 = CARTESIAN_POINT ( 'NONE',  ( 0.02854350000000002024, 3.495570591146250727E-18, 0.0000000000000000000 ) ) ;
#275 = AXIS2_PLACEMENT_3D ( 'NONE', #298, #323, #355 ) ;
#276 = ORIENTED_EDGE ( 'NONE', *, *, #173, .T. ) ;
#277 = CARTESIAN_POINT ( 'NONE',  ( 0.0000000000000000000, 0.0000000000000000000, 0.05905500000000000332 ) ) ;
#278 = ORIENTED_EDGE ( 'NONE', *, *, #96, .T. ) ;
#279 = DIRECTION ( 'NONE',  ( -0.0000000000000000000, -0.0000000000000000000, -1.000000000000000000 ) ) ;
#280 = PRODUCT_DEFINITION_SHAPE ( 'NONE', 'NONE',  #183 ) ;
#281 = ORIENTED_EDGE ( 'NONE', *, *, #200, .T. ) ;
#282 = CARTESIAN_POINT ( 'NONE',  ( 0.0000000000000000000, 0.0000000000000000000, 0.0000000000000000000 ) ) ;
#283 = AXIS2_PLACEMENT_3D ( 'NONE', #371, #364, #334 ) ;
#284 = CIRCLE ( 'NONE', #32, 0.02952454724999999808 ) ;
#285 = EDGE_LOOP ( 'NONE', ( #123, #39, #148, #216 ) ) ;
#286 = EDGE_CURVE ( 'NONE', #126, #101, #6, .T. ) ;
#287 = PRODUCT ( 'Micro_MMBM-015-7', 'Micro_MMBM-015-7', '', ( #89 ) ) ;
#288 = DIRECTION ( 'NONE',  ( 0.0000000000000000000, 0.0000000000000000000, -1.000000000000000000 ) ) ;
#289 = AXIS2_PLACEMENT_3D ( 'NONE', #291, #163, #135 ) ;
#290 = ORIENTED_EDGE ( 'NONE', *, *, #207, .T. ) ;
#291 = CARTESIAN_POINT ( 'NONE',  ( 0.0000000000000000000, 0.0000000000000000000, 2.244094000000000033 ) ) ;
#292 = EDGE_CURVE ( 'NONE', #365, #273, #319, .T. ) ;
#293 =( NAMED_UNIT ( * ) SI_UNIT ( $, .STERADIAN. ) SOLID_ANGLE_UNIT ( ) );
#294 = FACE_OUTER_BOUND ( 'NONE', #254, .T. ) ;
#295 = PRESENTATION_LAYER_ASSIGNMENT (  '', '', ( #202 ) ) ;
#296 = DIMENSIONAL_EXPONENTS ( 1.000000000000000000, 0.0000000000000000000, 0.0000000000000000000, 0.0000000000000000000, 0.0000000000000000000, 0.0000000000000000000, 0.0000000000000000000 ) ;
#297 = ADVANCED_FACE ( 'NONE', ( #349 ), #189, .T. ) ;
#298 = CARTESIAN_POINT ( 'NONE',  ( 0.0000000000000000000, 0.0000000000000000000, 0.0000000000000000000 ) ) ;
#299 = CONICAL_SURFACE ( 'NONE', #88, 0.02952454724999999808, 0.1745329251994336694 ) ;
#300 = LINE ( 'NONE', #35, #48 ) ;
#301 = EDGE_LOOP ( 'NONE', ( #251, #138 ) ) ;
#302 = EDGE_CURVE ( 'NONE', #360, #219, #162, .T. ) ;
#303 = CARTESIAN_POINT ( 'NONE',  ( 0.0000000000000000000, 0.0000000000000000000, 0.06461879543311090102 ) ) ;
#304 = ORIENTED_EDGE ( 'NONE', *, *, #217, .T. ) ;
#305 = CARTESIAN_POINT ( 'NONE',  ( -0.1181100000000000066, 0.0000000000000000000, 0.2755909999999999749 ) ) ;
#306 = EDGE_LOOP ( 'NONE', ( #36, #276, #214, #268 ) ) ;
#307 = CIRCLE ( 'NONE', #230, 0.02854350000000000637 ) ;
#308 = FACE_OUTER_BOUND ( 'NONE', #46, .T. ) ;
#309 = AXIS2_PLACEMENT_3D ( 'NONE', #313, #228, #133 ) ;
#310 = EDGE_LOOP ( 'NONE', ( #369, #343, #111, #166 ) ) ;
#311 = DIRECTION ( 'NONE',  ( -1.000000000000000000, 0.0000000000000000000, 0.0000000000000000000 ) ) ;
#312 = ORIENTED_EDGE ( 'NONE', *, *, #232, .T. ) ;
#313 = CARTESIAN_POINT ( 'NONE',  ( 0.0000000000000000000, 0.0000000000000000000, 0.05905500000000000332 ) ) ;
#314 = DIRECTION ( 'NONE',  ( -0.0000000000000000000, -0.0000000000000000000, -1.000000000000000000 ) ) ;
#315 = AXIS2_PLACEMENT_3D ( 'NONE', #303, #38, #177 ) ;
#316 = AXIS2_PLACEMENT_3D ( 'NONE', #50, #256, #47 ) ;
#317 = ADVANCED_FACE ( 'NONE', ( #108 ), #107, .T. ) ;
#318 = FACE_OUTER_BOUND ( 'NONE', #146, .T. ) ;
#319 = CIRCLE ( 'NONE', #351, 0.1181100000000000066 ) ;
#320 = EDGE_CURVE ( 'NONE', #322, #223, #374, .T. ) ;
#321 =( NAMED_UNIT ( * ) PLANE_ANGLE_UNIT ( ) SI_UNIT ( $, .RADIAN. ) );
#322 = VERTEX_POINT ( 'NONE', #24 ) ;
#323 = DIRECTION ( 'NONE',  ( -0.0000000000000000000, -0.0000000000000000000, -1.000000000000000000 ) ) ;
#324 = SHAPE_DEFINITION_REPRESENTATION ( #280, #75 ) ;
#325 = CARTESIAN_POINT ( 'NONE',  ( 0.02854350000000003412, 0.0000000000000000000, 0.2755909999999999749 ) ) ;
#326 = UNCERTAINTY_MEASURE_WITH_UNIT (LENGTH_MEASURE( 1.000000000000000082E-05 ), #33, 'distance_accuracy_value', 'NONE');
#327 = AXIS2_PLACEMENT_3D ( 'NONE', #277, #66, #174 ) ;
#328 = FACE_OUTER_BOUND ( 'NONE', #99, .T. ) ;
#329 = EDGE_CURVE ( 'NONE', #223, #270, #284, .T. ) ;
#330 = FILL_AREA_STYLE_COLOUR ( '', #376 ) ;
#331 = CARTESIAN_POINT ( 'NONE',  ( 0.0000000000000000000, 0.0000000000000000000, 2.229093999999999465 ) ) ;
#332 = ORIENTED_EDGE ( 'NONE', *, *, #80, .F. ) ;
#333 = AXIS2_PLACEMENT_3D ( 'NONE', #227, #79, #21 ) ;
#334 = DIRECTION ( 'NONE',  ( -1.000000000000000000, 0.0000000000000000000, 0.0000000000000000000 ) ) ;
#335 = ORIENTED_EDGE ( 'NONE', *, *, #207, .F. ) ;
#336 = DIRECTION ( 'NONE',  ( -0.0000000000000000000, -0.0000000000000000000, -1.000000000000000000 ) ) ;
#337 = ORIENTED_EDGE ( 'NONE', *, *, #132, .T. ) ;
#338 = AXIS2_PLACEMENT_3D ( 'NONE', #265, #91, #90 ) ;
#339 = CARTESIAN_POINT ( 'NONE',  ( -0.1181100000000000066, 0.0000000000000000000, 2.244094000000000033 ) ) ;
#340 = ORIENTED_EDGE ( 'NONE', *, *, #302, .T. ) ;
#341 = MECHANICAL_DESIGN_GEOMETRIC_PRESENTATION_REPRESENTATION (  '', ( #202 ), #41 ) ;
#342 = LINE ( 'NONE', #339, #161 ) ;
#343 = ORIENTED_EDGE ( 'NONE', *, *, #329, .T. ) ;
#344 = CARTESIAN_POINT ( 'NONE',  ( -0.1181100000000000066, 0.0000000000000000000, 2.229093999999999465 ) ) ;
#345 = DIRECTION ( 'NONE',  ( 1.000000000000000000, 0.0000000000000000000, 0.0000000000000000000 ) ) ;
#346 = ADVANCED_FACE ( 'NONE', ( #190 ), #375, .T. ) ;
#347 = CARTESIAN_POINT ( 'NONE',  ( 0.02952454724999999808, 3.615714228598728577E-18, 0.05905500000000000332 ) ) ;
#348 = AXIS2_PLACEMENT_3D ( 'NONE', #242, #149, #127 ) ;
#349 = FACE_OUTER_BOUND ( 'NONE', #18, .T. ) ;
#350 = LENGTH_MEASURE_WITH_UNIT ( LENGTH_MEASURE( 0.02539999999999999897 ), #258 );
#351 = AXIS2_PLACEMENT_3D ( 'NONE', #81, #288, #255 ) ;
#352 = SURFACE_SIDE_STYLE ('',( #233 ) ) ;
#353 = PLANE ( 'NONE',  #191 ) ;
#354 =( NAMED_UNIT ( * ) SI_UNIT ( $, .STERADIAN. ) SOLID_ANGLE_UNIT ( ) );
#355 = DIRECTION ( 'NONE',  ( -1.000000000000000000, 0.0000000000000000000, 0.0000000000000000000 ) ) ;
#356 = ADVANCED_FACE ( 'NONE', ( #318 ), #158, .T. ) ;
#357 = CYLINDRICAL_SURFACE ( 'NONE', #120, 0.1181100000000000066 ) ;
#358 = VECTOR ( 'NONE', #116, 39.37007874015748143 ) ;
#359 = VECTOR ( 'NONE', #130, 39.37007874015748854 ) ;
#360 = VERTEX_POINT ( 'NONE', #159 ) ;
#361 = LINE ( 'NONE', #239, #128 ) ;
#362 = ORIENTED_EDGE ( 'NONE', *, *, #272, .F. ) ;
#363 = EDGE_CURVE ( 'NONE', #270, #126, #160, .T. ) ;
#364 = DIRECTION ( 'NONE',  ( -0.0000000000000000000, -0.0000000000000000000, -1.000000000000000000 ) ) ;
#365 = VERTEX_POINT ( 'NONE', #193 ) ;
#366 = MECHANICAL_DESIGN_GEOMETRIC_PRESENTATION_REPRESENTATION (  '', ( #244 ), #377 ) ;
#367 = DIRECTION ( 'NONE',  ( 0.0000000000000000000, 0.0000000000000000000, 1.000000000000000000 ) ) ;
#368 = ORIENTED_EDGE ( 'NONE', *, *, #260, .F. ) ;
#369 = ORIENTED_EDGE ( 'NONE', *, *, #65, .F. ) ;
#370 = ADVANCED_FACE ( 'NONE', ( #157 ), #69, .T. ) ;
#371 = CARTESIAN_POINT ( 'NONE',  ( 0.0000000000000000000, 0.0000000000000000000, 0.0000000000000000000 ) ) ;
#372 = VERTEX_POINT ( 'NONE', #106 ) ;
#373 = CARTESIAN_POINT ( 'NONE',  ( 0.0000000000000000000, 0.0000000000000000000, 0.0000000000000000000 ) ) ;
#374 = LINE ( 'NONE', #347, #359 ) ;
#375 = CYLINDRICAL_SURFACE ( 'NONE', #333, 0.02854350000000002024 ) ;
#376 = COLOUR_RGB ( '',0.7921568627450980005, 0.8196078431372548767, 0.9333333333333333481 ) ;
#377 =( GEOMETRIC_REPRESENTATION_CONTEXT ( 3 ) GLOBAL_UNCERTAINTY_ASSIGNED_CONTEXT ( ( #209 ) ) GLOBAL_UNIT_ASSIGNED_CONTEXT ( ( #143, #321, #354 ) ) REPRESENTATION_CONTEXT ( 'NONE', 'WORKASPACE' ) );
#378 = CARTESIAN_POINT ( 'NONE',  ( 0.0000000000000000000, 0.0000000000000000000, 2.244094000000000033 ) ) ;
#379 = DIRECTION ( 'NONE',  ( -1.000000000000000000, 0.0000000000000000000, 0.0000000000000000000 ) ) ;
ENDSEC;
END-ISO-10303-21;
