ISO-10303-21;
HEADER;
FILE_DESCRIPTION (( 'STEP AP214' ),
    '1' );
FILE_NAME ('83202.STEP',
    '2023-06-23T08:35:06',
    ( '' ),
    ( '' ),
    'SwSTEP 2.0',
    'SolidWorks 2023',
    '' );
FILE_SCHEMA (( 'AUTOMOTIVE_DESIGN' ));
ENDSEC;

DATA;
#1 = COLOUR_RGB ( '',0.7921568627450980005, 0.8196078431372548767, 0.9333333333333333481 ) ;
#2 = STYLED_ITEM ( 'NONE', ( #52 ), #136 ) ;
#3 = CARTESIAN_POINT ( 'NONE',  ( 0.000000000000000000, 0.000000000000000000, -0.2500000000000000000 ) ) ;
#4 = DIRECTION ( 'NONE',  ( -1.000000000000000000, 0.000000000000000000, 0.000000000000000000 ) ) ;
#5 = DIRECTION ( 'NONE',  ( -1.000000000000000000, 0.000000000000000000, 0.000000000000000000 ) ) ;
#6 = DIRECTION ( 'NONE',  ( -6.123233995736763571E-17, 1.000000000000000000, -0.000000000000000000 ) ) ;
#7 =( NAMED_UNIT ( * ) SI_UNIT ( $, .STERADIAN. ) SOLID_ANGLE_UNIT ( ) );
#8 = CARTESIAN_POINT ( 'NONE',  ( -1.224646799147352714E-16, 4.000000000000000000, 0.000000000000000000 ) ) ;
#9 = PLANE ( 'NONE',  #288 ) ;
#10 = ORIENTED_EDGE ( 'NONE', *, *, #196, .F. ) ;
#11 = VECTOR ( 'NONE', #254, 39.37007874015748143 ) ;
#12 = ORIENTED_EDGE ( 'NONE', *, *, #240, .F. ) ;
#13 = ORIENTED_EDGE ( 'NONE', *, *, #48, .T. ) ;
#14 = CIRCLE ( 'NONE', #282, 0.2500000000000000000 ) ;
#15 = SURFACE_STYLE_USAGE ( .BOTH. , #302 ) ;
#16 = SURFACE_STYLE_USAGE ( .BOTH. , #18 ) ;
#17 = PLANE ( 'NONE',  #216 ) ;
#18 = SURFACE_SIDE_STYLE ('',( #209 ) ) ;
#19 =( NAMED_UNIT ( * ) SI_UNIT ( $, .STERADIAN. ) SOLID_ANGLE_UNIT ( ) );
#20 = ADVANCED_FACE ( 'NONE', ( #204 ), #62, .T. ) ;
#21 = AXIS2_PLACEMENT_3D ( 'NONE', #159, #179, #77 ) ;
#22 = PRESENTATION_LAYER_ASSIGNMENT (  '', '', ( #2 ) ) ;
#23 =( CONVERSION_BASED_UNIT ( 'INCH', #185 ) LENGTH_UNIT ( ) NAMED_UNIT ( #273 ) );
#24 = CARTESIAN_POINT ( 'NONE',  ( 0.000000000000000000, 0.000000000000000000, 0.000000000000000000 ) ) ;
#25 = DIMENSIONAL_EXPONENTS ( 1.000000000000000000, 0.000000000000000000, 0.000000000000000000, 0.000000000000000000, 0.000000000000000000, 0.000000000000000000, 0.000000000000000000 ) ;
#26 = CARTESIAN_POINT ( 'NONE',  ( 3.061616997868383018E-17, 2.000000000000000000, 0.2500000000000000000 ) ) ;
#27 = MECHANICAL_DESIGN_GEOMETRIC_PRESENTATION_REPRESENTATION (  '', ( #239 ), #256 ) ;
#28 = LINE ( 'NONE', #3, #121 ) ;
#29 = CARTESIAN_POINT ( 'NONE',  ( 0.2500000000000000555, 4.000000000000000000, 3.061616997868384251E-17 ) ) ;
#30 = FACE_OUTER_BOUND ( 'NONE', #247, .T. ) ;
#31 = SHAPE_DEFINITION_REPRESENTATION ( #89, #253 ) ;
#32 =( NAMED_UNIT ( * ) PLANE_ANGLE_UNIT ( ) SI_UNIT ( $, .RADIAN. ) );
#33 = APPLICATION_CONTEXT ( 'automotive_design' ) ;
#34 =( NAMED_UNIT ( * ) PLANE_ANGLE_UNIT ( ) SI_UNIT ( $, .RADIAN. ) );
#35 = MANIFOLD_SOLID_BREP ( 'Revolve - Cutting Edge', #80 ) ;
#36 = ADVANCED_FACE ( 'NONE', ( #91 ), #9, .F. ) ;
#37 = ORIENTED_EDGE ( 'NONE', *, *, #75, .T. ) ;
#38 = MECHANICAL_DESIGN_GEOMETRIC_PRESENTATION_REPRESENTATION (  '', ( #175 ), #113 ) ;
#39 = ORIENTED_EDGE ( 'NONE', *, *, #151, .F. ) ;
#40 = SURFACE_STYLE_FILL_AREA ( #249 ) ;
#41 = ADVANCED_FACE ( 'NONE', ( #305 ), #17, .T. ) ;
#42 = ORIENTED_EDGE ( 'NONE', *, *, #151, .T. ) ;
#43 = EDGE_LOOP ( 'NONE', ( #102, #222 ) ) ;
#44 = CIRCLE ( 'NONE', #202, 0.2500000000000001110 ) ;
#45 = LINE ( 'NONE', #67, #180 ) ;
#46 = FILL_AREA_STYLE_COLOUR ( '', #281 ) ;
#47 = MECHANICAL_DESIGN_GEOMETRIC_PRESENTATION_REPRESENTATION (  '', ( #268 ), #130 ) ;
#48 = EDGE_CURVE ( 'NONE', #135, #201, #45, .T. ) ;
#49 = FACE_OUTER_BOUND ( 'NONE', #178, .T. ) ;
#50 = DIRECTION ( 'NONE',  ( -6.123233995736763571E-17, 1.000000000000000000, -0.000000000000000000 ) ) ;
#51 = CARTESIAN_POINT ( 'NONE',  ( 0.2500000000000000555, 2.000000000000000000, 3.061616997868384251E-17 ) ) ;
#52 = PRESENTATION_STYLE_ASSIGNMENT (( #143 ) ) ;
#53 =( NAMED_UNIT ( * ) SI_UNIT ( $, .STERADIAN. ) SOLID_ANGLE_UNIT ( ) );
#54 =( GEOMETRIC_REPRESENTATION_CONTEXT ( 3 ) GLOBAL_UNCERTAINTY_ASSIGNED_CONTEXT ( ( #292 ) ) GLOBAL_UNIT_ASSIGNED_CONTEXT ( ( #94, #32, #7 ) ) REPRESENTATION_CONTEXT ( 'NONE', 'WORKASPACE' ) );
#55 = CARTESIAN_POINT ( 'NONE',  ( 1.516480271171051896E-32, 2.000000000000000000, 0.000000000000000000 ) ) ;
#56 = CARTESIAN_POINT ( 'NONE',  ( -0.2500000000000002776, 4.000000000000000000, 0.000000000000000000 ) ) ;
#57 = CYLINDRICAL_SURFACE ( 'NONE', #303, 0.2500000000000000555 ) ;
#58 = EDGE_LOOP ( 'NONE', ( #298, #245 ) ) ;
#59 = EDGE_CURVE ( 'NONE', #201, #182, #231, .T. ) ;
#60 = SURFACE_SIDE_STYLE ('',( #40 ) ) ;
#61 = ORIENTED_EDGE ( 'NONE', *, *, #196, .T. ) ;
#62 = CYLINDRICAL_SURFACE ( 'NONE', #21, 0.2500000000000000555 ) ;
#63 = PRESENTATION_STYLE_ASSIGNMENT (( #15 ) ) ;
#64 = SURFACE_STYLE_USAGE ( .BOTH. , #169 ) ;
#65 = CARTESIAN_POINT ( 'NONE',  ( 0.000000000000000000, 2.000000000000000000, 0.000000000000000000 ) ) ;
#66 = ADVANCED_FACE ( 'NONE', ( #187 ), #208, .T. ) ;
#67 = CARTESIAN_POINT ( 'NONE',  ( 3.061616997868383018E-17, 0.000000000000000000, 0.2500000000000000000 ) ) ;
#68 = CIRCLE ( 'NONE', #160, 0.2500000000000000000 ) ;
#69 =( GEOMETRIC_REPRESENTATION_CONTEXT ( 3 ) GLOBAL_UNCERTAINTY_ASSIGNED_CONTEXT ( ( #153 ) ) GLOBAL_UNIT_ASSIGNED_CONTEXT ( ( #74, #34, #53 ) ) REPRESENTATION_CONTEXT ( 'NONE', 'WORKASPACE' ) );
#70 = CARTESIAN_POINT ( 'NONE',  ( 0.000000000000000000, 0.000000000000000000, 0.000000000000000000 ) ) ;
#71 = CARTESIAN_POINT ( 'NONE',  ( 0.000000000000000000, 0.000000000000000000, 0.000000000000000000 ) ) ;
#72 = DIRECTION ( 'NONE',  ( -6.123233995736763571E-17, 1.000000000000000000, -0.000000000000000000 ) ) ;
#73 = CARTESIAN_POINT ( 'NONE',  ( 0.000000000000000000, 0.000000000000000000, 0.000000000000000000 ) ) ;
#74 =( CONVERSION_BASED_UNIT ( 'INCH', #262 ) LENGTH_UNIT ( ) NAMED_UNIT ( #224 ) );
#75 = EDGE_CURVE ( 'NONE', #82, #266, #127, .T. ) ;
#76 = AXIS2_PLACEMENT_3D ( 'NONE', #125, #286, #172 ) ;
#77 = DIRECTION ( 'NONE',  ( -1.000000000000000000, 0.000000000000000000, 0.000000000000000000 ) ) ;
#78 = LENGTH_MEASURE_WITH_UNIT ( LENGTH_MEASURE( 0.02539999999999999897 ), #200 );
#79 = ORIENTED_EDGE ( 'NONE', *, *, #75, .F. ) ;
#80 = CLOSED_SHELL ( 'NONE', ( #136, #66, #226, #41 ) ) ;
#81 = AXIS2_PLACEMENT_3D ( 'NONE', #70, #227, #257 ) ;
#82 = VERTEX_POINT ( 'NONE', #56 ) ;
#83 = ORIENTED_EDGE ( 'NONE', *, *, #85, .F. ) ;
#84 = FILL_AREA_STYLE ('',( #232 ) ) ;
#85 = EDGE_CURVE ( 'NONE', #132, #182, #28, .T. ) ;
#86 = DIMENSIONAL_EXPONENTS ( 1.000000000000000000, 0.000000000000000000, 0.000000000000000000, 0.000000000000000000, 0.000000000000000000, 0.000000000000000000, 0.000000000000000000 ) ;
#87 = CARTESIAN_POINT ( 'NONE',  ( 0.000000000000000000, 2.000000000000000000, 0.000000000000000000 ) ) ;
#88 = AXIS2_PLACEMENT_3D ( 'NONE', #87, #211, #306 ) ;
#89 = PRODUCT_DEFINITION_SHAPE ( 'NONE', 'NONE',  #285 ) ;
#90 = LINE ( 'NONE', #115, #264 ) ;
#91 = FACE_OUTER_BOUND ( 'NONE', #270, .T. ) ;
#92 = DIRECTION ( 'NONE',  ( -6.123233995736763571E-17, 1.000000000000000000, -0.000000000000000000 ) ) ;
#93 =( LENGTH_UNIT ( ) NAMED_UNIT ( * ) SI_UNIT ( $, .METRE. ) );
#94 =( CONVERSION_BASED_UNIT ( 'INCH', #145 ) LENGTH_UNIT ( ) NAMED_UNIT ( #86 ) );
#95 = DIRECTION ( 'NONE',  ( -6.123233995736763571E-17, 1.000000000000000000, 0.000000000000000000 ) ) ;
#96 = UNCERTAINTY_MEASURE_WITH_UNIT (LENGTH_MEASURE( 1.000000000000000082E-05 ), #103, 'distance_accuracy_value', 'NONE');
#97 = DIRECTION ( 'NONE',  ( -1.000000000000000000, 0.000000000000000000, 0.000000000000000000 ) ) ;
#98 = CARTESIAN_POINT ( 'NONE',  ( 0.000000000000000000, 0.000000000000000000, 0.000000000000000000 ) ) ;
#99 = DIRECTION ( 'NONE',  ( -1.000000000000000000, 0.000000000000000000, 0.000000000000000000 ) ) ;
#100 = FILL_AREA_STYLE_COLOUR ( '', #1 ) ;
#101 = COLOUR_RGB ( '',1.000000000000000000, 0.000000000000000000, 0.000000000000000000 ) ;
#102 = ORIENTED_EDGE ( 'NONE', *, *, #104, .T. ) ;
#103 =( CONVERSION_BASED_UNIT ( 'INCH', #78 ) LENGTH_UNIT ( ) NAMED_UNIT ( #25 ) );
#104 = EDGE_CURVE ( 'NONE', #182, #201, #223, .T. ) ;
#105 = ORIENTED_EDGE ( 'NONE', *, *, #104, .F. ) ;
#106 = MECHANICAL_DESIGN_GEOMETRIC_PRESENTATION_REPRESENTATION (  '', ( #220 ), #259 ) ;
#107 = ORIENTED_EDGE ( 'NONE', *, *, #168, .F. ) ;
#108 =( LENGTH_UNIT ( ) NAMED_UNIT ( * ) SI_UNIT ( $, .METRE. ) );
#109 = PRESENTATION_STYLE_ASSIGNMENT (( #64 ) ) ;
#110 = FILL_AREA_STYLE ('',( #166 ) ) ;
#111 =( CONVERSION_BASED_UNIT ( 'INCH', #230 ) LENGTH_UNIT ( ) NAMED_UNIT ( #250 ) );
#112 = SURFACE_STYLE_FILL_AREA ( #84 ) ;
#113 =( GEOMETRIC_REPRESENTATION_CONTEXT ( 3 ) GLOBAL_UNCERTAINTY_ASSIGNED_CONTEXT ( ( #217 ) ) GLOBAL_UNIT_ASSIGNED_CONTEXT ( ( #111, #252, #117 ) ) REPRESENTATION_CONTEXT ( 'NONE', 'WORKASPACE' ) );
#114 = AXIS2_PLACEMENT_3D ( 'NONE', #98, #218, #149 ) ;
#115 = CARTESIAN_POINT ( 'NONE',  ( -0.2500000000000002220, 4.000000000000000000, 0.000000000000000000 ) ) ;
#116 = DIRECTION ( 'NONE',  ( 6.123233995736763571E-17, -1.000000000000000000, 0.000000000000000000 ) ) ;
#117 =( NAMED_UNIT ( * ) SI_UNIT ( $, .STERADIAN. ) SOLID_ANGLE_UNIT ( ) );
#118 = DIRECTION ( 'NONE',  ( 0.000000000000000000, 0.000000000000000000, -1.000000000000000000 ) ) ;
#119 = CARTESIAN_POINT ( 'NONE',  ( -1.224646799147352714E-16, 4.000000000000000000, 0.000000000000000000 ) ) ;
#120 = PRESENTATION_LAYER_ASSIGNMENT (  '', '', ( #263 ) ) ;
#121 = VECTOR ( 'NONE', #150, 39.37007874015748143 ) ;
#122 = APPLICATION_PROTOCOL_DEFINITION ( 'draft international standard', 'automotive_design', 1998, #205 ) ;
#123 = EDGE_CURVE ( 'NONE', #221, #219, #68, .T. ) ;
#124 = CARTESIAN_POINT ( 'NONE',  ( 4.686749320818301603E-34, 2.000000000000000000, 0.000000000000000000 ) ) ;
#125 = CARTESIAN_POINT ( 'NONE',  ( 0.000000000000000000, 2.000000000000000000, 0.000000000000000000 ) ) ;
#126 = ADVANCED_FACE ( 'NONE', ( #258 ), #213, .F. ) ;
#127 = CIRCLE ( 'NONE', #199, 0.2500000000000001110 ) ;
#128 = CARTESIAN_POINT ( 'NONE',  ( 1.516480271171051896E-32, 2.000000000000000000, 0.000000000000000000 ) ) ;
#129 = EDGE_LOOP ( 'NONE', ( #12, #107 ) ) ;
#130 =( GEOMETRIC_REPRESENTATION_CONTEXT ( 3 ) GLOBAL_UNCERTAINTY_ASSIGNED_CONTEXT ( ( #146 ) ) GLOBAL_UNIT_ASSIGNED_CONTEXT ( ( #161, #141, #235 ) ) REPRESENTATION_CONTEXT ( 'NONE', 'WORKASPACE' ) );
#131 = PRESENTATION_LAYER_ASSIGNMENT (  '', '', ( #175 ) ) ;
#132 = VERTEX_POINT ( 'NONE', #241 ) ;
#133 = ORIENTED_EDGE ( 'NONE', *, *, #48, .F. ) ;
#134 = UNCERTAINTY_MEASURE_WITH_UNIT (LENGTH_MEASURE( 1.000000000000000082E-05 ), #23, 'distance_accuracy_value', 'NONE');
#135 = VERTEX_POINT ( 'NONE', #26 ) ;
#136 = ADVANCED_FACE ( 'NONE', ( #30 ), #197, .T. ) ;
#137 =( CONVERSION_BASED_UNIT ( 'INCH', #307 ) LENGTH_UNIT ( ) NAMED_UNIT ( #277 ) );
#138 =( NAMED_UNIT ( * ) SI_UNIT ( $, .STERADIAN. ) SOLID_ANGLE_UNIT ( ) );
#139 = COLOUR_RGB ( '',1.000000000000000000, 0.000000000000000000, 0.000000000000000000 ) ;
#140 = SURFACE_STYLE_FILL_AREA ( #212 ) ;
#141 =( NAMED_UNIT ( * ) PLANE_ANGLE_UNIT ( ) SI_UNIT ( $, .RADIAN. ) );
#142 = CARTESIAN_POINT ( 'NONE',  ( 0.000000000000000000, 0.000000000000000000, 0.000000000000000000 ) ) ;
#143 = SURFACE_STYLE_USAGE ( .BOTH. , #243 ) ;
#144 = CARTESIAN_POINT ( 'NONE',  ( -0.2500000000000000000, 2.000000000000000000, 0.000000000000000000 ) ) ;
#145 = LENGTH_MEASURE_WITH_UNIT ( LENGTH_MEASURE( 0.02539999999999999897 ), #170 );
#146 = UNCERTAINTY_MEASURE_WITH_UNIT (LENGTH_MEASURE( 1.000000000000000082E-05 ), #161, 'distance_accuracy_value', 'NONE');
#147 = CIRCLE ( 'NONE', #88, 0.2500000000000000000 ) ;
#148 = DIRECTION ( 'NONE',  ( -1.000000000000000000, -6.123233995736763571E-17, 0.000000000000000000 ) ) ;
#149 = DIRECTION ( 'NONE',  ( 1.000000000000000000, 0.000000000000000000, 0.000000000000000000 ) ) ;
#150 = DIRECTION ( 'NONE',  ( -0.000000000000000000, -1.000000000000000000, -0.000000000000000000 ) ) ;
#151 = EDGE_CURVE ( 'NONE', #266, #82, #44, .T. ) ;
#152 = PRODUCT_DEFINITION_FORMATION_WITH_SPECIFIED_SOURCE ( 'ANY', '', #203, .NOT_KNOWN. ) ;
#153 = UNCERTAINTY_MEASURE_WITH_UNIT (LENGTH_MEASURE( 1.000000000000000082E-05 ), #74, 'distance_accuracy_value', 'NONE');
#154 = PRESENTATION_STYLE_ASSIGNMENT (( #198 ) ) ;
#155 = EDGE_LOOP ( 'NONE', ( #295, #176, #79, #10 ) ) ;
#156 = AXIS2_PLACEMENT_3D ( 'NONE', #142, #276, #118 ) ;
#157 =( NAMED_UNIT ( * ) PLANE_ANGLE_UNIT ( ) SI_UNIT ( $, .RADIAN. ) );
#158 = ORIENTED_EDGE ( 'NONE', *, *, #85, .T. ) ;
#159 = CARTESIAN_POINT ( 'NONE',  ( -1.224646799147352714E-16, 4.000000000000000000, 0.000000000000000000 ) ) ;
#160 = AXIS2_PLACEMENT_3D ( 'NONE', #55, #237, #4 ) ;
#161 =( CONVERSION_BASED_UNIT ( 'INCH', #163 ) LENGTH_UNIT ( ) NAMED_UNIT ( #183 ) );
#162 =( LENGTH_UNIT ( ) NAMED_UNIT ( * ) SI_UNIT ( $, .METRE. ) );
#163 = LENGTH_MEASURE_WITH_UNIT ( LENGTH_MEASURE( 0.02539999999999999897 ), #255 );
#164 = FILL_AREA_STYLE_COLOUR ( '', #139 ) ;
#165 = DIRECTION ( 'NONE',  ( 1.000000000000000000, 6.123233995736763571E-17, 0.000000000000000000 ) ) ;
#166 = FILL_AREA_STYLE_COLOUR ( '', #195 ) ;
#167 = MECHANICAL_DESIGN_GEOMETRIC_PRESENTATION_REPRESENTATION (  '', ( #2 ), #54 ) ;
#168 = EDGE_CURVE ( 'NONE', #135, #132, #147, .T. ) ;
#169 = SURFACE_SIDE_STYLE ('',( #140 ) ) ;
#170 =( LENGTH_UNIT ( ) NAMED_UNIT ( * ) SI_UNIT ( $, .METRE. ) );
#171 =( LENGTH_UNIT ( ) NAMED_UNIT ( * ) SI_UNIT ( $, .METRE. ) );
#172 = DIRECTION ( 'NONE',  ( 0.000000000000000000, -0.000000000000000000, 1.000000000000000000 ) ) ;
#173 = PRODUCT_RELATED_PRODUCT_CATEGORY ( 'part', '', ( #203 ) ) ;
#174 = DIRECTION ( 'NONE',  ( -0.000000000000000000, -1.000000000000000000, -0.000000000000000000 ) ) ;
#175 = STYLED_ITEM ( 'NONE', ( #109 ), #233 ) ;
#176 = ORIENTED_EDGE ( 'NONE', *, *, #177, .T. ) ;
#177 = EDGE_CURVE ( 'NONE', #219, #266, #234, .T. ) ;
#178 = EDGE_LOOP ( 'NONE', ( #133, #248, #158, #301 ) ) ;
#179 = DIRECTION ( 'NONE',  ( -6.123233995736763571E-17, 1.000000000000000000, -0.000000000000000000 ) ) ;
#180 = VECTOR ( 'NONE', #206, 39.37007874015748143 ) ;
#181 = ORIENTED_EDGE ( 'NONE', *, *, #177, .F. ) ;
#182 = VERTEX_POINT ( 'NONE', #278 ) ;
#183 = DIMENSIONAL_EXPONENTS ( 1.000000000000000000, 0.000000000000000000, 0.000000000000000000, 0.000000000000000000, 0.000000000000000000, 0.000000000000000000, 0.000000000000000000 ) ;
#184 = SURFACE_STYLE_USAGE ( .BOTH. , #210 ) ;
#185 = LENGTH_MEASURE_WITH_UNIT ( LENGTH_MEASURE( 0.02539999999999999897 ), #93 );
#186 = CLOSED_SHELL ( 'NONE', ( #20, #126, #261, #36 ) ) ;
#187 = FACE_OUTER_BOUND ( 'NONE', #129, .T. ) ;
#188 = DIRECTION ( 'NONE',  ( -1.000000000000000000, 0.000000000000000000, 0.000000000000000000 ) ) ;
#189 = CARTESIAN_POINT ( 'NONE',  ( 3.061616997868383018E-17, 0.000000000000000000, 0.2500000000000000000 ) ) ;
#190 = AXIS2_PLACEMENT_3D ( 'NONE', #65, #291, #193 ) ;
#191 = FILL_AREA_STYLE ('',( #284 ) ) ;
#192 = DIRECTION ( 'NONE',  ( -0.000000000000000000, -1.000000000000000000, -0.000000000000000000 ) ) ;
#193 = DIRECTION ( 'NONE',  ( 0.000000000000000000, 0.000000000000000000, -1.000000000000000000 ) ) ;
#194 = DIRECTION ( 'NONE',  ( 0.000000000000000000, 0.000000000000000000, -1.000000000000000000 ) ) ;
#195 = COLOUR_RGB ( '',1.000000000000000000, 0.000000000000000000, 0.000000000000000000 ) ;
#196 = EDGE_CURVE ( 'NONE', #221, #82, #90, .T. ) ;
#197 = CYLINDRICAL_SURFACE ( 'NONE', #275, 0.2500000000000000000 ) ;
#198 = SURFACE_STYLE_USAGE ( .BOTH. , #60 ) ;
#199 = AXIS2_PLACEMENT_3D ( 'NONE', #215, #72, #5 ) ;
#200 =( LENGTH_UNIT ( ) NAMED_UNIT ( * ) SI_UNIT ( $, .METRE. ) );
#201 = VERTEX_POINT ( 'NONE', #189 ) ;
#202 = AXIS2_PLACEMENT_3D ( 'NONE', #119, #50, #188 ) ;
#203 = PRODUCT ( '83202', '83202', '', ( #214 ) ) ;
#204 = FACE_OUTER_BOUND ( 'NONE', #155, .T. ) ;
#205 = APPLICATION_CONTEXT ( 'automotive_design' ) ;
#206 = DIRECTION ( 'NONE',  ( -0.000000000000000000, -1.000000000000000000, -0.000000000000000000 ) ) ;
#207 =( NAMED_UNIT ( * ) PLANE_ANGLE_UNIT ( ) SI_UNIT ( $, .RADIAN. ) );
#208 = PLANE ( 'NONE',  #76 ) ;
#209 = SURFACE_STYLE_FILL_AREA ( #280 ) ;
#210 = SURFACE_SIDE_STYLE ('',( #274 ) ) ;
#211 = DIRECTION ( 'NONE',  ( -0.000000000000000000, -1.000000000000000000, -0.000000000000000000 ) ) ;
#212 = FILL_AREA_STYLE ('',( #46 ) ) ;
#213 = PLANE ( 'NONE',  #300 ) ;
#214 = PRODUCT_CONTEXT ( 'NONE', #33, 'mechanical' ) ;
#215 = CARTESIAN_POINT ( 'NONE',  ( -1.224646799147352714E-16, 4.000000000000000000, 0.000000000000000000 ) ) ;
#216 = AXIS2_PLACEMENT_3D ( 'NONE', #24, #283, #225 ) ;
#217 = UNCERTAINTY_MEASURE_WITH_UNIT (LENGTH_MEASURE( 1.000000000000000082E-05 ), #111, 'distance_accuracy_value', 'NONE');
#218 = DIRECTION ( 'NONE',  ( 0.000000000000000000, 0.000000000000000000, 1.000000000000000000 ) ) ;
#219 = VERTEX_POINT ( 'NONE', #51 ) ;
#220 = STYLED_ITEM ( 'NONE', ( #236 ), #226 ) ;
#221 = VERTEX_POINT ( 'NONE', #144 ) ;
#222 = ORIENTED_EDGE ( 'NONE', *, *, #59, .T. ) ;
#223 = CIRCLE ( 'NONE', #296, 0.2500000000000000000 ) ;
#224 = DIMENSIONAL_EXPONENTS ( 1.000000000000000000, 0.000000000000000000, 0.000000000000000000, 0.000000000000000000, 0.000000000000000000, 0.000000000000000000, 0.000000000000000000 ) ;
#225 = DIRECTION ( 'NONE',  ( 0.000000000000000000, 0.000000000000000000, -1.000000000000000000 ) ) ;
#226 = ADVANCED_FACE ( 'NONE', ( #49 ), #228, .T. ) ;
#227 = DIRECTION ( 'NONE',  ( -0.000000000000000000, -1.000000000000000000, -0.000000000000000000 ) ) ;
#228 = CYLINDRICAL_SURFACE ( 'NONE', #156, 0.2500000000000000000 ) ;
#229 =( NAMED_UNIT ( * ) PLANE_ANGLE_UNIT ( ) SI_UNIT ( $, .RADIAN. ) );
#230 = LENGTH_MEASURE_WITH_UNIT ( LENGTH_MEASURE( 0.02539999999999999897 ), #162 );
#231 = CIRCLE ( 'NONE', #81, 0.2500000000000000000 ) ;
#232 = FILL_AREA_STYLE_COLOUR ( '', #251 ) ;
#233 = MANIFOLD_SOLID_BREP ( 'Revolve - Tool Body (Straight Shanked)', #186 ) ;
#234 = LINE ( 'NONE', #308, #11 ) ;
#235 =( NAMED_UNIT ( * ) SI_UNIT ( $, .STERADIAN. ) SOLID_ANGLE_UNIT ( ) );
#236 = PRESENTATION_STYLE_ASSIGNMENT (( #16 ) ) ;
#237 = DIRECTION ( 'NONE',  ( -6.123233995736763571E-17, 1.000000000000000000, -0.000000000000000000 ) ) ;
#238 = FACE_OUTER_BOUND ( 'NONE', #297, .T. ) ;
#239 = STYLED_ITEM ( 'NONE', ( #63 ), #66 ) ;
#240 = EDGE_CURVE ( 'NONE', #132, #135, #289, .T. ) ;
#241 = CARTESIAN_POINT ( 'NONE',  ( 0.000000000000000000, 2.000000000000000000, -0.2500000000000000000 ) ) ;
#242 = APPLICATION_PROTOCOL_DEFINITION ( 'draft international standard', 'automotive_design', 1998, #33 ) ;
#243 = SURFACE_SIDE_STYLE ('',( #290 ) ) ;
#244 = PRESENTATION_LAYER_ASSIGNMENT (  '', '', ( #220 ) ) ;
#245 = ORIENTED_EDGE ( 'NONE', *, *, #272, .F. ) ;
#246 =( GEOMETRIC_REPRESENTATION_CONTEXT ( 3 ) GLOBAL_UNCERTAINTY_ASSIGNED_CONTEXT ( ( #96 ) ) GLOBAL_UNIT_ASSIGNED_CONTEXT ( ( #103, #157, #138 ) ) REPRESENTATION_CONTEXT ( 'NONE', 'WORKASPACE' ) );
#247 = EDGE_LOOP ( 'NONE', ( #271, #13, #105, #83 ) ) ;
#248 = ORIENTED_EDGE ( 'NONE', *, *, #168, .T. ) ;
#249 = FILL_AREA_STYLE ('',( #100 ) ) ;
#250 = DIMENSIONAL_EXPONENTS ( 1.000000000000000000, 0.000000000000000000, 0.000000000000000000, 0.000000000000000000, 0.000000000000000000, 0.000000000000000000, 0.000000000000000000 ) ;
#251 = COLOUR_RGB ( '',1.000000000000000000, 0.000000000000000000, 0.000000000000000000 ) ;
#252 =( NAMED_UNIT ( * ) PLANE_ANGLE_UNIT ( ) SI_UNIT ( $, .RADIAN. ) );
#253 = ADVANCED_BREP_SHAPE_REPRESENTATION ( '83202', ( #35, #233, #114 ), #69 ) ;
#254 = DIRECTION ( 'NONE',  ( -6.123233995736763571E-17, 1.000000000000000000, -0.000000000000000000 ) ) ;
#255 =( LENGTH_UNIT ( ) NAMED_UNIT ( * ) SI_UNIT ( $, .METRE. ) );
#256 =( GEOMETRIC_REPRESENTATION_CONTEXT ( 3 ) GLOBAL_UNCERTAINTY_ASSIGNED_CONTEXT ( ( #287 ) ) GLOBAL_UNIT_ASSIGNED_CONTEXT ( ( #137, #229, #19 ) ) REPRESENTATION_CONTEXT ( 'NONE', 'WORKASPACE' ) );
#257 = DIRECTION ( 'NONE',  ( 0.000000000000000000, 0.000000000000000000, -1.000000000000000000 ) ) ;
#258 = FACE_OUTER_BOUND ( 'NONE', #58, .T. ) ;
#259 =( GEOMETRIC_REPRESENTATION_CONTEXT ( 3 ) GLOBAL_UNCERTAINTY_ASSIGNED_CONTEXT ( ( #134 ) ) GLOBAL_UNIT_ASSIGNED_CONTEXT ( ( #23, #207, #304 ) ) REPRESENTATION_CONTEXT ( 'NONE', 'WORKASPACE' ) );
#260 = DIRECTION ( 'NONE',  ( 0.000000000000000000, 0.000000000000000000, -1.000000000000000000 ) ) ;
#261 = ADVANCED_FACE ( 'NONE', ( #238 ), #57, .T. ) ;
#262 = LENGTH_MEASURE_WITH_UNIT ( LENGTH_MEASURE( 0.02539999999999999897 ), #171 );
#263 = STYLED_ITEM ( 'NONE', ( #154 ), #35 ) ;
#264 = VECTOR ( 'NONE', #92, 39.37007874015748143 ) ;
#265 = PRODUCT_DEFINITION_CONTEXT ( 'detailed design', #205, 'design' ) ;
#266 = VERTEX_POINT ( 'NONE', #29 ) ;
#267 = ORIENTED_EDGE ( 'NONE', *, *, #272, .T. ) ;
#268 = STYLED_ITEM ( 'NONE', ( #279 ), #41 ) ;
#269 = PRESENTATION_LAYER_ASSIGNMENT (  '', '', ( #239 ) ) ;
#270 = EDGE_LOOP ( 'NONE', ( #37, #42 ) ) ;
#271 = ORIENTED_EDGE ( 'NONE', *, *, #240, .T. ) ;
#272 = EDGE_CURVE ( 'NONE', #219, #221, #14, .T. ) ;
#273 = DIMENSIONAL_EXPONENTS ( 1.000000000000000000, 0.000000000000000000, 0.000000000000000000, 0.000000000000000000, 0.000000000000000000, 0.000000000000000000, 0.000000000000000000 ) ;
#274 = SURFACE_STYLE_FILL_AREA ( #110 ) ;
#275 = AXIS2_PLACEMENT_3D ( 'NONE', #73, #174, #260 ) ;
#276 = DIRECTION ( 'NONE',  ( -0.000000000000000000, -1.000000000000000000, -0.000000000000000000 ) ) ;
#277 = DIMENSIONAL_EXPONENTS ( 1.000000000000000000, 0.000000000000000000, 0.000000000000000000, 0.000000000000000000, 0.000000000000000000, 0.000000000000000000, 0.000000000000000000 ) ;
#278 = CARTESIAN_POINT ( 'NONE',  ( 0.000000000000000000, 0.000000000000000000, -0.2500000000000000000 ) ) ;
#279 = PRESENTATION_STYLE_ASSIGNMENT (( #184 ) ) ;
#280 = FILL_AREA_STYLE ('',( #164 ) ) ;
#281 = COLOUR_RGB ( '',0.7921568627450980005, 0.8196078431372548767, 0.9333333333333333481 ) ;
#282 = AXIS2_PLACEMENT_3D ( 'NONE', #128, #293, #97 ) ;
#283 = DIRECTION ( 'NONE',  ( 0.000000000000000000, -1.000000000000000000, -0.000000000000000000 ) ) ;
#284 = FILL_AREA_STYLE_COLOUR ( '', #101 ) ;
#285 = PRODUCT_DEFINITION ( 'UNKNOWN', '', #152, #265 ) ;
#286 = DIRECTION ( 'NONE',  ( 0.000000000000000000, 1.000000000000000000, 0.000000000000000000 ) ) ;
#287 = UNCERTAINTY_MEASURE_WITH_UNIT (LENGTH_MEASURE( 1.000000000000000082E-05 ), #137, 'distance_accuracy_value', 'NONE');
#288 = AXIS2_PLACEMENT_3D ( 'NONE', #309, #116, #165 ) ;
#289 = CIRCLE ( 'NONE', #190, 0.2500000000000000000 ) ;
#290 = SURFACE_STYLE_FILL_AREA ( #191 ) ;
#291 = DIRECTION ( 'NONE',  ( -0.000000000000000000, -1.000000000000000000, -0.000000000000000000 ) ) ;
#292 = UNCERTAINTY_MEASURE_WITH_UNIT (LENGTH_MEASURE( 1.000000000000000082E-05 ), #94, 'distance_accuracy_value', 'NONE');
#293 = DIRECTION ( 'NONE',  ( -6.123233995736763571E-17, 1.000000000000000000, -0.000000000000000000 ) ) ;
#294 = MECHANICAL_DESIGN_GEOMETRIC_PRESENTATION_REPRESENTATION (  '', ( #263 ), #246 ) ;
#295 = ORIENTED_EDGE ( 'NONE', *, *, #123, .T. ) ;
#296 = AXIS2_PLACEMENT_3D ( 'NONE', #71, #192, #194 ) ;
#297 = EDGE_LOOP ( 'NONE', ( #181, #267, #61, #39 ) ) ;
#298 = ORIENTED_EDGE ( 'NONE', *, *, #123, .F. ) ;
#299 = PRESENTATION_LAYER_ASSIGNMENT (  '', '', ( #268 ) ) ;
#300 = AXIS2_PLACEMENT_3D ( 'NONE', #124, #95, #148 ) ;
#301 = ORIENTED_EDGE ( 'NONE', *, *, #59, .F. ) ;
#302 = SURFACE_SIDE_STYLE ('',( #112 ) ) ;
#303 = AXIS2_PLACEMENT_3D ( 'NONE', #8, #6, #99 ) ;
#304 =( NAMED_UNIT ( * ) SI_UNIT ( $, .STERADIAN. ) SOLID_ANGLE_UNIT ( ) );
#305 = FACE_OUTER_BOUND ( 'NONE', #43, .T. ) ;
#306 = DIRECTION ( 'NONE',  ( 0.000000000000000000, 0.000000000000000000, -1.000000000000000000 ) ) ;
#307 = LENGTH_MEASURE_WITH_UNIT ( LENGTH_MEASURE( 0.02539999999999999897 ), #108 );
#308 = CARTESIAN_POINT ( 'NONE',  ( 0.2499999999999999167, 4.000000000000000000, 3.061616997868383634E-17 ) ) ;
#309 = CARTESIAN_POINT ( 'NONE',  ( 0.2500000000000000000, 4.000000000000000000, 0.000000000000000000 ) ) ;
ENDSEC;
END-ISO-10303-21;
