ISO-10303-21;
HEADER;
FILE_DESCRIPTION (( 'STEP AP214' ),
    '1' );
FILE_NAME ('81927.STEP',
    '2023-06-30T22:33:36',
    ( '' ),
    ( '' ),
    'SwSTEP 2.0',
    'SolidWorks 2023',
    '' );
FILE_SCHEMA (( 'AUTOMOTIVE_DESIGN' ));
ENDSEC;

DATA;
#1 = DIRECTION ( 'NONE',  ( 0.000000000000000000, 0.000000000000000000, 1.000000000000000000 ) ) ;
#2 = STYLED_ITEM ( 'NONE', ( #121 ), #45 ) ;
#3 = MECHANICAL_DESIGN_GEOMETRIC_PRESENTATION_REPRESENTATION (  '', ( #205 ), #241 ) ;
#4 =( CONVERSION_BASED_UNIT ( 'INCH', #289 ) LENGTH_UNIT ( ) NAMED_UNIT ( #24 ) );
#5 = EDGE_CURVE ( 'NONE', #18, #34, #31, .T. ) ;
#6 = CARTESIAN_POINT ( 'NONE',  ( 1.530808498934190893E-17, 0.000000000000000000, 0.1249999999999999306 ) ) ;
#7 = CARTESIAN_POINT ( 'NONE',  ( 0.000000000000000000, 1.000000000000000000, -0.1249999999999998751 ) ) ;
#8 = DIRECTION ( 'NONE',  ( -0.000000000000000000, -1.000000000000000000, -0.000000000000000000 ) ) ;
#9 = UNCERTAINTY_MEASURE_WITH_UNIT (LENGTH_MEASURE( 1.000000000000000082E-05 ), #287, 'distance_accuracy_value', 'NONE');
#10 = ORIENTED_EDGE ( 'NONE', *, *, #211, .F. ) ;
#11 = DIRECTION ( 'NONE',  ( -0.000000000000000000, -1.000000000000000000, -0.000000000000000000 ) ) ;
#12 = DIMENSIONAL_EXPONENTS ( 1.000000000000000000, 0.000000000000000000, 0.000000000000000000, 0.000000000000000000, 0.000000000000000000, 0.000000000000000000, 0.000000000000000000 ) ;
#13 = AXIS2_PLACEMENT_3D ( 'NONE', #51, #222, #163 ) ;
#14 = MECHANICAL_DESIGN_GEOMETRIC_PRESENTATION_REPRESENTATION (  '', ( #46 ), #99 ) ;
#15 = CARTESIAN_POINT ( 'NONE',  ( -7.654042494670957545E-18, 0.000000000000000000, 0.000000000000000000 ) ) ;
#16 = EDGE_LOOP ( 'NONE', ( #89, #339, #363, #10, #275 ) ) ;
#17 = CARTESIAN_POINT ( 'NONE',  ( -0.1250000000000000000, 0.1250000000000000278, 1.530808498934191201E-17 ) ) ;
#18 = VERTEX_POINT ( 'NONE', #118 ) ;
#19 = DIRECTION ( 'NONE',  ( -1.000000000000000000, 0.000000000000000000, 0.000000000000000000 ) ) ;
#20 = MECHANICAL_DESIGN_GEOMETRIC_PRESENTATION_REPRESENTATION (  '', ( #148 ), #255 ) ;
#21 = FACE_OUTER_BOUND ( 'NONE', #175, .T. ) ;
#22 =( NAMED_UNIT ( * ) SI_UNIT ( $, .STERADIAN. ) SOLID_ANGLE_UNIT ( ) );
#23 = EDGE_LOOP ( 'NONE', ( #49, #178, #207, #113 ) ) ;
#24 = DIMENSIONAL_EXPONENTS ( 1.000000000000000000, 0.000000000000000000, 0.000000000000000000, 0.000000000000000000, 0.000000000000000000, 0.000000000000000000, 0.000000000000000000 ) ;
#25 = DIRECTION ( 'NONE',  ( 0.000000000000000000, -0.000000000000000000, 1.000000000000000000 ) ) ;
#26 =( GEOMETRIC_REPRESENTATION_CONTEXT ( 3 ) GLOBAL_UNCERTAINTY_ASSIGNED_CONTEXT ( ( #232 ) ) GLOBAL_UNIT_ASSIGNED_CONTEXT ( ( #4, #147, #29 ) ) REPRESENTATION_CONTEXT ( 'NONE', 'WORKASPACE' ) );
#27 = SURFACE_STYLE_FILL_AREA ( #195 ) ;
#28 = AXIS2_PLACEMENT_3D ( 'NONE', #149, #354, #322 ) ;
#29 =( NAMED_UNIT ( * ) SI_UNIT ( $, .STERADIAN. ) SOLID_ANGLE_UNIT ( ) );
#30 = EDGE_CURVE ( 'NONE', #264, #271, #107, .T. ) ;
#31 = CIRCLE ( 'NONE', #214, 0.1249999999999999584 ) ;
#32 = DIMENSIONAL_EXPONENTS ( 1.000000000000000000, 0.000000000000000000, 0.000000000000000000, 0.000000000000000000, 0.000000000000000000, 0.000000000000000000, 0.000000000000000000 ) ;
#33 = CYLINDRICAL_SURFACE ( 'NONE', #28, 0.1249999999999999306 ) ;
#34 = VERTEX_POINT ( 'NONE', #279 ) ;
#35 =( CONVERSION_BASED_UNIT ( 'INCH', #352 ) LENGTH_UNIT ( ) NAMED_UNIT ( #192 ) );
#36 = CARTESIAN_POINT ( 'NONE',  ( 0.000000000000000000, 0.000000000000000000, 0.000000000000000000 ) ) ;
#37 = SURFACE_STYLE_USAGE ( .BOTH. , #343 ) ;
#38 = SURFACE_STYLE_USAGE ( .BOTH. , #295 ) ;
#39 = AXIS2_PLACEMENT_3D ( 'NONE', #216, #328, #162 ) ;
#40 =( NAMED_UNIT ( * ) SI_UNIT ( $, .STERADIAN. ) SOLID_ANGLE_UNIT ( ) );
#41 = ADVANCED_FACE ( 'NONE', ( #21 ), #137, .T. ) ;
#42 = SPHERICAL_SURFACE ( 'NONE', #130, 0.1250000000000000000 ) ;
#43 = CARTESIAN_POINT ( 'NONE',  ( 0.1249999999999998751, 3.000000000000000444, 0.000000000000000000 ) ) ;
#44 = VERTEX_POINT ( 'NONE', #317 ) ;
#45 = MANIFOLD_SOLID_BREP ( 'Revolve - Tool Body (Straight Shanked)', #262 ) ;
#46 = STYLED_ITEM ( 'NONE', ( #67 ), #338 ) ;
#47 = ORIENTED_EDGE ( 'NONE', *, *, #171, .T. ) ;
#48 = CYLINDRICAL_SURFACE ( 'NONE', #249, 0.1249999999999998335 ) ;
#49 = ORIENTED_EDGE ( 'NONE', *, *, #30, .F. ) ;
#50 = DIRECTION ( 'NONE',  ( -1.224646799147353700E-16, 1.000000000000000000, -0.000000000000000000 ) ) ;
#51 = CARTESIAN_POINT ( 'NONE',  ( -1.530808498934191509E-17, 0.1250000000000000000, 0.000000000000000000 ) ) ;
#52 = ADVANCED_BREP_SHAPE_REPRESENTATION ( '81927', ( #300, #45, #94 ), #267 ) ;
#53 = CARTESIAN_POINT ( 'NONE',  ( 1.530808498934191201E-17, 0.1250000000000000278, 0.1249999999999999584 ) ) ;
#54 = STYLED_ITEM ( 'NONE', ( #361 ), #286 ) ;
#55 = ORIENTED_EDGE ( 'NONE', *, *, #64, .F. ) ;
#56 = DIRECTION ( 'NONE',  ( -1.224646799147353700E-16, 1.000000000000000000, 0.000000000000000000 ) ) ;
#57 = DIRECTION ( 'NONE',  ( -1.224646799147353700E-16, 1.000000000000000000, -0.000000000000000000 ) ) ;
#58 = CARTESIAN_POINT ( 'NONE',  ( 1.836970198721030427E-16, 1.000000000000000000, 0.000000000000000000 ) ) ;
#59 = SURFACE_SIDE_STYLE ('',( #191 ) ) ;
#60 = CLOSED_SHELL ( 'NONE', ( #338, #286, #41, #139, #75 ) ) ;
#61 = SURFACE_SIDE_STYLE ('',( #27 ) ) ;
#62 = MECHANICAL_DESIGN_GEOMETRIC_PRESENTATION_REPRESENTATION (  '', ( #54 ), #256 ) ;
#63 = SURFACE_STYLE_USAGE ( .BOTH. , #59 ) ;
#64 = EDGE_CURVE ( 'NONE', #184, #167, #65, .T. ) ;
#65 = CIRCLE ( 'NONE', #311, 0.1249999999999999445 ) ;
#66 = VECTOR ( 'NONE', #160, 39.37007874015748143 ) ;
#67 = PRESENTATION_STYLE_ASSIGNMENT (( #37 ) ) ;
#68 = DIRECTION ( 'NONE',  ( -1.224646799147353700E-16, 1.000000000000000000, -0.000000000000000000 ) ) ;
#69 =( NAMED_UNIT ( * ) SI_UNIT ( $, .STERADIAN. ) SOLID_ANGLE_UNIT ( ) );
#70 = CARTESIAN_POINT ( 'NONE',  ( 0.1249999999999998751, 3.000000000000000444, 1.530808498934190276E-17 ) ) ;
#71 = FILL_AREA_STYLE ('',( #125 ) ) ;
#72 = COLOUR_RGB ( '',1.000000000000000000, 0.000000000000000000, 0.000000000000000000 ) ;
#73 = CIRCLE ( 'NONE', #39, 0.1249999999999999584 ) ;
#74 =( LENGTH_UNIT ( ) NAMED_UNIT ( * ) SI_UNIT ( $, .METRE. ) );
#75 = ADVANCED_FACE ( 'NONE', ( #370 ), #42, .T. ) ;
#76 = SURFACE_SIDE_STYLE ('',( #218 ) ) ;
#77 = LINE ( 'NONE', #161, #66 ) ;
#78 = ORIENTED_EDGE ( 'NONE', *, *, #146, .F. ) ;
#79 = VECTOR ( 'NONE', #158, 39.37007874015748143 ) ;
#80 = FILL_AREA_STYLE ('',( #301 ) ) ;
#81 = CARTESIAN_POINT ( 'NONE',  ( -6.123233995736772199E-17, 3.000000000000000444, 0.000000000000000000 ) ) ;
#82 = EDGE_LOOP ( 'NONE', ( #111, #244, #55, #299 ) ) ;
#83 = FACE_OUTER_BOUND ( 'NONE', #154, .T. ) ;
#84 = ORIENTED_EDGE ( 'NONE', *, *, #85, .T. ) ;
#85 = EDGE_CURVE ( 'NONE', #106, #247, #119, .T. ) ;
#86 = FILL_AREA_STYLE ('',( #337 ) ) ;
#87 = DIRECTION ( 'NONE',  ( -0.000000000000000000, -1.000000000000000000, -0.000000000000000000 ) ) ;
#88 = CIRCLE ( 'NONE', #290, 0.1249999999999997086 ) ;
#89 = ORIENTED_EDGE ( 'NONE', *, *, #85, .F. ) ;
#90 =( LENGTH_UNIT ( ) NAMED_UNIT ( * ) SI_UNIT ( $, .METRE. ) );
#91 =( LENGTH_UNIT ( ) NAMED_UNIT ( * ) SI_UNIT ( $, .METRE. ) );
#92 = CIRCLE ( 'NONE', #181, 0.1249999999999998751 ) ;
#93 = CARTESIAN_POINT ( 'NONE',  ( 0.000000000000000000, 1.000000000000000000, 0.000000000000000000 ) ) ;
#94 = AXIS2_PLACEMENT_3D ( 'NONE', #36, #1, #124 ) ;
#95 = PRESENTATION_STYLE_ASSIGNMENT (( #63 ) ) ;
#96 = APPLICATION_PROTOCOL_DEFINITION ( 'draft international standard', 'automotive_design', 1998, #173 ) ;
#97 =( CONVERSION_BASED_UNIT ( 'INCH', #240 ) LENGTH_UNIT ( ) NAMED_UNIT ( #223 ) );
#98 = ORIENTED_EDGE ( 'NONE', *, *, #128, .F. ) ;
#99 =( GEOMETRIC_REPRESENTATION_CONTEXT ( 3 ) GLOBAL_UNCERTAINTY_ASSIGNED_CONTEXT ( ( #9 ) ) GLOBAL_UNIT_ASSIGNED_CONTEXT ( ( #287, #260, #40 ) ) REPRESENTATION_CONTEXT ( 'NONE', 'WORKASPACE' ) );
#100 = SURFACE_STYLE_USAGE ( .BOTH. , #237 ) ;
#101 = UNCERTAINTY_MEASURE_WITH_UNIT (LENGTH_MEASURE( 1.000000000000000082E-05 ), #97, 'distance_accuracy_value', 'NONE');
#102 = DIRECTION ( 'NONE',  ( -1.000000000000000000, 0.000000000000000000, 0.000000000000000000 ) ) ;
#103 = SURFACE_STYLE_FILL_AREA ( #71 ) ;
#104 = PRODUCT_DEFINITION_CONTEXT ( 'detailed design', #173, 'design' ) ;
#105 = DIRECTION ( 'NONE',  ( 0.000000000000000000, 0.000000000000000000, -1.000000000000000000 ) ) ;
#106 = VERTEX_POINT ( 'NONE', #152 ) ;
#107 = CIRCLE ( 'NONE', #13, 0.1250000000000000000 ) ;
#108 =( GEOMETRIC_REPRESENTATION_CONTEXT ( 3 ) GLOBAL_UNCERTAINTY_ASSIGNED_CONTEXT ( ( #101 ) ) GLOBAL_UNIT_ASSIGNED_CONTEXT ( ( #97, #202, #233 ) ) REPRESENTATION_CONTEXT ( 'NONE', 'WORKASPACE' ) );
#109 = DIRECTION ( 'NONE',  ( -1.224646799147353700E-16, 1.000000000000000000, -0.000000000000000000 ) ) ;
#110 = DIRECTION ( 'NONE',  ( -1.000000000000000000, 0.000000000000000000, 0.000000000000000000 ) ) ;
#111 = ORIENTED_EDGE ( 'NONE', *, *, #146, .T. ) ;
#112 = CARTESIAN_POINT ( 'NONE',  ( -6.123233995736772199E-17, 3.000000000000000444, 0.000000000000000000 ) ) ;
#113 = ORIENTED_EDGE ( 'NONE', *, *, #333, .T. ) ;
#114 = FILL_AREA_STYLE ('',( #246 ) ) ;
#115 = ORIENTED_EDGE ( 'NONE', *, *, #171, .F. ) ;
#116 = EDGE_CURVE ( 'NONE', #310, #106, #92, .T. ) ;
#117 = FACE_OUTER_BOUND ( 'NONE', #231, .T. ) ;
#118 = CARTESIAN_POINT ( 'NONE',  ( 0.000000000000000000, 0.1250000000000000278, -0.1249999999999999584 ) ) ;
#119 = LINE ( 'NONE', #6, #79 ) ;
#120 = DIRECTION ( 'NONE',  ( -1.000000000000000000, 0.000000000000000000, 0.000000000000000000 ) ) ;
#121 = PRESENTATION_STYLE_ASSIGNMENT (( #172 ) ) ;
#122 =( NAMED_UNIT ( * ) SI_UNIT ( $, .STERADIAN. ) SOLID_ANGLE_UNIT ( ) );
#123 = COLOUR_RGB ( '',0.7921568627450980005, 0.8196078431372548767, 0.9333333333333333481 ) ;
#124 = DIRECTION ( 'NONE',  ( 1.000000000000000000, 0.000000000000000000, 0.000000000000000000 ) ) ;
#125 = FILL_AREA_STYLE_COLOUR ( '', #72 ) ;
#126 = LENGTH_MEASURE_WITH_UNIT ( LENGTH_MEASURE( 0.02539999999999999897 ), #269 );
#127 = CARTESIAN_POINT ( 'NONE',  ( 0.000000000000000000, 1.000000000000000000, 0.000000000000000000 ) ) ;
#128 = EDGE_CURVE ( 'NONE', #106, #310, #135, .T. ) ;
#129 = FACE_OUTER_BOUND ( 'NONE', #16, .T. ) ;
#130 = AXIS2_PLACEMENT_3D ( 'NONE', #204, #291, #229 ) ;
#131 = VERTEX_POINT ( 'NONE', #180 ) ;
#132 =( NAMED_UNIT ( * ) PLANE_ANGLE_UNIT ( ) SI_UNIT ( $, .RADIAN. ) );
#133 = ORIENTED_EDGE ( 'NONE', *, *, #351, .F. ) ;
#134 = DIRECTION ( 'NONE',  ( -1.224646799147353700E-16, 1.000000000000000000, -0.000000000000000000 ) ) ;
#135 = CIRCLE ( 'NONE', #227, 0.1249999999999998751 ) ;
#136 = DIRECTION ( 'NONE',  ( 1.000000000000000000, 1.224646799147353700E-16, 0.000000000000000000 ) ) ;
#137 = PLANE ( 'NONE',  #254 ) ;
#138 = FACE_OUTER_BOUND ( 'NONE', #82, .T. ) ;
#139 = ADVANCED_FACE ( 'NONE', ( #129 ), #33, .T. ) ;
#140 = DIRECTION ( 'NONE',  ( -1.000000000000000000, 0.000000000000000000, 0.000000000000000000 ) ) ;
#141 = CIRCLE ( 'NONE', #342, 0.1250000000000000000 ) ;
#142 = AXIS2_PLACEMENT_3D ( 'NONE', #58, #259, #220 ) ;
#143 =( NAMED_UNIT ( * ) PLANE_ANGLE_UNIT ( ) SI_UNIT ( $, .RADIAN. ) );
#144 = CARTESIAN_POINT ( 'NONE',  ( -6.123233995736772199E-17, 3.000000000000000444, 0.000000000000000000 ) ) ;
#145 =( NAMED_UNIT ( * ) PLANE_ANGLE_UNIT ( ) SI_UNIT ( $, .RADIAN. ) );
#146 = EDGE_CURVE ( 'NONE', #44, #131, #88, .T. ) ;
#147 =( NAMED_UNIT ( * ) PLANE_ANGLE_UNIT ( ) SI_UNIT ( $, .RADIAN. ) );
#148 = STYLED_ITEM ( 'NONE', ( #288 ), #75 ) ;
#149 = CARTESIAN_POINT ( 'NONE',  ( 0.000000000000000000, 0.000000000000000000, 0.000000000000000000 ) ) ;
#150 = ORIENTED_EDGE ( 'NONE', *, *, #228, .T. ) ;
#151 = PRODUCT_RELATED_PRODUCT_CATEGORY ( 'part', '', ( #324 ) ) ;
#152 = CARTESIAN_POINT ( 'NONE',  ( 1.530808498934190585E-17, 1.000000000000000000, 0.1249999999999998751 ) ) ;
#153 = FILL_AREA_STYLE ('',( #350 ) ) ;
#154 = EDGE_LOOP ( 'NONE', ( #277, #360, #243, #325 ) ) ;
#155 = AXIS2_PLACEMENT_3D ( 'NONE', #245, #364, #314 ) ;
#156 = FACE_OUTER_BOUND ( 'NONE', #367, .T. ) ;
#157 = UNCERTAINTY_MEASURE_WITH_UNIT (LENGTH_MEASURE( 1.000000000000000082E-05 ), #221, 'distance_accuracy_value', 'NONE');
#158 = DIRECTION ( 'NONE',  ( -0.000000000000000000, -1.000000000000000000, -0.000000000000000000 ) ) ;
#159 = DIRECTION ( 'NONE',  ( 0.000000000000000000, 0.000000000000000000, -1.000000000000000000 ) ) ;
#160 = DIRECTION ( 'NONE',  ( -1.224646799147353700E-16, 1.000000000000000000, -0.000000000000000000 ) ) ;
#161 = CARTESIAN_POINT ( 'NONE',  ( 0.1249999999999997641, 3.000000000000000444, 1.530808498934189352E-17 ) ) ;
#162 = DIRECTION ( 'NONE',  ( 0.000000000000000000, 0.000000000000000000, -1.000000000000000000 ) ) ;
#163 = DIRECTION ( 'NONE',  ( 1.000000000000000000, 0.000000000000000000, -1.224646799147353207E-16 ) ) ;
#164 = MECHANICAL_DESIGN_GEOMETRIC_PRESENTATION_REPRESENTATION (  '', ( #280 ), #217 ) ;
#165 = AXIS2_PLACEMENT_3D ( 'NONE', #81, #166, #19 ) ;
#166 = DIRECTION ( 'NONE',  ( -1.224646799147353700E-16, 1.000000000000000000, -0.000000000000000000 ) ) ;
#167 = VERTEX_POINT ( 'NONE', #70 ) ;
#168 = LENGTH_MEASURE_WITH_UNIT ( LENGTH_MEASURE( 0.02539999999999999897 ), #91 );
#169 = PRESENTATION_LAYER_ASSIGNMENT (  '', '', ( #46 ) ) ;
#170 = SURFACE_STYLE_USAGE ( .BOTH. , #61 ) ;
#171 = EDGE_CURVE ( 'NONE', #34, #247, #198, .T. ) ;
#172 = SURFACE_STYLE_USAGE ( .BOTH. , #372 ) ;
#173 = APPLICATION_CONTEXT ( 'automotive_design' ) ;
#174 = COLOUR_RGB ( '',1.000000000000000000, 0.000000000000000000, 0.000000000000000000 ) ;
#175 = EDGE_LOOP ( 'NONE', ( #297, #98 ) ) ;
#176 = CARTESIAN_POINT ( 'NONE',  ( -1.530808498934191509E-17, 0.1250000000000000000, 0.000000000000000000 ) ) ;
#177 =( NAMED_UNIT ( * ) SI_UNIT ( $, .STERADIAN. ) SOLID_ANGLE_UNIT ( ) );
#178 = ORIENTED_EDGE ( 'NONE', *, *, #211, .T. ) ;
#179 = LENGTH_MEASURE_WITH_UNIT ( LENGTH_MEASURE( 0.02539999999999999897 ), #90 );
#180 = CARTESIAN_POINT ( 'NONE',  ( 0.1249999999999998751, 1.000000000000000000, 1.530808498934190276E-17 ) ) ;
#181 = AXIS2_PLACEMENT_3D ( 'NONE', #209, #356, #270 ) ;
#182 = EDGE_CURVE ( 'NONE', #44, #184, #334, .T. ) ;
#183 = CYLINDRICAL_SURFACE ( 'NONE', #321, 0.1249999999999999306 ) ;
#184 = VERTEX_POINT ( 'NONE', #365 ) ;
#185 = COLOUR_RGB ( '',1.000000000000000000, 0.000000000000000000, 0.000000000000000000 ) ;
#186 = DIRECTION ( 'NONE',  ( -1.000000000000000000, 0.000000000000000000, 0.000000000000000000 ) ) ;
#187 = ORIENTED_EDGE ( 'NONE', *, *, #261, .T. ) ;
#188 = SURFACE_STYLE_USAGE ( .BOTH. , #76 ) ;
#189 = DIRECTION ( 'NONE',  ( -0.000000000000000000, -1.000000000000000000, -0.000000000000000000 ) ) ;
#190 =( LENGTH_UNIT ( ) NAMED_UNIT ( * ) SI_UNIT ( $, .METRE. ) );
#191 = SURFACE_STYLE_FILL_AREA ( #86 ) ;
#192 = DIMENSIONAL_EXPONENTS ( 1.000000000000000000, 0.000000000000000000, 0.000000000000000000, 0.000000000000000000, 0.000000000000000000, 0.000000000000000000, 0.000000000000000000 ) ;
#193 = PLANE ( 'NONE',  #353 ) ;
#194 = STYLED_ITEM ( 'NONE', ( #239 ), #139 ) ;
#195 = FILL_AREA_STYLE ('',( #316 ) ) ;
#196 = PRODUCT_DEFINITION ( 'UNKNOWN', '', #366, #104 ) ;
#197 = COLOUR_RGB ( '',1.000000000000000000, 0.000000000000000000, 0.000000000000000000 ) ;
#198 = CIRCLE ( 'NONE', #263, 0.1249999999999999584 ) ;
#199 = DIRECTION ( 'NONE',  ( 0.000000000000000000, 1.000000000000000000, 0.000000000000000000 ) ) ;
#200 = FILL_AREA_STYLE ('',( #347 ) ) ;
#201 = SHAPE_DEFINITION_REPRESENTATION ( #344, #52 ) ;
#202 =( NAMED_UNIT ( * ) PLANE_ANGLE_UNIT ( ) SI_UNIT ( $, .RADIAN. ) );
#203 = PRESENTATION_LAYER_ASSIGNMENT (  '', '', ( #148 ) ) ;
#204 = CARTESIAN_POINT ( 'NONE',  ( -1.530808498934191509E-17, 0.1250000000000000000, 0.000000000000000000 ) ) ;
#205 = STYLED_ITEM ( 'NONE', ( #320 ), #300 ) ;
#206 =( LENGTH_UNIT ( ) NAMED_UNIT ( * ) SI_UNIT ( $, .METRE. ) );
#207 = ORIENTED_EDGE ( 'NONE', *, *, #5, .T. ) ;
#208 = UNCERTAINTY_MEASURE_WITH_UNIT (LENGTH_MEASURE( 1.000000000000000082E-05 ), #313, 'distance_accuracy_value', 'NONE');
#209 = CARTESIAN_POINT ( 'NONE',  ( 0.000000000000000000, 1.000000000000000000, 0.000000000000000000 ) ) ;
#210 = ORIENTED_EDGE ( 'NONE', *, *, #362, .F. ) ;
#211 = EDGE_CURVE ( 'NONE', #264, #18, #73, .T. ) ;
#212 = SURFACE_STYLE_FILL_AREA ( #80 ) ;
#213 = CARTESIAN_POINT ( 'NONE',  ( 1.836970198721030427E-16, 1.000000000000000000, 0.000000000000000000 ) ) ;
#214 = AXIS2_PLACEMENT_3D ( 'NONE', #335, #189, #308 ) ;
#215 = ADVANCED_FACE ( 'NONE', ( #138 ), #48, .T. ) ;
#216 = CARTESIAN_POINT ( 'NONE',  ( 0.000000000000000000, 0.1250000000000000278, 0.000000000000000000 ) ) ;
#217 =( GEOMETRIC_REPRESENTATION_CONTEXT ( 3 ) GLOBAL_UNCERTAINTY_ASSIGNED_CONTEXT ( ( #208 ) ) GLOBAL_UNIT_ASSIGNED_CONTEXT ( ( #313, #145, #284 ) ) REPRESENTATION_CONTEXT ( 'NONE', 'WORKASPACE' ) );
#218 = SURFACE_STYLE_FILL_AREA ( #114 ) ;
#219 = ORIENTED_EDGE ( 'NONE', *, *, #30, .T. ) ;
#220 = DIRECTION ( 'NONE',  ( -1.000000000000000000, 0.000000000000000000, 0.000000000000000000 ) ) ;
#221 =( CONVERSION_BASED_UNIT ( 'INCH', #242 ) LENGTH_UNIT ( ) NAMED_UNIT ( #253 ) );
#222 = DIRECTION ( 'NONE',  ( 1.224646799147353207E-16, -0.000000000000000000, 1.000000000000000000 ) ) ;
#223 = DIMENSIONAL_EXPONENTS ( 1.000000000000000000, 0.000000000000000000, 0.000000000000000000, 0.000000000000000000, 0.000000000000000000, 0.000000000000000000, 0.000000000000000000 ) ;
#224 = CIRCLE ( 'NONE', #327, 0.1249999999999999584 ) ;
#225 = SURFACE_STYLE_FILL_AREA ( #153 ) ;
#226 =( LENGTH_UNIT ( ) NAMED_UNIT ( * ) SI_UNIT ( $, .METRE. ) );
#227 = AXIS2_PLACEMENT_3D ( 'NONE', #127, #11, #105 ) ;
#228 = EDGE_CURVE ( 'NONE', #247, #264, #224, .T. ) ;
#229 = DIRECTION ( 'NONE',  ( 1.000000000000000000, 0.000000000000000000, 0.000000000000000000 ) ) ;
#230 = LENGTH_MEASURE_WITH_UNIT ( LENGTH_MEASURE( 0.02539999999999999897 ), #285 );
#231 = EDGE_LOOP ( 'NONE', ( #332, #84, #115, #369, #210 ) ) ;
#232 = UNCERTAINTY_MEASURE_WITH_UNIT (LENGTH_MEASURE( 1.000000000000000082E-05 ), #4, 'distance_accuracy_value', 'NONE');
#233 =( NAMED_UNIT ( * ) SI_UNIT ( $, .STERADIAN. ) SOLID_ANGLE_UNIT ( ) );
#234 = PRODUCT_CONTEXT ( 'NONE', #349, 'mechanical' ) ;
#235 = ORIENTED_EDGE ( 'NONE', *, *, #64, .T. ) ;
#236 = DIRECTION ( 'NONE',  ( 0.000000000000000000, 0.000000000000000000, -1.000000000000000000 ) ) ;
#237 = SURFACE_SIDE_STYLE ('',( #212 ) ) ;
#238 = UNCERTAINTY_MEASURE_WITH_UNIT (LENGTH_MEASURE( 1.000000000000000082E-05 ), #318, 'distance_accuracy_value', 'NONE');
#239 = PRESENTATION_STYLE_ASSIGNMENT (( #38 ) ) ;
#240 = LENGTH_MEASURE_WITH_UNIT ( LENGTH_MEASURE( 0.02539999999999999897 ), #206 );
#241 =( GEOMETRIC_REPRESENTATION_CONTEXT ( 3 ) GLOBAL_UNCERTAINTY_ASSIGNED_CONTEXT ( ( #355 ) ) GLOBAL_UNIT_ASSIGNED_CONTEXT ( ( #315, #143, #122 ) ) REPRESENTATION_CONTEXT ( 'NONE', 'WORKASPACE' ) );
#242 = LENGTH_MEASURE_WITH_UNIT ( LENGTH_MEASURE( 0.02539999999999999897 ), #190 );
#243 = ORIENTED_EDGE ( 'NONE', *, *, #182, .T. ) ;
#244 = ORIENTED_EDGE ( 'NONE', *, *, #251, .T. ) ;
#245 = CARTESIAN_POINT ( 'NONE',  ( -1.530808498934191509E-17, 0.1250000000000000000, 0.000000000000000000 ) ) ;
#246 = FILL_AREA_STYLE_COLOUR ( '', #185 ) ;
#247 = VERTEX_POINT ( 'NONE', #53 ) ;
#248 = PRESENTATION_LAYER_ASSIGNMENT (  '', '', ( #2 ) ) ;
#249 = AXIS2_PLACEMENT_3D ( 'NONE', #112, #109, #186 ) ;
#250 = CYLINDRICAL_SURFACE ( 'NONE', #165, 0.1249999999999998335 ) ;
#251 = EDGE_CURVE ( 'NONE', #131, #167, #77, .T. ) ;
#252 = FACE_OUTER_BOUND ( 'NONE', #283, .T. ) ;
#253 = DIMENSIONAL_EXPONENTS ( 1.000000000000000000, 0.000000000000000000, 0.000000000000000000, 0.000000000000000000, 0.000000000000000000, 0.000000000000000000, 0.000000000000000000 ) ;
#254 = AXIS2_PLACEMENT_3D ( 'NONE', #93, #199, #25 ) ;
#255 =( GEOMETRIC_REPRESENTATION_CONTEXT ( 3 ) GLOBAL_UNCERTAINTY_ASSIGNED_CONTEXT ( ( #294 ) ) GLOBAL_UNIT_ASSIGNED_CONTEXT ( ( #35, #296, #177 ) ) REPRESENTATION_CONTEXT ( 'NONE', 'WORKASPACE' ) );
#256 =( GEOMETRIC_REPRESENTATION_CONTEXT ( 3 ) GLOBAL_UNCERTAINTY_ASSIGNED_CONTEXT ( ( #157 ) ) GLOBAL_UNIT_ASSIGNED_CONTEXT ( ( #221, #132, #22 ) ) REPRESENTATION_CONTEXT ( 'NONE', 'WORKASPACE' ) );
#257 = ADVANCED_FACE ( 'NONE', ( #83 ), #250, .T. ) ;
#258 = SURFACE_STYLE_FILL_AREA ( #200 ) ;
#259 = DIRECTION ( 'NONE',  ( -1.224646799147353700E-16, 1.000000000000000000, -0.000000000000000000 ) ) ;
#260 =( NAMED_UNIT ( * ) PLANE_ANGLE_UNIT ( ) SI_UNIT ( $, .RADIAN. ) );
#261 = EDGE_CURVE ( 'NONE', #167, #184, #359, .T. ) ;
#262 = CLOSED_SHELL ( 'NONE', ( #215, #368, #257, #265 ) ) ;
#263 = AXIS2_PLACEMENT_3D ( 'NONE', #268, #8, #236 ) ;
#264 = VERTEX_POINT ( 'NONE', #17 ) ;
#265 = ADVANCED_FACE ( 'NONE', ( #278 ), #329, .F. ) ;
#266 = COLOUR_RGB ( '',0.7921568627450980005, 0.8196078431372548767, 0.9333333333333333481 ) ;
#267 =( GEOMETRIC_REPRESENTATION_CONTEXT ( 3 ) GLOBAL_UNCERTAINTY_ASSIGNED_CONTEXT ( ( #238 ) ) GLOBAL_UNIT_ASSIGNED_CONTEXT ( ( #318, #323, #69 ) ) REPRESENTATION_CONTEXT ( 'NONE', 'WORKASPACE' ) );
#268 = CARTESIAN_POINT ( 'NONE',  ( 0.000000000000000000, 0.1250000000000000278, 0.000000000000000000 ) ) ;
#269 =( LENGTH_UNIT ( ) NAMED_UNIT ( * ) SI_UNIT ( $, .METRE. ) );
#270 = DIRECTION ( 'NONE',  ( 0.000000000000000000, 0.000000000000000000, -1.000000000000000000 ) ) ;
#271 = VERTEX_POINT ( 'NONE', #15 ) ;
#272 = AXIS2_PLACEMENT_3D ( 'NONE', #307, #134, #110 ) ;
#273 = DIMENSIONAL_EXPONENTS ( 1.000000000000000000, 0.000000000000000000, 0.000000000000000000, 0.000000000000000000, 0.000000000000000000, 0.000000000000000000, 0.000000000000000000 ) ;
#274 = DIRECTION ( 'NONE',  ( 1.224646799147353700E-16, -1.000000000000000000, 0.000000000000000000 ) ) ;
#275 = ORIENTED_EDGE ( 'NONE', *, *, #228, .F. ) ;
#276 = CARTESIAN_POINT ( 'NONE',  ( -0.1249999999999999029, 3.000000000000000444, 0.000000000000000000 ) ) ;
#277 = ORIENTED_EDGE ( 'NONE', *, *, #251, .F. ) ;
#278 = FACE_OUTER_BOUND ( 'NONE', #357, .T. ) ;
#279 = CARTESIAN_POINT ( 'NONE',  ( 0.1249999999999999584, 0.1250000000000000278, 0.000000000000000000 ) ) ;
#280 = STYLED_ITEM ( 'NONE', ( #95 ), #41 ) ;
#281 = CARTESIAN_POINT ( 'NONE',  ( 0.000000000000000000, 0.000000000000000000, -0.1249999999999999306 ) ) ;
#282 = AXIS2_PLACEMENT_3D ( 'NONE', #43, #274, #136 ) ;
#283 = EDGE_LOOP ( 'NONE', ( #78, #133 ) ) ;
#284 =( NAMED_UNIT ( * ) SI_UNIT ( $, .STERADIAN. ) SOLID_ANGLE_UNIT ( ) );
#285 =( LENGTH_UNIT ( ) NAMED_UNIT ( * ) SI_UNIT ( $, .METRE. ) );
#286 = ADVANCED_FACE ( 'NONE', ( #117 ), #183, .T. ) ;
#287 =( CONVERSION_BASED_UNIT ( 'INCH', #179 ) LENGTH_UNIT ( ) NAMED_UNIT ( #302 ) );
#288 = PRESENTATION_STYLE_ASSIGNMENT (( #170 ) ) ;
#289 = LENGTH_MEASURE_WITH_UNIT ( LENGTH_MEASURE( 0.02539999999999999897 ), #226 );
#290 = AXIS2_PLACEMENT_3D ( 'NONE', #213, #68, #102 ) ;
#291 = DIRECTION ( 'NONE',  ( 0.000000000000000000, 0.000000000000000000, 1.000000000000000000 ) ) ;
#292 = ORIENTED_EDGE ( 'NONE', *, *, #333, .F. ) ;
#293 = DIRECTION ( 'NONE',  ( 0.000000000000000000, 0.000000000000000000, -1.000000000000000000 ) ) ;
#294 = UNCERTAINTY_MEASURE_WITH_UNIT (LENGTH_MEASURE( 1.000000000000000082E-05 ), #35, 'distance_accuracy_value', 'NONE');
#295 = SURFACE_SIDE_STYLE ('',( #103 ) ) ;
#296 =( NAMED_UNIT ( * ) PLANE_ANGLE_UNIT ( ) SI_UNIT ( $, .RADIAN. ) );
#297 = ORIENTED_EDGE ( 'NONE', *, *, #116, .F. ) ;
#298 = DIRECTION ( 'NONE',  ( -0.000000000000000000, -1.000000000000000000, -0.000000000000000000 ) ) ;
#299 = ORIENTED_EDGE ( 'NONE', *, *, #182, .F. ) ;
#300 = MANIFOLD_SOLID_BREP ( 'Revolve - Cutting Edge', #60 ) ;
#301 = FILL_AREA_STYLE_COLOUR ( '', #123 ) ;
#302 = DIMENSIONAL_EXPONENTS ( 1.000000000000000000, 0.000000000000000000, 0.000000000000000000, 0.000000000000000000, 0.000000000000000000, 0.000000000000000000, 0.000000000000000000 ) ;
#303 = VECTOR ( 'NONE', #87, 39.37007874015748143 ) ;
#304 = CIRCLE ( 'NONE', #142, 0.1249999999999997086 ) ;
#305 = SPHERICAL_SURFACE ( 'NONE', #155, 0.1250000000000000000 ) ;
#306 = DIRECTION ( 'NONE',  ( 0.000000000000000000, 0.000000000000000000, -1.000000000000000000 ) ) ;
#307 = CARTESIAN_POINT ( 'NONE',  ( -6.123233995736772199E-17, 3.000000000000000444, 0.000000000000000000 ) ) ;
#308 = DIRECTION ( 'NONE',  ( 0.000000000000000000, 0.000000000000000000, -1.000000000000000000 ) ) ;
#309 = DIRECTION ( 'NONE',  ( -0.000000000000000000, -1.000000000000000000, -0.000000000000000000 ) ) ;
#310 = VERTEX_POINT ( 'NONE', #7 ) ;
#311 = AXIS2_PLACEMENT_3D ( 'NONE', #144, #57, #140 ) ;
#312 = DIRECTION ( 'NONE',  ( -1.000000000000000000, -1.224646799147353700E-16, 0.000000000000000000 ) ) ;
#313 =( CONVERSION_BASED_UNIT ( 'INCH', #168 ) LENGTH_UNIT ( ) NAMED_UNIT ( #32 ) );
#314 = DIRECTION ( 'NONE',  ( 1.000000000000000000, 0.000000000000000000, 0.000000000000000000 ) ) ;
#315 =( CONVERSION_BASED_UNIT ( 'INCH', #126 ) LENGTH_UNIT ( ) NAMED_UNIT ( #273 ) );
#316 = FILL_AREA_STYLE_COLOUR ( '', #197 ) ;
#317 = CARTESIAN_POINT ( 'NONE',  ( -0.1249999999999995143, 1.000000000000000000, 0.000000000000000000 ) ) ;
#318 =( CONVERSION_BASED_UNIT ( 'INCH', #230 ) LENGTH_UNIT ( ) NAMED_UNIT ( #12 ) );
#319 = MECHANICAL_DESIGN_GEOMETRIC_PRESENTATION_REPRESENTATION (  '', ( #194 ), #108 ) ;
#320 = PRESENTATION_STYLE_ASSIGNMENT (( #100 ) ) ;
#321 = AXIS2_PLACEMENT_3D ( 'NONE', #336, #298, #159 ) ;
#322 = DIRECTION ( 'NONE',  ( 0.000000000000000000, 0.000000000000000000, -1.000000000000000000 ) ) ;
#323 =( NAMED_UNIT ( * ) PLANE_ANGLE_UNIT ( ) SI_UNIT ( $, .RADIAN. ) );
#324 = PRODUCT ( '81927', '81927', '', ( #234 ) ) ;
#325 = ORIENTED_EDGE ( 'NONE', *, *, #261, .F. ) ;
#326 = COLOUR_RGB ( '',1.000000000000000000, 0.000000000000000000, 0.000000000000000000 ) ;
#327 = AXIS2_PLACEMENT_3D ( 'NONE', #330, #309, #306 ) ;
#328 = DIRECTION ( 'NONE',  ( -0.000000000000000000, -1.000000000000000000, -0.000000000000000000 ) ) ;
#329 = PLANE ( 'NONE',  #282 ) ;
#330 = CARTESIAN_POINT ( 'NONE',  ( 0.000000000000000000, 0.1250000000000000278, 0.000000000000000000 ) ) ;
#331 = PRESENTATION_LAYER_ASSIGNMENT (  '', '', ( #205 ) ) ;
#332 = ORIENTED_EDGE ( 'NONE', *, *, #116, .T. ) ;
#333 = EDGE_CURVE ( 'NONE', #34, #271, #141, .T. ) ;
#334 = LINE ( 'NONE', #276, #371 ) ;
#335 = CARTESIAN_POINT ( 'NONE',  ( 0.000000000000000000, 0.1250000000000000278, 0.000000000000000000 ) ) ;
#336 = CARTESIAN_POINT ( 'NONE',  ( 0.000000000000000000, 0.000000000000000000, 0.000000000000000000 ) ) ;
#337 = FILL_AREA_STYLE_COLOUR ( '', #326 ) ;
#338 = ADVANCED_FACE ( 'NONE', ( #156 ), #305, .T. ) ;
#339 = ORIENTED_EDGE ( 'NONE', *, *, #128, .T. ) ;
#340 = PRESENTATION_LAYER_ASSIGNMENT (  '', '', ( #194 ) ) ;
#341 = LINE ( 'NONE', #281, #303 ) ;
#342 = AXIS2_PLACEMENT_3D ( 'NONE', #176, #293, #120 ) ;
#343 = SURFACE_SIDE_STYLE ('',( #225 ) ) ;
#344 = PRODUCT_DEFINITION_SHAPE ( 'NONE', 'NONE',  #196 ) ;
#345 = PRESENTATION_LAYER_ASSIGNMENT (  '', '', ( #280 ) ) ;
#346 = PRESENTATION_LAYER_ASSIGNMENT (  '', '', ( #54 ) ) ;
#347 = FILL_AREA_STYLE_COLOUR ( '', #266 ) ;
#348 = APPLICATION_PROTOCOL_DEFINITION ( 'draft international standard', 'automotive_design', 1998, #349 ) ;
#349 = APPLICATION_CONTEXT ( 'automotive_design' ) ;
#350 = FILL_AREA_STYLE_COLOUR ( '', #174 ) ;
#351 = EDGE_CURVE ( 'NONE', #131, #44, #304, .T. ) ;
#352 = LENGTH_MEASURE_WITH_UNIT ( LENGTH_MEASURE( 0.02539999999999999897 ), #74 );
#353 = AXIS2_PLACEMENT_3D ( 'NONE', #373, #56, #312 ) ;
#354 = DIRECTION ( 'NONE',  ( -0.000000000000000000, -1.000000000000000000, -0.000000000000000000 ) ) ;
#355 = UNCERTAINTY_MEASURE_WITH_UNIT (LENGTH_MEASURE( 1.000000000000000082E-05 ), #315, 'distance_accuracy_value', 'NONE');
#356 = DIRECTION ( 'NONE',  ( -0.000000000000000000, -1.000000000000000000, -0.000000000000000000 ) ) ;
#357 = EDGE_LOOP ( 'NONE', ( #235, #187 ) ) ;
#358 = MECHANICAL_DESIGN_GEOMETRIC_PRESENTATION_REPRESENTATION (  '', ( #2 ), #26 ) ;
#359 = CIRCLE ( 'NONE', #272, 0.1249999999999999445 ) ;
#360 = ORIENTED_EDGE ( 'NONE', *, *, #351, .T. ) ;
#361 = PRESENTATION_STYLE_ASSIGNMENT (( #188 ) ) ;
#362 = EDGE_CURVE ( 'NONE', #310, #18, #341, .T. ) ;
#363 = ORIENTED_EDGE ( 'NONE', *, *, #362, .T. ) ;
#364 = DIRECTION ( 'NONE',  ( 0.000000000000000000, 0.000000000000000000, 1.000000000000000000 ) ) ;
#365 = CARTESIAN_POINT ( 'NONE',  ( -0.1250000000000000278, 3.000000000000000444, 0.000000000000000000 ) ) ;
#366 = PRODUCT_DEFINITION_FORMATION_WITH_SPECIFIED_SOURCE ( 'ANY', '', #324, .NOT_KNOWN. ) ;
#367 = EDGE_LOOP ( 'NONE', ( #150, #219, #292, #47 ) ) ;
#368 = ADVANCED_FACE ( 'NONE', ( #252 ), #193, .F. ) ;
#369 = ORIENTED_EDGE ( 'NONE', *, *, #5, .F. ) ;
#370 = FACE_OUTER_BOUND ( 'NONE', #23, .T. ) ;
#371 = VECTOR ( 'NONE', #50, 39.37007874015748143 ) ;
#372 = SURFACE_SIDE_STYLE ('',( #258 ) ) ;
#373 = CARTESIAN_POINT ( 'NONE',  ( 1.836970198721030181E-16, 1.000000000000000000, 0.000000000000000000 ) ) ;
ENDSEC;
END-ISO-10303-21;
