ISO-10303-21;
HEADER;
FILE_DESCRIPTION (( 'STEP AP214' ),
    '1' );
FILE_NAME ('56647.STEP',
    '2023-06-30T22:12:01',
    ( '' ),
    ( '' ),
    'SwSTEP 2.0',
    'SolidWorks 2023',
    '' );
FILE_SCHEMA (( 'AUTOMOTIVE_DESIGN' ));
ENDSEC;

DATA;
#1 = VERTEX_POINT ( 'NONE', #63 ) ;
#2 =( CONVERSION_BASED_UNIT ( 'INCH', #355 ) LENGTH_UNIT ( ) NAMED_UNIT ( #128 ) );
#3 = MECHANICAL_DESIGN_GEOMETRIC_PRESENTATION_REPRESENTATION (  '', ( #140 ), #372 ) ;
#4 = EDGE_LOOP ( 'NONE', ( #21, #203 ) ) ;
#5 = ORIENTED_EDGE ( 'NONE', *, *, #246, .T. ) ;
#6 = CARTESIAN_POINT ( 'NONE',  ( 0.000000000000000000, 0.3750000000000001110, 0.000000000000000000 ) ) ;
#7 = SURFACE_SIDE_STYLE ('',( #108 ) ) ;
#8 = CARTESIAN_POINT ( 'NONE',  ( 2.143131898507868297E-16, 1.250000000000000000, 0.000000000000000000 ) ) ;
#9 = AXIS2_PLACEMENT_3D ( 'NONE', #114, #146, #86 ) ;
#10 = ADVANCED_FACE ( 'NONE', ( #179 ), #153, .F. ) ;
#11 = LINE ( 'NONE', #127, #135 ) ;
#12 = EDGE_LOOP ( 'NONE', ( #59, #348, #55, #228, #124 ) ) ;
#13 = PRODUCT_DEFINITION_FORMATION_WITH_SPECIFIED_SOURCE ( 'ANY', '', #347, .NOT_KNOWN. ) ;
#14 = DIRECTION ( 'NONE',  ( 1.224646799147353207E-16, -0.000000000000000000, 1.000000000000000000 ) ) ;
#15 = SURFACE_STYLE_USAGE ( .BOTH. , #243 ) ;
#16 = DIRECTION ( 'NONE',  ( 1.000000000000000000, 0.000000000000000000, 0.000000000000000000 ) ) ;
#17 = DIRECTION ( 'NONE',  ( 0.000000000000000000, 0.000000000000000000, 1.000000000000000000 ) ) ;
#18 =( LENGTH_UNIT ( ) NAMED_UNIT ( * ) SI_UNIT ( $, .METRE. ) );
#19 = DIRECTION ( 'NONE',  ( -1.000000000000000000, 0.000000000000000000, 0.000000000000000000 ) ) ;
#20 = DIRECTION ( 'NONE',  ( -1.000000000000000000, 0.000000000000000000, 0.000000000000000000 ) ) ;
#21 = ORIENTED_EDGE ( 'NONE', *, *, #320, .F. ) ;
#22 = CARTESIAN_POINT ( 'NONE',  ( 4.592425496802573602E-17, 0.3750000000000001110, 0.3749999999999999445 ) ) ;
#23 =( GEOMETRIC_REPRESENTATION_CONTEXT ( 3 ) GLOBAL_UNCERTAINTY_ASSIGNED_CONTEXT ( ( #38 ) ) GLOBAL_UNIT_ASSIGNED_CONTEXT ( ( #2, #29, #256 ) ) REPRESENTATION_CONTEXT ( 'NONE', 'WORKASPACE' ) );
#24 = AXIS2_PLACEMENT_3D ( 'NONE', #113, #307, #165 ) ;
#25 = CARTESIAN_POINT ( 'NONE',  ( 2.143131898507868297E-16, 1.250000000000000000, 0.000000000000000000 ) ) ;
#26 = EDGE_CURVE ( 'NONE', #174, #321, #82, .T. ) ;
#27 = FILL_AREA_STYLE_COLOUR ( '', #171 ) ;
#28 = EDGE_LOOP ( 'NONE', ( #95, #227, #119, #253 ) ) ;
#29 =( NAMED_UNIT ( * ) PLANE_ANGLE_UNIT ( ) SI_UNIT ( $, .RADIAN. ) );
#30 = PRODUCT_DEFINITION_CONTEXT ( 'detailed design', #226, 'design' ) ;
#31 = ORIENTED_EDGE ( 'NONE', *, *, #282, .F. ) ;
#32 = EDGE_CURVE ( 'NONE', #1, #157, #69, .T. ) ;
#33 = VERTEX_POINT ( 'NONE', #336 ) ;
#34 = UNCERTAINTY_MEASURE_WITH_UNIT (LENGTH_MEASURE( 1.000000000000000082E-05 ), #156, 'distance_accuracy_value', 'NONE');
#35 = ORIENTED_EDGE ( 'NONE', *, *, #232, .T. ) ;
#36 = PRESENTATION_LAYER_ASSIGNMENT (  '', '', ( #338 ) ) ;
#37 = PRESENTATION_LAYER_ASSIGNMENT (  '', '', ( #199 ) ) ;
#38 = UNCERTAINTY_MEASURE_WITH_UNIT (LENGTH_MEASURE( 1.000000000000000082E-05 ), #2, 'distance_accuracy_value', 'NONE');
#39 = SURFACE_STYLE_USAGE ( .BOTH. , #7 ) ;
#40 = CARTESIAN_POINT ( 'NONE',  ( 2.143131898507868297E-16, 1.250000000000000000, 0.000000000000000000 ) ) ;
#41 =( CONVERSION_BASED_UNIT ( 'INCH', #131 ) LENGTH_UNIT ( ) NAMED_UNIT ( #132 ) );
#42 = FILL_AREA_STYLE ('',( #354 ) ) ;
#43 = DIMENSIONAL_EXPONENTS ( 1.000000000000000000, 0.000000000000000000, 0.000000000000000000, 0.000000000000000000, 0.000000000000000000, 0.000000000000000000, 0.000000000000000000 ) ;
#44 = ADVANCED_FACE ( 'NONE', ( #48 ), #78, .T. ) ;
#45 = DIRECTION ( 'NONE',  ( 0.000000000000000000, 0.000000000000000000, -1.000000000000000000 ) ) ;
#46 =( CONVERSION_BASED_UNIT ( 'INCH', #332 ) LENGTH_UNIT ( ) NAMED_UNIT ( #297 ) );
#47 =( NAMED_UNIT ( * ) PLANE_ANGLE_UNIT ( ) SI_UNIT ( $, .RADIAN. ) );
#48 = FACE_OUTER_BOUND ( 'NONE', #257, .T. ) ;
#49 = DIRECTION ( 'NONE',  ( 0.000000000000000000, 0.000000000000000000, -1.000000000000000000 ) ) ;
#50 = DIRECTION ( 'NONE',  ( 0.000000000000000000, 0.000000000000000000, 1.000000000000000000 ) ) ;
#51 = STYLED_ITEM ( 'NONE', ( #103 ), #365 ) ;
#52 = CARTESIAN_POINT ( 'NONE',  ( -4.592425496802575451E-17, 0.3750000000000000555, 0.000000000000000000 ) ) ;
#53 = COLOUR_RGB ( '',1.000000000000000000, 0.000000000000000000, 0.000000000000000000 ) ;
#54 = CIRCLE ( 'NONE', #116, 0.3749999999999998335 ) ;
#55 = ORIENTED_EDGE ( 'NONE', *, *, #214, .T. ) ;
#56 =( CONVERSION_BASED_UNIT ( 'INCH', #291 ) LENGTH_UNIT ( ) NAMED_UNIT ( #43 ) );
#57 = UNCERTAINTY_MEASURE_WITH_UNIT (LENGTH_MEASURE( 1.000000000000000082E-05 ), #237, 'distance_accuracy_value', 'NONE');
#58 = MECHANICAL_DESIGN_GEOMETRIC_PRESENTATION_REPRESENTATION (  '', ( #338 ), #23 ) ;
#59 = ORIENTED_EDGE ( 'NONE', *, *, #357, .F. ) ;
#60 = SURFACE_SIDE_STYLE ('',( #207 ) ) ;
#61 = COLOUR_RGB ( '',1.000000000000000000, 0.000000000000000000, 0.000000000000000000 ) ;
#62 =( GEOMETRIC_REPRESENTATION_CONTEXT ( 3 ) GLOBAL_UNCERTAINTY_ASSIGNED_CONTEXT ( ( #121 ) ) GLOBAL_UNIT_ASSIGNED_CONTEXT ( ( #359, #187, #236 ) ) REPRESENTATION_CONTEXT ( 'NONE', 'WORKASPACE' ) );
#63 = CARTESIAN_POINT ( 'NONE',  ( 4.592425496802572986E-17, 1.250000000000000000, 0.3749999999999998335 ) ) ;
#64 = FACE_OUTER_BOUND ( 'NONE', #177, .T. ) ;
#65 = ORIENTED_EDGE ( 'NONE', *, *, #326, .F. ) ;
#66 = CARTESIAN_POINT ( 'NONE',  ( -1.224646799147352714E-16, 4.000000000000000000, 0.000000000000000000 ) ) ;
#67 = PLANE ( 'NONE',  #105 ) ;
#68 = DIRECTION ( 'NONE',  ( -1.224646799147353207E-16, 1.000000000000000000, -0.000000000000000000 ) ) ;
#69 = CIRCLE ( 'NONE', #255, 0.3749999999999998335 ) ;
#70 = CIRCLE ( 'NONE', #221, 0.3749999999999996114 ) ;
#71 = MANIFOLD_SOLID_BREP ( 'Revolve - Cutting Edge', #234 ) ;
#72 = MANIFOLD_SOLID_BREP ( 'Revolve - Tool Body (Straight Shanked)', #351 ) ;
#73 = MECHANICAL_DESIGN_GEOMETRIC_PRESENTATION_REPRESENTATION (  '', ( #104 ), #111 ) ;
#74 = CIRCLE ( 'NONE', #262, 0.3750000000000000555 ) ;
#75 = DIRECTION ( 'NONE',  ( 1.000000000000000000, 1.224646799147353207E-16, 0.000000000000000000 ) ) ;
#76 = LENGTH_MEASURE_WITH_UNIT ( LENGTH_MEASURE( 0.02539999999999999897 ), #190 );
#77 = EDGE_CURVE ( 'NONE', #287, #259, #289, .T. ) ;
#78 = CYLINDRICAL_SURFACE ( 'NONE', #182, 0.3749999999999998890 ) ;
#79 = CYLINDRICAL_SURFACE ( 'NONE', #352, 0.3749999999999998890 ) ;
#80 = FILL_AREA_STYLE ('',( #329 ) ) ;
#81 = CARTESIAN_POINT ( 'NONE',  ( -1.224646799147352714E-16, 4.000000000000000000, 0.000000000000000000 ) ) ;
#82 = CIRCLE ( 'NONE', #288, 0.3749999999999996114 ) ;
#83 = DIRECTION ( 'NONE',  ( -0.000000000000000000, -1.000000000000000000, -0.000000000000000000 ) ) ;
#84 = COLOUR_RGB ( '',1.000000000000000000, 0.000000000000000000, 0.000000000000000000 ) ;
#85 = APPLICATION_PROTOCOL_DEFINITION ( 'draft international standard', 'automotive_design', 1998, #306 ) ;
#86 = DIRECTION ( 'NONE',  ( 0.000000000000000000, 0.000000000000000000, -1.000000000000000000 ) ) ;
#87 = CYLINDRICAL_SURFACE ( 'NONE', #88, 0.3749999999999998335 ) ;
#88 = AXIS2_PLACEMENT_3D ( 'NONE', #225, #117, #314 ) ;
#89 = ORIENTED_EDGE ( 'NONE', *, *, #100, .F. ) ;
#90 = SURFACE_STYLE_USAGE ( .BOTH. , #60 ) ;
#91 = EDGE_CURVE ( 'NONE', #33, #369, #249, .T. ) ;
#92 = ORIENTED_EDGE ( 'NONE', *, *, #320, .T. ) ;
#93 = ORIENTED_EDGE ( 'NONE', *, *, #331, .T. ) ;
#94 = PRESENTATION_STYLE_ASSIGNMENT (( #90 ) ) ;
#95 = ORIENTED_EDGE ( 'NONE', *, *, #331, .F. ) ;
#96 =( LENGTH_UNIT ( ) NAMED_UNIT ( * ) SI_UNIT ( $, .METRE. ) );
#97 = AXIS2_PLACEMENT_3D ( 'NONE', #160, #299, #16 ) ;
#98 =( NAMED_UNIT ( * ) PLANE_ANGLE_UNIT ( ) SI_UNIT ( $, .RADIAN. ) );
#99 = ORIENTED_EDGE ( 'NONE', *, *, #282, .T. ) ;
#100 = EDGE_CURVE ( 'NONE', #321, #174, #70, .T. ) ;
#101 = FILL_AREA_STYLE_COLOUR ( '', #223 ) ;
#102 = VERTEX_POINT ( 'NONE', #302 ) ;
#103 = PRESENTATION_STYLE_ASSIGNMENT (( #184 ) ) ;
#104 = STYLED_ITEM ( 'NONE', ( #109 ), #44 ) ;
#105 = AXIS2_PLACEMENT_3D ( 'NONE', #215, #356, #180 ) ;
#106 = DIMENSIONAL_EXPONENTS ( 1.000000000000000000, 0.000000000000000000, 0.000000000000000000, 0.000000000000000000, 0.000000000000000000, 0.000000000000000000, 0.000000000000000000 ) ;
#107 =( NAMED_UNIT ( * ) SI_UNIT ( $, .STERADIAN. ) SOLID_ANGLE_UNIT ( ) );
#108 = SURFACE_STYLE_FILL_AREA ( #42 ) ;
#109 = PRESENTATION_STYLE_ASSIGNMENT (( #242 ) ) ;
#110 = CARTESIAN_POINT ( 'NONE',  ( -0.3749999999999993894, 1.250000000000000000, 0.000000000000000000 ) ) ;
#111 =( GEOMETRIC_REPRESENTATION_CONTEXT ( 3 ) GLOBAL_UNCERTAINTY_ASSIGNED_CONTEXT ( ( #57 ) ) GLOBAL_UNIT_ASSIGNED_CONTEXT ( ( #237, #270, #272 ) ) REPRESENTATION_CONTEXT ( 'NONE', 'WORKASPACE' ) );
#112 = VECTOR ( 'NONE', #373, 39.37007874015748143 ) ;
#113 = CARTESIAN_POINT ( 'NONE',  ( 0.000000000000000000, 0.3750000000000001110, 0.000000000000000000 ) ) ;
#114 = CARTESIAN_POINT ( 'NONE',  ( 0.000000000000000000, 0.3750000000000001110, 0.000000000000000000 ) ) ;
#115 = DIRECTION ( 'NONE',  ( 1.000000000000000000, 0.000000000000000000, 0.000000000000000000 ) ) ;
#116 = AXIS2_PLACEMENT_3D ( 'NONE', #342, #198, #170 ) ;
#117 = DIRECTION ( 'NONE',  ( -1.224646799147353207E-16, 1.000000000000000000, -0.000000000000000000 ) ) ;
#118 = EDGE_CURVE ( 'NONE', #369, #33, #330, .T. ) ;
#119 = ORIENTED_EDGE ( 'NONE', *, *, #326, .T. ) ;
#120 = SURFACE_STYLE_FILL_AREA ( #172 ) ;
#121 = UNCERTAINTY_MEASURE_WITH_UNIT (LENGTH_MEASURE( 1.000000000000000082E-05 ), #359, 'distance_accuracy_value', 'NONE');
#122 = EDGE_LOOP ( 'NONE', ( #210, #245 ) ) ;
#123 =( NAMED_UNIT ( * ) SI_UNIT ( $, .STERADIAN. ) SOLID_ANGLE_UNIT ( ) );
#124 = ORIENTED_EDGE ( 'NONE', *, *, #246, .F. ) ;
#125 = DIRECTION ( 'NONE',  ( -0.000000000000000000, -1.000000000000000000, -0.000000000000000000 ) ) ;
#126 = DIRECTION ( 'NONE',  ( -1.224646799147353207E-16, 1.000000000000000000, 0.000000000000000000 ) ) ;
#127 = CARTESIAN_POINT ( 'NONE',  ( 4.592425496802572986E-17, 0.000000000000000000, 0.3749999999999998890 ) ) ;
#128 = DIMENSIONAL_EXPONENTS ( 1.000000000000000000, 0.000000000000000000, 0.000000000000000000, 0.000000000000000000, 0.000000000000000000, 0.000000000000000000, 0.000000000000000000 ) ;
#129 = LENGTH_MEASURE_WITH_UNIT ( LENGTH_MEASURE( 0.02539999999999999897 ), #158 );
#130 = CARTESIAN_POINT ( 'NONE',  ( 0.000000000000000000, 1.250000000000000000, 0.000000000000000000 ) ) ;
#131 = LENGTH_MEASURE_WITH_UNIT ( LENGTH_MEASURE( 0.02539999999999999897 ), #267 );
#132 = DIMENSIONAL_EXPONENTS ( 1.000000000000000000, 0.000000000000000000, 0.000000000000000000, 0.000000000000000000, 0.000000000000000000, 0.000000000000000000, 0.000000000000000000 ) ;
#133 = STYLED_ITEM ( 'NONE', ( #310 ), #211 ) ;
#134 = FILL_AREA_STYLE ('',( #164 ) ) ;
#135 = VECTOR ( 'NONE', #209, 39.37007874015748143 ) ;
#136 = SURFACE_SIDE_STYLE ('',( #233 ) ) ;
#137 = FACE_OUTER_BOUND ( 'NONE', #122, .T. ) ;
#138 = DIMENSIONAL_EXPONENTS ( 1.000000000000000000, 0.000000000000000000, 0.000000000000000000, 0.000000000000000000, 0.000000000000000000, 0.000000000000000000, 0.000000000000000000 ) ;
#139 = EDGE_CURVE ( 'NONE', #259, #293, #205, .T. ) ;
#140 = STYLED_ITEM ( 'NONE', ( #252 ), #72 ) ;
#141 = AXIS2_PLACEMENT_3D ( 'NONE', #197, #280, #20 ) ;
#142 = SPHERICAL_SURFACE ( 'NONE', #163, 0.3750000000000000555 ) ;
#143 = CARTESIAN_POINT ( 'NONE',  ( 0.000000000000000000, 0.000000000000000000, 0.000000000000000000 ) ) ;
#144 = DIRECTION ( 'NONE',  ( -1.224646799147353207E-16, 1.000000000000000000, -0.000000000000000000 ) ) ;
#145 = SURFACE_STYLE_FILL_AREA ( #80 ) ;
#146 = DIRECTION ( 'NONE',  ( -0.000000000000000000, -1.000000000000000000, -0.000000000000000000 ) ) ;
#147 = VECTOR ( 'NONE', #162, 39.37007874015748143 ) ;
#148 = LINE ( 'NONE', #250, #112 ) ;
#149 = FILL_AREA_STYLE ('',( #248 ) ) ;
#150 = ADVANCED_FACE ( 'NONE', ( #311 ), #142, .T. ) ;
#151 = ORIENTED_EDGE ( 'NONE', *, *, #357, .T. ) ;
#152 = CARTESIAN_POINT ( 'NONE',  ( 0.3749999999999996669, 4.000000000000000000, 4.592425496802572370E-17 ) ) ;
#153 = PLANE ( 'NONE',  #154 ) ;
#154 = AXIS2_PLACEMENT_3D ( 'NONE', #8, #126, #325 ) ;
#155 = COLOUR_RGB ( '',1.000000000000000000, 0.000000000000000000, 0.000000000000000000 ) ;
#156 =( CONVERSION_BASED_UNIT ( 'INCH', #213 ) LENGTH_UNIT ( ) NAMED_UNIT ( #333 ) );
#157 = VERTEX_POINT ( 'NONE', #284 ) ;
#158 =( LENGTH_UNIT ( ) NAMED_UNIT ( * ) SI_UNIT ( $, .METRE. ) );
#159 = DIRECTION ( 'NONE',  ( 0.000000000000000000, 0.000000000000000000, -1.000000000000000000 ) ) ;
#160 = CARTESIAN_POINT ( 'NONE',  ( -4.592425496802575451E-17, 0.3750000000000000555, 0.000000000000000000 ) ) ;
#161 = DIRECTION ( 'NONE',  ( -1.000000000000000000, 0.000000000000000000, 0.000000000000000000 ) ) ;
#162 = DIRECTION ( 'NONE',  ( -0.000000000000000000, -1.000000000000000000, -0.000000000000000000 ) ) ;
#163 = AXIS2_PLACEMENT_3D ( 'NONE', #366, #17, #115 ) ;
#164 = FILL_AREA_STYLE_COLOUR ( '', #53 ) ;
#165 = DIRECTION ( 'NONE',  ( 0.000000000000000000, 0.000000000000000000, -1.000000000000000000 ) ) ;
#166 = DIRECTION ( 'NONE',  ( 1.000000000000000000, 0.000000000000000000, 0.000000000000000000 ) ) ;
#167 = CYLINDRICAL_SURFACE ( 'NONE', #141, 0.3749999999999998335 ) ;
#168 = PRODUCT_CONTEXT ( 'NONE', #306, 'mechanical' ) ;
#169 = DIRECTION ( 'NONE',  ( -1.000000000000000000, 0.000000000000000000, 0.000000000000000000 ) ) ;
#170 = DIRECTION ( 'NONE',  ( 0.000000000000000000, 0.000000000000000000, -1.000000000000000000 ) ) ;
#171 = COLOUR_RGB ( '',0.7921568627450980005, 0.8196078431372548767, 0.9333333333333333481 ) ;
#172 = FILL_AREA_STYLE ('',( #254 ) ) ;
#173 = ORIENTED_EDGE ( 'NONE', *, *, #232, .F. ) ;
#174 = VERTEX_POINT ( 'NONE', #110 ) ;
#175 =( NAMED_UNIT ( * ) PLANE_ANGLE_UNIT ( ) SI_UNIT ( $, .RADIAN. ) );
#176 =( GEOMETRIC_REPRESENTATION_CONTEXT ( 3 ) GLOBAL_UNCERTAINTY_ASSIGNED_CONTEXT ( ( #353 ) ) GLOBAL_UNIT_ASSIGNED_CONTEXT ( ( #46, #239, #271 ) ) REPRESENTATION_CONTEXT ( 'NONE', 'WORKASPACE' ) );
#177 = EDGE_LOOP ( 'NONE', ( #31, #281, #312, #345 ) ) ;
#178 = SURFACE_STYLE_USAGE ( .BOTH. , #204 ) ;
#179 = FACE_OUTER_BOUND ( 'NONE', #277, .T. ) ;
#180 = DIRECTION ( 'NONE',  ( 0.000000000000000000, -0.000000000000000000, 1.000000000000000000 ) ) ;
#181 = PRODUCT_DEFINITION ( 'UNKNOWN', '', #13, #30 ) ;
#182 = AXIS2_PLACEMENT_3D ( 'NONE', #303, #274, #45 ) ;
#183 = UNCERTAINTY_MEASURE_WITH_UNIT (LENGTH_MEASURE( 1.000000000000000082E-05 ), #56, 'distance_accuracy_value', 'NONE');
#184 = SURFACE_STYLE_USAGE ( .BOTH. , #136 ) ;
#185 = DIRECTION ( 'NONE',  ( -0.000000000000000000, -1.000000000000000000, -0.000000000000000000 ) ) ;
#186 = EDGE_CURVE ( 'NONE', #293, #102, #327, .T. ) ;
#187 =( NAMED_UNIT ( * ) PLANE_ANGLE_UNIT ( ) SI_UNIT ( $, .RADIAN. ) );
#188 = CIRCLE ( 'NONE', #268, 0.3749999999999999445 ) ;
#189 = PRODUCT_RELATED_PRODUCT_CATEGORY ( 'part', '', ( #347 ) ) ;
#190 =( LENGTH_UNIT ( ) NAMED_UNIT ( * ) SI_UNIT ( $, .METRE. ) );
#191 = LINE ( 'NONE', #305, #147 ) ;
#192 = ADVANCED_FACE ( 'NONE', ( #137 ), #217, .F. ) ;
#193 = DIRECTION ( 'NONE',  ( 0.000000000000000000, 0.000000000000000000, -1.000000000000000000 ) ) ;
#194 = STYLED_ITEM ( 'NONE', ( #251 ), #150 ) ;
#195 =( LENGTH_UNIT ( ) NAMED_UNIT ( * ) SI_UNIT ( $, .METRE. ) );
#196 = CARTESIAN_POINT ( 'NONE',  ( 0.3749999999999999445, 0.3750000000000001110, 0.000000000000000000 ) ) ;
#197 = CARTESIAN_POINT ( 'NONE',  ( -1.224646799147352714E-16, 4.000000000000000000, 0.000000000000000000 ) ) ;
#198 = DIRECTION ( 'NONE',  ( -0.000000000000000000, -1.000000000000000000, -0.000000000000000000 ) ) ;
#199 = STYLED_ITEM ( 'NONE', ( #328 ), #349 ) ;
#200 = PRESENTATION_LAYER_ASSIGNMENT (  '', '', ( #51 ) ) ;
#201 = FILL_AREA_STYLE ('',( #27 ) ) ;
#202 = ORIENTED_EDGE ( 'NONE', *, *, #26, .F. ) ;
#203 = ORIENTED_EDGE ( 'NONE', *, *, #32, .F. ) ;
#204 = SURFACE_SIDE_STYLE ('',( #120 ) ) ;
#205 = CIRCLE ( 'NONE', #9, 0.3749999999999999445 ) ;
#206 = ORIENTED_EDGE ( 'NONE', *, *, #186, .F. ) ;
#207 = SURFACE_STYLE_FILL_AREA ( #201 ) ;
#208 = UNCERTAINTY_MEASURE_WITH_UNIT (LENGTH_MEASURE( 1.000000000000000082E-05 ), #301, 'distance_accuracy_value', 'NONE');
#209 = DIRECTION ( 'NONE',  ( -0.000000000000000000, -1.000000000000000000, -0.000000000000000000 ) ) ;
#210 = ORIENTED_EDGE ( 'NONE', *, *, #91, .T. ) ;
#211 = ADVANCED_FACE ( 'NONE', ( #334 ), #79, .T. ) ;
#212 = MECHANICAL_DESIGN_GEOMETRIC_PRESENTATION_REPRESENTATION (  '', ( #194 ), #298 ) ;
#213 = LENGTH_MEASURE_WITH_UNIT ( LENGTH_MEASURE( 0.02539999999999999897 ), #230 );
#214 = EDGE_CURVE ( 'NONE', #157, #259, #191, .T. ) ;
#215 = CARTESIAN_POINT ( 'NONE',  ( 0.000000000000000000, 1.250000000000000000, 0.000000000000000000 ) ) ;
#216 = SURFACE_STYLE_FILL_AREA ( #134 ) ;
#217 = PLANE ( 'NONE',  #235 ) ;
#218 = AXIS2_PLACEMENT_3D ( 'NONE', #219, #370, #161 ) ;
#219 = CARTESIAN_POINT ( 'NONE',  ( -4.592425496802575451E-17, 0.3750000000000000555, 0.000000000000000000 ) ) ;
#220 = CARTESIAN_POINT ( 'NONE',  ( 0.000000000000000000, 0.3750000000000001110, -0.3749999999999999445 ) ) ;
#221 = AXIS2_PLACEMENT_3D ( 'NONE', #25, #144, #169 ) ;
#222 = DIRECTION ( 'NONE',  ( 1.000000000000000000, 0.000000000000000000, -1.224646799147353207E-16 ) ) ;
#223 = COLOUR_RGB ( '',1.000000000000000000, 0.000000000000000000, 0.000000000000000000 ) ;
#224 = SURFACE_SIDE_STYLE ('',( #371 ) ) ;
#225 = CARTESIAN_POINT ( 'NONE',  ( -1.224646799147352714E-16, 4.000000000000000000, 0.000000000000000000 ) ) ;
#226 = APPLICATION_CONTEXT ( 'automotive_design' ) ;
#227 = ORIENTED_EDGE ( 'NONE', *, *, #100, .T. ) ;
#228 = ORIENTED_EDGE ( 'NONE', *, *, #77, .F. ) ;
#229 = PRESENTATION_LAYER_ASSIGNMENT (  '', '', ( #133 ) ) ;
#230 =( LENGTH_UNIT ( ) NAMED_UNIT ( * ) SI_UNIT ( $, .METRE. ) );
#231 = ORIENTED_EDGE ( 'NONE', *, *, #26, .T. ) ;
#232 = EDGE_CURVE ( 'NONE', #293, #323, #188, .T. ) ;
#233 = SURFACE_STYLE_FILL_AREA ( #324 ) ;
#234 = CLOSED_SHELL ( 'NONE', ( #150, #44, #349, #211, #365 ) ) ;
#235 = AXIS2_PLACEMENT_3D ( 'NONE', #273, #241, #75 ) ;
#236 =( NAMED_UNIT ( * ) SI_UNIT ( $, .STERADIAN. ) SOLID_ANGLE_UNIT ( ) );
#237 =( CONVERSION_BASED_UNIT ( 'INCH', #315 ) LENGTH_UNIT ( ) NAMED_UNIT ( #106 ) );
#238 =( NAMED_UNIT ( * ) SI_UNIT ( $, .STERADIAN. ) SOLID_ANGLE_UNIT ( ) );
#239 =( NAMED_UNIT ( * ) PLANE_ANGLE_UNIT ( ) SI_UNIT ( $, .RADIAN. ) );
#240 = MECHANICAL_DESIGN_GEOMETRIC_PRESENTATION_REPRESENTATION (  '', ( #199 ), #276 ) ;
#241 = DIRECTION ( 'NONE',  ( 1.224646799147353207E-16, -1.000000000000000000, 0.000000000000000000 ) ) ;
#242 = SURFACE_STYLE_USAGE ( .BOTH. , #362 ) ;
#243 = SURFACE_SIDE_STYLE ('',( #145 ) ) ;
#244 = DIRECTION ( 'NONE',  ( -1.000000000000000000, 0.000000000000000000, 0.000000000000000000 ) ) ;
#245 = ORIENTED_EDGE ( 'NONE', *, *, #118, .T. ) ;
#246 = EDGE_CURVE ( 'NONE', #323, #287, #363, .T. ) ;
#247 = PRODUCT_DEFINITION_SHAPE ( 'NONE', 'NONE',  #181 ) ;
#248 = FILL_AREA_STYLE_COLOUR ( '', #61 ) ;
#249 = CIRCLE ( 'NONE', #361, 0.3749999999999999445 ) ;
#250 = CARTESIAN_POINT ( 'NONE',  ( -0.3749999999999999445, 4.000000000000000000, 0.000000000000000000 ) ) ;
#251 = PRESENTATION_STYLE_ASSIGNMENT (( #341 ) ) ;
#252 = PRESENTATION_STYLE_ASSIGNMENT (( #178 ) ) ;
#253 = ORIENTED_EDGE ( 'NONE', *, *, #118, .F. ) ;
#254 = FILL_AREA_STYLE_COLOUR ( '', #294 ) ;
#255 = AXIS2_PLACEMENT_3D ( 'NONE', #130, #185, #159 ) ;
#256 =( NAMED_UNIT ( * ) SI_UNIT ( $, .STERADIAN. ) SOLID_ANGLE_UNIT ( ) );
#257 = EDGE_LOOP ( 'NONE', ( #92, #151, #173, #350, #286 ) ) ;
#258 = FACE_OUTER_BOUND ( 'NONE', #4, .T. ) ;
#259 = VERTEX_POINT ( 'NONE', #220 ) ;
#260 = DIRECTION ( 'NONE',  ( 0.000000000000000000, 0.000000000000000000, -1.000000000000000000 ) ) ;
#261 = PRESENTATION_LAYER_ASSIGNMENT (  '', '', ( #104 ) ) ;
#262 = AXIS2_PLACEMENT_3D ( 'NONE', #52, #14, #222 ) ;
#263 = DIRECTION ( 'NONE',  ( -1.224646799147353207E-16, 1.000000000000000000, -0.000000000000000000 ) ) ;
#264 =( GEOMETRIC_REPRESENTATION_CONTEXT ( 3 ) GLOBAL_UNCERTAINTY_ASSIGNED_CONTEXT ( ( #208 ) ) GLOBAL_UNIT_ASSIGNED_CONTEXT ( ( #301, #47, #335 ) ) REPRESENTATION_CONTEXT ( 'NONE', 'WORKASPACE' ) );
#265 = UNCERTAINTY_MEASURE_WITH_UNIT (LENGTH_MEASURE( 1.000000000000000082E-05 ), #41, 'distance_accuracy_value', 'NONE');
#266 = DIMENSIONAL_EXPONENTS ( 1.000000000000000000, 0.000000000000000000, 0.000000000000000000, 0.000000000000000000, 0.000000000000000000, 0.000000000000000000, 0.000000000000000000 ) ;
#267 =( LENGTH_UNIT ( ) NAMED_UNIT ( * ) SI_UNIT ( $, .METRE. ) );
#268 = AXIS2_PLACEMENT_3D ( 'NONE', #275, #364, #193 ) ;
#269 = CARTESIAN_POINT ( 'NONE',  ( 0.3749999999999998335, 4.000000000000000000, 4.592425496802572986E-17 ) ) ;
#270 =( NAMED_UNIT ( * ) PLANE_ANGLE_UNIT ( ) SI_UNIT ( $, .RADIAN. ) );
#271 =( NAMED_UNIT ( * ) SI_UNIT ( $, .STERADIAN. ) SOLID_ANGLE_UNIT ( ) );
#272 =( NAMED_UNIT ( * ) SI_UNIT ( $, .STERADIAN. ) SOLID_ANGLE_UNIT ( ) );
#273 = CARTESIAN_POINT ( 'NONE',  ( 0.3749999999999998335, 4.000000000000000000, 0.000000000000000000 ) ) ;
#274 = DIRECTION ( 'NONE',  ( -0.000000000000000000, -1.000000000000000000, -0.000000000000000000 ) ) ;
#275 = CARTESIAN_POINT ( 'NONE',  ( 0.000000000000000000, 0.3750000000000001110, 0.000000000000000000 ) ) ;
#276 =( GEOMETRIC_REPRESENTATION_CONTEXT ( 3 ) GLOBAL_UNCERTAINTY_ASSIGNED_CONTEXT ( ( #34 ) ) GLOBAL_UNIT_ASSIGNED_CONTEXT ( ( #156, #98, #238 ) ) REPRESENTATION_CONTEXT ( 'NONE', 'WORKASPACE' ) );
#277 = EDGE_LOOP ( 'NONE', ( #202, #89 ) ) ;
#278 = SHAPE_DEFINITION_REPRESENTATION ( #247, #358 ) ;
#279 = DIRECTION ( 'NONE',  ( -1.224646799147353207E-16, 1.000000000000000000, -0.000000000000000000 ) ) ;
#280 = DIRECTION ( 'NONE',  ( -1.224646799147353207E-16, 1.000000000000000000, -0.000000000000000000 ) ) ;
#281 = ORIENTED_EDGE ( 'NONE', *, *, #77, .T. ) ;
#282 = EDGE_CURVE ( 'NONE', #287, #102, #74, .T. ) ;
#283 = CARTESIAN_POINT ( 'NONE',  ( 0.3749999999999998335, 1.250000000000000000, 4.592425496802572986E-17 ) ) ;
#284 = CARTESIAN_POINT ( 'NONE',  ( 0.000000000000000000, 1.250000000000000000, -0.3749999999999998335 ) ) ;
#285 = AXIS2_PLACEMENT_3D ( 'NONE', #308, #50, #166 ) ;
#286 = ORIENTED_EDGE ( 'NONE', *, *, #214, .F. ) ;
#287 = VERTEX_POINT ( 'NONE', #337 ) ;
#288 = AXIS2_PLACEMENT_3D ( 'NONE', #40, #68, #360 ) ;
#289 = CIRCLE ( 'NONE', #322, 0.3749999999999999445 ) ;
#290 = EDGE_LOOP ( 'NONE', ( #231, #93, #319, #65 ) ) ;
#291 = LENGTH_MEASURE_WITH_UNIT ( LENGTH_MEASURE( 0.02539999999999999897 ), #346 );
#292 = LINE ( 'NONE', #152, #316 ) ;
#293 = VERTEX_POINT ( 'NONE', #196 ) ;
#294 = COLOUR_RGB ( '',0.7921568627450980005, 0.8196078431372548767, 0.9333333333333333481 ) ;
#295 =( NAMED_UNIT ( * ) PLANE_ANGLE_UNIT ( ) SI_UNIT ( $, .RADIAN. ) );
#296 = SPHERICAL_SURFACE ( 'NONE', #97, 0.3750000000000000555 ) ;
#297 = DIMENSIONAL_EXPONENTS ( 1.000000000000000000, 0.000000000000000000, 0.000000000000000000, 0.000000000000000000, 0.000000000000000000, 0.000000000000000000, 0.000000000000000000 ) ;
#298 =( GEOMETRIC_REPRESENTATION_CONTEXT ( 3 ) GLOBAL_UNCERTAINTY_ASSIGNED_CONTEXT ( ( #265 ) ) GLOBAL_UNIT_ASSIGNED_CONTEXT ( ( #41, #295, #107 ) ) REPRESENTATION_CONTEXT ( 'NONE', 'WORKASPACE' ) );
#299 = DIRECTION ( 'NONE',  ( 0.000000000000000000, 0.000000000000000000, 1.000000000000000000 ) ) ;
#300 = MECHANICAL_DESIGN_GEOMETRIC_PRESENTATION_REPRESENTATION (  '', ( #51 ), #62 ) ;
#301 =( CONVERSION_BASED_UNIT ( 'INCH', #76 ) LENGTH_UNIT ( ) NAMED_UNIT ( #138 ) );
#302 = CARTESIAN_POINT ( 'NONE',  ( -2.296212748401287726E-17, 0.000000000000000000, 0.000000000000000000 ) ) ;
#303 = CARTESIAN_POINT ( 'NONE',  ( 0.000000000000000000, 0.000000000000000000, 0.000000000000000000 ) ) ;
#304 = ADVANCED_FACE ( 'NONE', ( #340 ), #167, .T. ) ;
#305 = CARTESIAN_POINT ( 'NONE',  ( 0.000000000000000000, 0.000000000000000000, -0.3749999999999998890 ) ) ;
#306 = APPLICATION_CONTEXT ( 'automotive_design' ) ;
#307 = DIRECTION ( 'NONE',  ( -0.000000000000000000, -1.000000000000000000, -0.000000000000000000 ) ) ;
#308 = CARTESIAN_POINT ( 'NONE',  ( 0.000000000000000000, 0.000000000000000000, 0.000000000000000000 ) ) ;
#309 = PRESENTATION_LAYER_ASSIGNMENT (  '', '', ( #194 ) ) ;
#310 = PRESENTATION_STYLE_ASSIGNMENT (( #15 ) ) ;
#311 = FACE_OUTER_BOUND ( 'NONE', #318, .T. ) ;
#312 = ORIENTED_EDGE ( 'NONE', *, *, #139, .T. ) ;
#313 = FACE_OUTER_BOUND ( 'NONE', #290, .T. ) ;
#314 = DIRECTION ( 'NONE',  ( -1.000000000000000000, 0.000000000000000000, 0.000000000000000000 ) ) ;
#315 = LENGTH_MEASURE_WITH_UNIT ( LENGTH_MEASURE( 0.02539999999999999897 ), #195 );
#316 = VECTOR ( 'NONE', #263, 39.37007874015748143 ) ;
#317 = ADVANCED_FACE ( 'NONE', ( #313 ), #87, .T. ) ;
#318 = EDGE_LOOP ( 'NONE', ( #5, #99, #206, #35 ) ) ;
#319 = ORIENTED_EDGE ( 'NONE', *, *, #91, .F. ) ;
#320 = EDGE_CURVE ( 'NONE', #157, #1, #54, .T. ) ;
#321 = VERTEX_POINT ( 'NONE', #283 ) ;
#322 = AXIS2_PLACEMENT_3D ( 'NONE', #6, #125, #260 ) ;
#323 = VERTEX_POINT ( 'NONE', #22 ) ;
#324 = FILL_AREA_STYLE ('',( #101 ) ) ;
#325 = DIRECTION ( 'NONE',  ( -1.000000000000000000, -1.224646799147353207E-16, 0.000000000000000000 ) ) ;
#326 = EDGE_CURVE ( 'NONE', #174, #33, #148, .T. ) ;
#327 = CIRCLE ( 'NONE', #218, 0.3750000000000000555 ) ;
#328 = PRESENTATION_STYLE_ASSIGNMENT (( #39 ) ) ;
#329 = FILL_AREA_STYLE_COLOUR ( '', #84 ) ;
#330 = CIRCLE ( 'NONE', #339, 0.3749999999999999445 ) ;
#331 = EDGE_CURVE ( 'NONE', #321, #369, #292, .T. ) ;
#332 = LENGTH_MEASURE_WITH_UNIT ( LENGTH_MEASURE( 0.02539999999999999897 ), #18 );
#333 = DIMENSIONAL_EXPONENTS ( 1.000000000000000000, 0.000000000000000000, 0.000000000000000000, 0.000000000000000000, 0.000000000000000000, 0.000000000000000000, 0.000000000000000000 ) ;
#334 = FACE_OUTER_BOUND ( 'NONE', #12, .T. ) ;
#335 =( NAMED_UNIT ( * ) SI_UNIT ( $, .STERADIAN. ) SOLID_ANGLE_UNIT ( ) );
#336 = CARTESIAN_POINT ( 'NONE',  ( -0.3750000000000001110, 4.000000000000000000, 0.000000000000000000 ) ) ;
#337 = CARTESIAN_POINT ( 'NONE',  ( -0.3750000000000000555, 0.3750000000000001110, 4.592425496802574219E-17 ) ) ;
#338 = STYLED_ITEM ( 'NONE', ( #94 ), #71 ) ;
#339 = AXIS2_PLACEMENT_3D ( 'NONE', #81, #279, #19 ) ;
#340 = FACE_OUTER_BOUND ( 'NONE', #28, .T. ) ;
#341 = SURFACE_STYLE_USAGE ( .BOTH. , #224 ) ;
#342 = CARTESIAN_POINT ( 'NONE',  ( 0.000000000000000000, 1.250000000000000000, 0.000000000000000000 ) ) ;
#343 = PRESENTATION_LAYER_ASSIGNMENT (  '', '', ( #140 ) ) ;
#344 = MECHANICAL_DESIGN_GEOMETRIC_PRESENTATION_REPRESENTATION (  '', ( #133 ), #176 ) ;
#345 = ORIENTED_EDGE ( 'NONE', *, *, #186, .T. ) ;
#346 =( LENGTH_UNIT ( ) NAMED_UNIT ( * ) SI_UNIT ( $, .METRE. ) );
#347 = PRODUCT ( '56647', '56647', '', ( #168 ) ) ;
#348 = ORIENTED_EDGE ( 'NONE', *, *, #32, .T. ) ;
#349 = ADVANCED_FACE ( 'NONE', ( #258 ), #67, .T. ) ;
#350 = ORIENTED_EDGE ( 'NONE', *, *, #139, .F. ) ;
#351 = CLOSED_SHELL ( 'NONE', ( #317, #10, #304, #192 ) ) ;
#352 = AXIS2_PLACEMENT_3D ( 'NONE', #143, #83, #49 ) ;
#353 = UNCERTAINTY_MEASURE_WITH_UNIT (LENGTH_MEASURE( 1.000000000000000082E-05 ), #46, 'distance_accuracy_value', 'NONE');
#354 = FILL_AREA_STYLE_COLOUR ( '', #155 ) ;
#355 = LENGTH_MEASURE_WITH_UNIT ( LENGTH_MEASURE( 0.02539999999999999897 ), #96 );
#356 = DIRECTION ( 'NONE',  ( 0.000000000000000000, 1.000000000000000000, 0.000000000000000000 ) ) ;
#357 = EDGE_CURVE ( 'NONE', #1, #323, #11, .T. ) ;
#358 = ADVANCED_BREP_SHAPE_REPRESENTATION ( '56647', ( #71, #72, #285 ), #264 ) ;
#359 =( CONVERSION_BASED_UNIT ( 'INCH', #129 ) LENGTH_UNIT ( ) NAMED_UNIT ( #266 ) );
#360 = DIRECTION ( 'NONE',  ( -1.000000000000000000, 0.000000000000000000, 0.000000000000000000 ) ) ;
#361 = AXIS2_PLACEMENT_3D ( 'NONE', #66, #368, #244 ) ;
#362 = SURFACE_SIDE_STYLE ('',( #216 ) ) ;
#363 = CIRCLE ( 'NONE', #24, 0.3749999999999999445 ) ;
#364 = DIRECTION ( 'NONE',  ( -0.000000000000000000, -1.000000000000000000, -0.000000000000000000 ) ) ;
#365 = ADVANCED_FACE ( 'NONE', ( #64 ), #296, .T. ) ;
#366 = CARTESIAN_POINT ( 'NONE',  ( -4.592425496802575451E-17, 0.3750000000000000555, 0.000000000000000000 ) ) ;
#367 = APPLICATION_PROTOCOL_DEFINITION ( 'draft international standard', 'automotive_design', 1998, #226 ) ;
#368 = DIRECTION ( 'NONE',  ( -1.224646799147353207E-16, 1.000000000000000000, -0.000000000000000000 ) ) ;
#369 = VERTEX_POINT ( 'NONE', #269 ) ;
#370 = DIRECTION ( 'NONE',  ( 0.000000000000000000, 0.000000000000000000, -1.000000000000000000 ) ) ;
#371 = SURFACE_STYLE_FILL_AREA ( #149 ) ;
#372 =( GEOMETRIC_REPRESENTATION_CONTEXT ( 3 ) GLOBAL_UNCERTAINTY_ASSIGNED_CONTEXT ( ( #183 ) ) GLOBAL_UNIT_ASSIGNED_CONTEXT ( ( #56, #175, #123 ) ) REPRESENTATION_CONTEXT ( 'NONE', 'WORKASPACE' ) );
#373 = DIRECTION ( 'NONE',  ( -1.224646799147353207E-16, 1.000000000000000000, -0.000000000000000000 ) ) ;
ENDSEC;
END-ISO-10303-21;
