ISO-10303-21;
HEADER;
FILE_DESCRIPTION (( 'STEP AP214' ),
    '1' );
FILE_NAME ('Micro_BEM-312-02X.STEP',
    '2021-09-03T13:11:06',
    ( '' ),
    ( '' ),
    'SwSTEP 2.0',
    'SolidWorks 2020',
    '' );
FILE_SCHEMA (( 'AUTOMOTIVE_DESIGN' ));
ENDSEC;

DATA;
#1 = FACE_OUTER_BOUND ( 'NONE', #19, .T. ) ;
#2 = UNCERTAINTY_MEASURE_WITH_UNIT (LENGTH_MEASURE( 1.000000000000000082E-05 ), #325, 'distance_accuracy_value', 'NONE');
#3 = CARTESIAN_POINT ( 'NONE',  ( 1.911597113044071690E-17, 0.0000000000000000000, 0.1560937499999999756 ) ) ;
#4 = VERTEX_POINT ( 'NONE', #251 ) ;
#5 = CYLINDRICAL_SURFACE ( 'NONE', #230, 0.1560937499999999756 ) ;
#6 = APPLICATION_PROTOCOL_DEFINITION ( 'draft international standard', 'automotive_design', 1998, #257 ) ;
#7 = DIRECTION ( 'NONE',  ( -0.7071067811865410224, 0.0000000000000000000, -0.7071067811865539010 ) ) ;
#8 = CARTESIAN_POINT ( 'NONE',  ( -0.1560937499999998923, 1.911597113044071690E-17, 0.8129999999999999449 ) ) ;
#9 = FACE_OUTER_BOUND ( 'NONE', #226, .T. ) ;
#10 = CARTESIAN_POINT ( 'NONE',  ( 0.0000000000000000000, 0.0000000000000000000, 2.500000000000000000 ) ) ;
#11 = FILL_AREA_STYLE ('',( #280 ) ) ;
#12 = VERTEX_POINT ( 'NONE', #82 ) ;
#13 = EDGE_CURVE ( 'NONE', #294, #16, #72, .T. ) ;
#14 = AXIS2_PLACEMENT_3D ( 'NONE', #178, #121, #99 ) ;
#15 = ADVANCED_FACE ( 'NONE', ( #270 ), #30, .T. ) ;
#16 = VERTEX_POINT ( 'NONE', #34 ) ;
#17 = DIRECTION ( 'NONE',  ( 0.0000000000000000000, 0.0000000000000000000, -1.000000000000000000 ) ) ;
#18 = COLOUR_RGB ( '',0.7921568627450980005, 0.8196078431372548767, 0.9333333333333333481 ) ;
#19 = EDGE_LOOP ( 'NONE', ( #28, #209, #310, #128 ) ) ;
#20 = MECHANICAL_DESIGN_GEOMETRIC_PRESENTATION_REPRESENTATION (  '', ( #26 ), #112 ) ;
#21 = AXIS2_PLACEMENT_3D ( 'NONE', #162, #316, #64 ) ;
#22 = DIRECTION ( 'NONE',  ( 0.0000000000000000000, 1.000000000000000000, 0.0000000000000000000 ) ) ;
#23 = FILL_AREA_STYLE_COLOUR ( '', #18 ) ;
#24 = DIRECTION ( 'NONE',  ( -1.224646799147353207E-16, -0.0000000000000000000, -1.000000000000000000 ) ) ;
#25 = ORIENTED_EDGE ( 'NONE', *, *, #207, .F. ) ;
#26 = STYLED_ITEM ( 'NONE', ( #277 ), #190 ) ;
#27 = CARTESIAN_POINT ( 'NONE',  ( 0.0000000000000000000, 0.0000000000000000000, 2.500000000000000000 ) ) ;
#28 = ORIENTED_EDGE ( 'NONE', *, *, #187, .T. ) ;
#29 = CARTESIAN_POINT ( 'NONE',  ( 1.911597113044071690E-17, 0.0000000000000000000, 0.1560937499999999756 ) ) ;
#30 = PLANE ( 'NONE',  #148 ) ;
#31 = DIRECTION ( 'NONE',  ( 1.224646799147353207E-16, 0.0000000000000000000, 1.000000000000000000 ) ) ;
#32 = CARTESIAN_POINT ( 'NONE',  ( -0.1562500000000000000, 0.0000000000000000000, 2.500000000000000000 ) ) ;
#33 = AXIS2_PLACEMENT_3D ( 'NONE', #144, #65, #246 ) ;
#34 = CARTESIAN_POINT ( 'NONE',  ( -0.1562499999999999167, 0.0000000000000000000, 0.8138861377843152889 ) ) ;
#35 = ORIENTED_EDGE ( 'NONE', *, *, #188, .T. ) ;
#36 = CLOSED_SHELL ( 'NONE', ( #214, #287, #57, #315, #212, #113, #15, #90, #319, #263, #60 ) ) ;
#37 = VECTOR ( 'NONE', #7, 39.37007874015748854 ) ;
#38 = CIRCLE ( 'NONE', #293, 0.1562500000000000000 ) ;
#39 = SPHERICAL_SURFACE ( 'NONE', #21, 0.1560937499999999756 ) ;
#40 = SURFACE_SIDE_STYLE ('',( #211 ) ) ;
#41 = VECTOR ( 'NONE', #100, 39.37007874015748143 ) ;
#42 = VECTOR ( 'NONE', #149, 39.37007874015748143 ) ;
#43 = DIRECTION ( 'NONE',  ( 0.0000000000000000000, -1.000000000000000000, 0.0000000000000000000 ) ) ;
#44 = CARTESIAN_POINT ( 'NONE',  ( 0.0000000000000000000, 0.0000000000000000000, 2.484999999999999432 ) ) ;
#45 =( NAMED_UNIT ( * ) SI_UNIT ( $, .STERADIAN. ) SOLID_ANGLE_UNIT ( ) );
#46 = CARTESIAN_POINT ( 'NONE',  ( 0.1562500000000001110, 1.913510623667740388E-17, 0.8138861377843152889 ) ) ;
#47 = LENGTH_MEASURE_WITH_UNIT ( LENGTH_MEASURE( 0.02539999999999999897 ), #258 );
#48 = ORIENTED_EDGE ( 'NONE', *, *, #50, .T. ) ;
#49 = CARTESIAN_POINT ( 'NONE',  ( -0.1560937499999998923, 1.912553868355905422E-17, 0.8129999999999999449 ) ) ;
#50 = EDGE_CURVE ( 'NONE', #283, #16, #131, .T. ) ;
#51 = LINE ( 'NONE', #300, #42 ) ;
#52 = EDGE_LOOP ( 'NONE', ( #153, #114, #264, #172 ) ) ;
#53 = AXIS2_PLACEMENT_3D ( 'NONE', #302, #220, #174 ) ;
#54 = ORIENTED_EDGE ( 'NONE', *, *, #313, .F. ) ;
#55 = DIRECTION ( 'NONE',  ( 1.000000000000000000, 0.0000000000000000000, 0.0000000000000000000 ) ) ;
#56 = EDGE_LOOP ( 'NONE', ( #231, #122, #205, #150 ) ) ;
#57 = ADVANCED_FACE ( 'NONE', ( #109 ), #260, .T. ) ;
#58 = DIMENSIONAL_EXPONENTS ( 1.000000000000000000, 0.0000000000000000000, 0.0000000000000000000, 0.0000000000000000000, 0.0000000000000000000, 0.0000000000000000000, 0.0000000000000000000 ) ;
#59 = ORIENTED_EDGE ( 'NONE', *, *, #314, .F. ) ;
#60 = ADVANCED_FACE ( 'NONE', ( #282 ), #39, .T. ) ;
#61 = AXIS2_PLACEMENT_3D ( 'NONE', #44, #124, #55 ) ;
#62 = ORIENTED_EDGE ( 'NONE', *, *, #86, .F. ) ;
#63 = CIRCLE ( 'NONE', #33, 0.1560937499999999756 ) ;
#64 = DIRECTION ( 'NONE',  ( 1.000000000000000000, 0.0000000000000000000, 0.0000000000000000000 ) ) ;
#65 = DIRECTION ( 'NONE',  ( -1.224646799147353207E-16, -0.0000000000000000000, -1.000000000000000000 ) ) ;
#66 = CIRCLE ( 'NONE', #233, 0.1562500000000000000 ) ;
#67 = ORIENTED_EDGE ( 'NONE', *, *, #314, .T. ) ;
#68 =( NAMED_UNIT ( * ) PLANE_ANGLE_UNIT ( ) SI_UNIT ( $, .RADIAN. ) );
#69 = DIRECTION ( 'NONE',  ( 1.224646799147353207E-16, 0.0000000000000000000, 1.000000000000000000 ) ) ;
#70 = CARTESIAN_POINT ( 'NONE',  ( 0.0000000000000000000, 0.0000000000000000000, 2.500000000000000000 ) ) ;
#71 = LINE ( 'NONE', #218, #37 ) ;
#72 = LINE ( 'NONE', #32, #185 ) ;
#73 =( CONVERSION_BASED_UNIT ( 'INCH', #123 ) LENGTH_UNIT ( ) NAMED_UNIT ( #286 ) );
#74 = DIRECTION ( 'NONE',  ( -1.000000000000000000, 0.0000000000000000000, 0.0000000000000000000 ) ) ;
#75 = ORIENTED_EDGE ( 'NONE', *, *, #206, .F. ) ;
#76 = CARTESIAN_POINT ( 'NONE',  ( 0.0000000000000000000, 0.0000000000000000000, 0.0000000000000000000 ) ) ;
#77 = FACE_OUTER_BOUND ( 'NONE', #52, .T. ) ;
#78 = AXIS2_PLACEMENT_3D ( 'NONE', #289, #17, #115 ) ;
#79 = SPHERICAL_SURFACE ( 'NONE', #236, 0.1560937499999999756 ) ;
#80 = DIRECTION ( 'NONE',  ( 1.224646799147353207E-16, 0.0000000000000000000, 1.000000000000000000 ) ) ;
#81 = DIRECTION ( 'NONE',  ( 1.000000000000000000, 0.0000000000000000000, 0.0000000000000000000 ) ) ;
#82 = CARTESIAN_POINT ( 'NONE',  ( 0.1560937500000000311, 1.911597113044071690E-17, 0.1560937499999999478 ) ) ;
#83 = DIRECTION ( 'NONE',  ( 1.000000000000000000, 0.0000000000000000000, 0.0000000000000000000 ) ) ;
#84 = SHAPE_DEFINITION_REPRESENTATION ( #259, #190 ) ;
#85 = APPLICATION_PROTOCOL_DEFINITION ( 'draft international standard', 'automotive_design', 1998, #216 ) ;
#86 = EDGE_CURVE ( 'NONE', #247, #16, #38, .T. ) ;
#87 = CARTESIAN_POINT ( 'NONE',  ( 9.967230535079632947E-17, 0.0000000000000000000, 0.8138861377843152889 ) ) ;
#88 = PRESENTATION_STYLE_ASSIGNMENT (( #213 ) ) ;
#89 = VECTOR ( 'NONE', #225, 39.37007874015748854 ) ;
#90 = ADVANCED_FACE ( 'NONE', ( #134 ), #217, .T. ) ;
#91 = CIRCLE ( 'NONE', #274, 0.1560937499999999756 ) ;
#92 = DIRECTION ( 'NONE',  ( -1.000000000000000000, 0.0000000000000000000, 1.224646799147353454E-16 ) ) ;
#93 = ORIENTED_EDGE ( 'NONE', *, *, #159, .T. ) ;
#94 = SURFACE_SIDE_STYLE ('',( #201 ) ) ;
#95 = DIRECTION ( 'NONE',  ( 1.000000000000000000, 0.0000000000000000000, 0.0000000000000000000 ) ) ;
#96 = DIRECTION ( 'NONE',  ( 1.000000000000000000, 0.0000000000000000000, 0.0000000000000000000 ) ) ;
#97 = EDGE_CURVE ( 'NONE', #125, #247, #51, .T. ) ;
#98 = VECTOR ( 'NONE', #304, 39.37007874015748143 ) ;
#99 = DIRECTION ( 'NONE',  ( -1.000000000000000000, 0.0000000000000000000, 0.0000000000000000000 ) ) ;
#100 = DIRECTION ( 'NONE',  ( -1.224646799147353207E-16, -0.0000000000000000000, -1.000000000000000000 ) ) ;
#101 = DIRECTION ( 'NONE',  ( -0.0000000000000000000, -0.0000000000000000000, -1.000000000000000000 ) ) ;
#102 = DIRECTION ( 'NONE',  ( 1.000000000000000000, 0.0000000000000000000, -0.0000000000000000000 ) ) ;
#103 = SURFACE_STYLE_USAGE ( .BOTH. , #94 ) ;
#104 = CARTESIAN_POINT ( 'NONE',  ( 0.0000000000000000000, 0.0000000000000000000, 2.500000000000000000 ) ) ;
#105 = ORIENTED_EDGE ( 'NONE', *, *, #192, .F. ) ;
#106 = AXIS2_PLACEMENT_3D ( 'NONE', #154, #136, #92 ) ;
#107 = EDGE_CURVE ( 'NONE', #16, #247, #66, .T. ) ;
#108 = LINE ( 'NONE', #291, #146 ) ;
#109 = FACE_OUTER_BOUND ( 'NONE', #145, .T. ) ;
#110 = ORIENTED_EDGE ( 'NONE', *, *, #181, .F. ) ;
#111 = DIMENSIONAL_EXPONENTS ( 1.000000000000000000, 0.0000000000000000000, 0.0000000000000000000, 0.0000000000000000000, 0.0000000000000000000, 0.0000000000000000000, 0.0000000000000000000 ) ;
#112 =( GEOMETRIC_REPRESENTATION_CONTEXT ( 3 ) GLOBAL_UNCERTAINTY_ASSIGNED_CONTEXT ( ( #2 ) ) GLOBAL_UNIT_ASSIGNED_CONTEXT ( ( #325, #248, #191 ) ) REPRESENTATION_CONTEXT ( 'NONE', 'WORKASPACE' ) );
#113 = ADVANCED_FACE ( 'NONE', ( #222 ), #171, .T. ) ;
#114 = ORIENTED_EDGE ( 'NONE', *, *, #181, .T. ) ;
#115 = DIRECTION ( 'NONE',  ( -1.000000000000000000, 0.0000000000000000000, 0.0000000000000000000 ) ) ;
#116 = CIRCLE ( 'NONE', #53, 0.1562500000000000000 ) ;
#117 = ORIENTED_EDGE ( 'NONE', *, *, #141, .T. ) ;
#118 = LINE ( 'NONE', #119, #89 ) ;
#119 = CARTESIAN_POINT ( 'NONE',  ( 0.1412499999999994871, 1.729813603795630110E-17, 2.500000000000000000 ) ) ;
#120 = AXIS2_PLACEMENT_3D ( 'NONE', #228, #31, #127 ) ;
#121 = DIRECTION ( 'NONE',  ( -1.224646799147353207E-16, -0.0000000000000000000, -1.000000000000000000 ) ) ;
#122 = ORIENTED_EDGE ( 'NONE', *, *, #141, .F. ) ;
#123 = LENGTH_MEASURE_WITH_UNIT ( LENGTH_MEASURE( 0.02539999999999999897 ), #299 );
#124 = DIRECTION ( 'NONE',  ( 0.0000000000000000000, 0.0000000000000000000, -1.000000000000000000 ) ) ;
#125 = VERTEX_POINT ( 'NONE', #152 ) ;
#126 = CARTESIAN_POINT ( 'NONE',  ( -0.1560937499999999478, 0.0000000000000000000, 0.1560937500000000311 ) ) ;
#127 = DIRECTION ( 'NONE',  ( -1.000000000000000000, 0.0000000000000000000, 2.187666060992403218E-16 ) ) ;
#128 = ORIENTED_EDGE ( 'NONE', *, *, #13, .F. ) ;
#129 = CARTESIAN_POINT ( 'NONE',  ( 0.0000000000000000000, 0.0000000000000000000, 0.0000000000000000000 ) ) ;
#130 = AXIS2_PLACEMENT_3D ( 'NONE', #3, #262, #267 ) ;
#131 = LINE ( 'NONE', #8, #195 ) ;
#132 = CIRCLE ( 'NONE', #130, 0.1560937499999999756 ) ;
#133 = EDGE_LOOP ( 'NONE', ( #221, #67, #105 ) ) ;
#134 = FACE_OUTER_BOUND ( 'NONE', #155, .T. ) ;
#135 = CIRCLE ( 'NONE', #61, 0.1562500000000000000 ) ;
#136 = DIRECTION ( 'NONE',  ( -1.224646799147353207E-16, -0.0000000000000000000, -1.000000000000000000 ) ) ;
#137 = CONICAL_SURFACE ( 'NONE', #306, 0.1560937499999999756, 0.1745329251994338915 ) ;
#138 = PRODUCT_RELATED_PRODUCT_CATEGORY ( 'part', '', ( #318 ) ) ;
#139 = CARTESIAN_POINT ( 'NONE',  ( -0.1560937499999999756, 0.0000000000000000000, 1.911597113044071690E-17 ) ) ;
#140 = DIRECTION ( 'NONE',  ( 1.000000000000000000, 0.0000000000000000000, 0.0000000000000000000 ) ) ;
#141 = EDGE_CURVE ( 'NONE', #279, #283, #307, .T. ) ;
#142 = FACE_OUTER_BOUND ( 'NONE', #303, .T. ) ;
#143 = CARTESIAN_POINT ( 'NONE',  ( 1.911597113044071690E-17, 0.0000000000000000000, 0.1560937499999999756 ) ) ;
#144 = CARTESIAN_POINT ( 'NONE',  ( 9.956378477067980482E-17, 0.0000000000000000000, 0.8129999999999999449 ) ) ;
#145 = EDGE_LOOP ( 'NONE', ( #234, #48, #311, #237 ) ) ;
#146 = VECTOR ( 'NONE', #324, 39.37007874015748143 ) ;
#147 =( NAMED_UNIT ( * ) SI_UNIT ( $, .STERADIAN. ) SOLID_ANGLE_UNIT ( ) );
#148 = AXIS2_PLACEMENT_3D ( 'NONE', #10, #203, #102 ) ;
#149 = DIRECTION ( 'NONE',  ( -0.0000000000000000000, -0.0000000000000000000, -1.000000000000000000 ) ) ;
#150 = ORIENTED_EDGE ( 'NONE', *, *, #86, .T. ) ;
#151 = LENGTH_MEASURE_WITH_UNIT ( LENGTH_MEASURE( 0.02539999999999999897 ), #167 );
#152 = CARTESIAN_POINT ( 'NONE',  ( 0.1562500000000000000, 1.913510623667739463E-17, 2.484999999999999432 ) ) ;
#153 = ORIENTED_EDGE ( 'NONE', *, *, #188, .F. ) ;
#154 = CARTESIAN_POINT ( 'NONE',  ( 0.0000000000000000000, 0.0000000000000000000, 0.0000000000000000000 ) ) ;
#155 = EDGE_LOOP ( 'NONE', ( #110, #54, #229, #75 ) ) ;
#156 = STYLED_ITEM ( 'NONE', ( #88 ), #290 ) ;
#157 = EDGE_CURVE ( 'NONE', #182, #294, #71, .T. ) ;
#158 = EDGE_LOOP ( 'NONE', ( #244, #252, #184, #62 ) ) ;
#159 = EDGE_CURVE ( 'NONE', #283, #279, #63, .T. ) ;
#160 =( GEOMETRIC_REPRESENTATION_CONTEXT ( 3 ) GLOBAL_UNCERTAINTY_ASSIGNED_CONTEXT ( ( #322 ) ) GLOBAL_UNIT_ASSIGNED_CONTEXT ( ( #73, #68, #147 ) ) REPRESENTATION_CONTEXT ( 'NONE', 'WORKASPACE' ) );
#161 = AXIS2_PLACEMENT_3D ( 'NONE', #273, #80, #81 ) ;
#162 = CARTESIAN_POINT ( 'NONE',  ( 1.911597113044071690E-17, 0.0000000000000000000, 0.1560937499999999756 ) ) ;
#163 =( GEOMETRIC_REPRESENTATION_CONTEXT ( 3 ) GLOBAL_UNCERTAINTY_ASSIGNED_CONTEXT ( ( #255 ) ) GLOBAL_UNIT_ASSIGNED_CONTEXT ( ( #241, #275, #45 ) ) REPRESENTATION_CONTEXT ( 'NONE', 'WORKASPACE' ) );
#164 = ORIENTED_EDGE ( 'NONE', *, *, #207, .T. ) ;
#165 = CARTESIAN_POINT ( 'NONE',  ( 0.0000000000000000000, 0.0000000000000000000, 2.500000000000000000 ) ) ;
#166 = EDGE_LOOP ( 'NONE', ( #261, #35 ) ) ;
#167 =( LENGTH_UNIT ( ) NAMED_UNIT ( * ) SI_UNIT ( $, .METRE. ) );
#168 = AXIS2_PLACEMENT_3D ( 'NONE', #104, #101, #74 ) ;
#169 = DIRECTION ( 'NONE',  ( 1.000000000000000000, 0.0000000000000000000, 0.0000000000000000000 ) ) ;
#170 = DIRECTION ( 'NONE',  ( 1.224646799147353207E-16, 0.0000000000000000000, 1.000000000000000000 ) ) ;
#171 = CYLINDRICAL_SURFACE ( 'NONE', #265, 0.1562500000000000000 ) ;
#172 = ORIENTED_EDGE ( 'NONE', *, *, #157, .F. ) ;
#173 = CARTESIAN_POINT ( 'NONE',  ( 0.0000000000000000000, 0.0000000000000000000, 2.500000000000000000 ) ) ;
#174 = DIRECTION ( 'NONE',  ( 1.000000000000000000, 0.0000000000000000000, 0.0000000000000000000 ) ) ;
#175 = ORIENTED_EDGE ( 'NONE', *, *, #285, .F. ) ;
#176 = CARTESIAN_POINT ( 'NONE',  ( 0.1560937500000000866, 0.0000000000000000000, 0.8129999999999999449 ) ) ;
#177 = DIRECTION ( 'NONE',  ( 0.0000000000000000000, 0.0000000000000000000, -1.000000000000000000 ) ) ;
#178 = CARTESIAN_POINT ( 'NONE',  ( 9.956378477067980482E-17, 0.0000000000000000000, 0.8129999999999999449 ) ) ;
#179 = ORIENTED_EDGE ( 'NONE', *, *, #192, .T. ) ;
#180 = DIRECTION ( 'NONE',  ( -1.224646799147353207E-16, -0.0000000000000000000, -1.000000000000000000 ) ) ;
#181 = EDGE_CURVE ( 'NONE', #200, #125, #118, .T. ) ;
#182 = VERTEX_POINT ( 'NONE', #199 ) ;
#183 = LINE ( 'NONE', #224, #41 ) ;
#184 = ORIENTED_EDGE ( 'NONE', *, *, #13, .T. ) ;
#185 = VECTOR ( 'NONE', #305, 39.37007874015748143 ) ;
#186 = DIRECTION ( 'NONE',  ( 1.000000000000000000, 0.0000000000000000000, 0.0000000000000000000 ) ) ;
#187 = EDGE_CURVE ( 'NONE', #294, #125, #116, .T. ) ;
#188 = EDGE_CURVE ( 'NONE', #200, #182, #210, .T. ) ;
#189 = AXIS2_PLACEMENT_3D ( 'NONE', #27, #196, #96 ) ;
#190 = ADVANCED_BREP_SHAPE_REPRESENTATION ( 'Micro_BEM-312-02X', ( #290, #194 ), #160 ) ;
#191 =( NAMED_UNIT ( * ) SI_UNIT ( $, .STERADIAN. ) SOLID_ANGLE_UNIT ( ) );
#192 = EDGE_CURVE ( 'NONE', #295, #12, #91, .T. ) ;
#193 = DIRECTION ( 'NONE',  ( 1.000000000000000000, 0.0000000000000000000, 0.0000000000000000000 ) ) ;
#194 = AXIS2_PLACEMENT_3D ( 'NONE', #129, #309, #83 ) ;
#195 = VECTOR ( 'NONE', #223, 39.37007874015747433 ) ;
#196 = DIRECTION ( 'NONE',  ( 0.0000000000000000000, 0.0000000000000000000, 1.000000000000000000 ) ) ;
#197 = PRODUCT_DEFINITION_CONTEXT ( 'detailed design', #216, 'design' ) ;
#198 = EDGE_CURVE ( 'NONE', #4, #295, #132, .T. ) ;
#199 = CARTESIAN_POINT ( 'NONE',  ( -0.1412499999999994871, 0.0000000000000000000, 2.500000000000000000 ) ) ;
#200 = VERTEX_POINT ( 'NONE', #249 ) ;
#201 = SURFACE_STYLE_FILL_AREA ( #219 ) ;
#202 = LINE ( 'NONE', #139, #98 ) ;
#203 = DIRECTION ( 'NONE',  ( 0.0000000000000000000, 0.0000000000000000000, 1.000000000000000000 ) ) ;
#204 = ORIENTED_EDGE ( 'NONE', *, *, #285, .T. ) ;
#205 = ORIENTED_EDGE ( 'NONE', *, *, #253, .T. ) ;
#206 = EDGE_CURVE ( 'NONE', #125, #294, #135, .T. ) ;
#207 = EDGE_CURVE ( 'NONE', #283, #295, #202, .T. ) ;
#208 = PRESENTATION_LAYER_ASSIGNMENT (  '', '', ( #26 ) ) ;
#209 = ORIENTED_EDGE ( 'NONE', *, *, #97, .T. ) ;
#210 = CIRCLE ( 'NONE', #189, 0.1412499999999994871 ) ;
#211 = SURFACE_STYLE_FILL_AREA ( #11 ) ;
#212 = ADVANCED_FACE ( 'NONE', ( #1 ), #239, .T. ) ;
#213 = SURFACE_STYLE_USAGE ( .BOTH. , #40 ) ;
#214 = ADVANCED_FACE ( 'NONE', ( #9 ), #79, .T. ) ;
#215 = AXIS2_PLACEMENT_3D ( 'NONE', #70, #227, #140 ) ;
#216 = APPLICATION_CONTEXT ( 'automotive_design' ) ;
#217 = CONICAL_SURFACE ( 'NONE', #78, 0.1412499999999994871, 0.7853981633974391752 ) ;
#218 = CARTESIAN_POINT ( 'NONE',  ( -0.1412499999999994871, 0.0000000000000000000, 2.500000000000000000 ) ) ;
#219 = FILL_AREA_STYLE ('',( #23 ) ) ;
#220 = DIRECTION ( 'NONE',  ( 0.0000000000000000000, 0.0000000000000000000, -1.000000000000000000 ) ) ;
#221 = ORIENTED_EDGE ( 'NONE', *, *, #198, .F. ) ;
#222 = FACE_OUTER_BOUND ( 'NONE', #158, .T. ) ;
#223 = DIRECTION ( 'NONE',  ( -0.1736481776669311916, 2.126576849575783316E-17, 0.9848077530122080203 ) ) ;
#224 = CARTESIAN_POINT ( 'NONE',  ( 0.1560937499999999756, 1.911597113044071690E-17, -1.911597113044071690E-17 ) ) ;
#225 = DIRECTION ( 'NONE',  ( 0.7071067811865410224, 8.659560562354852739E-17, -0.7071067811865539010 ) ) ;
#226 = EDGE_LOOP ( 'NONE', ( #59, #320, #242 ) ) ;
#227 = DIRECTION ( 'NONE',  ( 0.0000000000000000000, 0.0000000000000000000, 1.000000000000000000 ) ) ;
#228 = CARTESIAN_POINT ( 'NONE',  ( 1.911597113044071690E-17, 0.0000000000000000000, 0.1560937499999999756 ) ) ;
#229 = ORIENTED_EDGE ( 'NONE', *, *, #157, .T. ) ;
#230 = AXIS2_PLACEMENT_3D ( 'NONE', #76, #180, #276 ) ;
#231 = ORIENTED_EDGE ( 'NONE', *, *, #50, .F. ) ;
#232 = MECHANICAL_DESIGN_GEOMETRIC_PRESENTATION_REPRESENTATION (  '', ( #156 ), #163 ) ;
#233 = AXIS2_PLACEMENT_3D ( 'NONE', #269, #24, #193 ) ;
#234 = ORIENTED_EDGE ( 'NONE', *, *, #159, .F. ) ;
#235 = EDGE_CURVE ( 'NONE', #12, #295, #312, .T. ) ;
#236 = AXIS2_PLACEMENT_3D ( 'NONE', #278, #22, #169 ) ;
#237 = ORIENTED_EDGE ( 'NONE', *, *, #253, .F. ) ;
#238 = CIRCLE ( 'NONE', #245, 0.1560937499999999756 ) ;
#239 = CYLINDRICAL_SURFACE ( 'NONE', #168, 0.1562500000000000000 ) ;
#240 = CYLINDRICAL_SURFACE ( 'NONE', #106, 0.1560937499999999756 ) ;
#241 =( CONVERSION_BASED_UNIT ( 'INCH', #47 ) LENGTH_UNIT ( ) NAMED_UNIT ( #58 ) );
#242 = ORIENTED_EDGE ( 'NONE', *, *, #235, .F. ) ;
#243 = DIRECTION ( 'NONE',  ( -1.000000000000000000, 0.0000000000000000000, 0.0000000000000000000 ) ) ;
#244 = ORIENTED_EDGE ( 'NONE', *, *, #97, .F. ) ;
#245 = AXIS2_PLACEMENT_3D ( 'NONE', #143, #43, #266 ) ;
#246 = DIRECTION ( 'NONE',  ( -1.000000000000000000, 0.0000000000000000000, 0.0000000000000000000 ) ) ;
#247 = VERTEX_POINT ( 'NONE', #46 ) ;
#248 =( NAMED_UNIT ( * ) PLANE_ANGLE_UNIT ( ) SI_UNIT ( $, .RADIAN. ) );
#249 = CARTESIAN_POINT ( 'NONE',  ( 0.1412499999999994871, 1.821662113731684786E-17, 2.500000000000000000 ) ) ;
#250 = EDGE_LOOP ( 'NONE', ( #93, #204, #268, #25 ) ) ;
#251 = CARTESIAN_POINT ( 'NONE',  ( 2.867395669566107843E-17, 0.0000000000000000000, 0.0000000000000000000 ) ) ;
#252 = ORIENTED_EDGE ( 'NONE', *, *, #206, .T. ) ;
#253 = EDGE_CURVE ( 'NONE', #279, #247, #108, .T. ) ;
#254 = CONICAL_SURFACE ( 'NONE', #288, 0.1412499999999994871, 0.7853981633974391752 ) ;
#255 = UNCERTAINTY_MEASURE_WITH_UNIT (LENGTH_MEASURE( 1.000000000000000082E-05 ), #241, 'distance_accuracy_value', 'NONE');
#256 = DIRECTION ( 'NONE',  ( -1.224646799147353207E-16, -0.0000000000000000000, -1.000000000000000000 ) ) ;
#257 = APPLICATION_CONTEXT ( 'automotive_design' ) ;
#258 =( LENGTH_UNIT ( ) NAMED_UNIT ( * ) SI_UNIT ( $, .METRE. ) );
#259 = PRODUCT_DEFINITION_SHAPE ( 'NONE', 'NONE',  #321 ) ;
#260 = CONICAL_SURFACE ( 'NONE', #161, 0.1560937499999999756, 0.1745329251994338915 ) ;
#261 = ORIENTED_EDGE ( 'NONE', *, *, #313, .T. ) ;
#262 = DIRECTION ( 'NONE',  ( 1.224646799147353207E-16, 1.000000000000000000, -0.0000000000000000000 ) ) ;
#263 = ADVANCED_FACE ( 'NONE', ( #142 ), #240, .T. ) ;
#264 = ORIENTED_EDGE ( 'NONE', *, *, #187, .F. ) ;
#265 = AXIS2_PLACEMENT_3D ( 'NONE', #165, #298, #243 ) ;
#266 = DIRECTION ( 'NONE',  ( 0.0000000000000000000, 0.0000000000000000000, -1.000000000000000000 ) ) ;
#267 = DIRECTION ( 'NONE',  ( -1.000000000000000000, 1.224646799147353454E-16, 0.0000000000000000000 ) ) ;
#268 = ORIENTED_EDGE ( 'NONE', *, *, #235, .T. ) ;
#269 = CARTESIAN_POINT ( 'NONE',  ( 9.967230535079632947E-17, 0.0000000000000000000, 0.8138861377843152889 ) ) ;
#270 = FACE_OUTER_BOUND ( 'NONE', #166, .T. ) ;
#271 = DIRECTION ( 'NONE',  ( -1.000000000000000000, 0.0000000000000000000, 0.0000000000000000000 ) ) ;
#272 = DIRECTION ( 'NONE',  ( -1.000000000000000000, 0.0000000000000000000, 2.187666060992403218E-16 ) ) ;
#273 = CARTESIAN_POINT ( 'NONE',  ( 9.956378477067980482E-17, 0.0000000000000000000, 0.8129999999999999449 ) ) ;
#274 = AXIS2_PLACEMENT_3D ( 'NONE', #29, #69, #272 ) ;
#275 =( NAMED_UNIT ( * ) PLANE_ANGLE_UNIT ( ) SI_UNIT ( $, .RADIAN. ) );
#276 = DIRECTION ( 'NONE',  ( -1.000000000000000000, 0.0000000000000000000, 1.224646799147353454E-16 ) ) ;
#277 = PRESENTATION_STYLE_ASSIGNMENT (( #103 ) ) ;
#278 = CARTESIAN_POINT ( 'NONE',  ( 1.911597113044071690E-17, 0.0000000000000000000, 0.1560937499999999756 ) ) ;
#279 = VERTEX_POINT ( 'NONE', #176 ) ;
#280 = FILL_AREA_STYLE_COLOUR ( '', #317 ) ;
#281 = PRODUCT_CONTEXT ( 'NONE', #257, 'mechanical' ) ;
#282 = FACE_OUTER_BOUND ( 'NONE', #133, .T. ) ;
#283 = VERTEX_POINT ( 'NONE', #49 ) ;
#284 = PRESENTATION_LAYER_ASSIGNMENT (  '', '', ( #156 ) ) ;
#285 = EDGE_CURVE ( 'NONE', #279, #12, #183, .T. ) ;
#286 = DIMENSIONAL_EXPONENTS ( 1.000000000000000000, 0.0000000000000000000, 0.0000000000000000000, 0.0000000000000000000, 0.0000000000000000000, 0.0000000000000000000, 0.0000000000000000000 ) ;
#287 = ADVANCED_FACE ( 'NONE', ( #308 ), #5, .T. ) ;
#288 = AXIS2_PLACEMENT_3D ( 'NONE', #173, #177, #271 ) ;
#289 = CARTESIAN_POINT ( 'NONE',  ( 0.0000000000000000000, 0.0000000000000000000, 2.500000000000000000 ) ) ;
#290 = MANIFOLD_SOLID_BREP ( 'Fillet1', #36 ) ;
#291 = CARTESIAN_POINT ( 'NONE',  ( 0.1560937500000000866, 0.0000000000000000000, 0.8129999999999999449 ) ) ;
#292 = PRODUCT_DEFINITION_FORMATION_WITH_SPECIFIED_SOURCE ( 'ANY', '', #318, .NOT_KNOWN. ) ;
#293 = AXIS2_PLACEMENT_3D ( 'NONE', #87, #256, #186 ) ;
#294 = VERTEX_POINT ( 'NONE', #296 ) ;
#295 = VERTEX_POINT ( 'NONE', #126 ) ;
#296 = CARTESIAN_POINT ( 'NONE',  ( -0.1562500000000000000, 0.0000000000000000000, 2.484999999999999432 ) ) ;
#297 = CIRCLE ( 'NONE', #215, 0.1412499999999994871 ) ;
#298 = DIRECTION ( 'NONE',  ( -0.0000000000000000000, -0.0000000000000000000, -1.000000000000000000 ) ) ;
#299 =( LENGTH_UNIT ( ) NAMED_UNIT ( * ) SI_UNIT ( $, .METRE. ) );
#300 = CARTESIAN_POINT ( 'NONE',  ( 0.1562500000000000000, 1.913510623667739463E-17, 2.500000000000000000 ) ) ;
#301 = FACE_OUTER_BOUND ( 'NONE', #56, .T. ) ;
#302 = CARTESIAN_POINT ( 'NONE',  ( 0.0000000000000000000, 0.0000000000000000000, 2.484999999999999432 ) ) ;
#303 = EDGE_LOOP ( 'NONE', ( #175, #117, #164, #179 ) ) ;
#304 = DIRECTION ( 'NONE',  ( -1.224646799147353207E-16, -0.0000000000000000000, -1.000000000000000000 ) ) ;
#305 = DIRECTION ( 'NONE',  ( -0.0000000000000000000, -0.0000000000000000000, -1.000000000000000000 ) ) ;
#306 = AXIS2_PLACEMENT_3D ( 'NONE', #323, #170, #95 ) ;
#307 = CIRCLE ( 'NONE', #14, 0.1560937499999999756 ) ;
#308 = FACE_OUTER_BOUND ( 'NONE', #250, .T. ) ;
#309 = DIRECTION ( 'NONE',  ( 0.0000000000000000000, 0.0000000000000000000, 1.000000000000000000 ) ) ;
#310 = ORIENTED_EDGE ( 'NONE', *, *, #107, .F. ) ;
#311 = ORIENTED_EDGE ( 'NONE', *, *, #107, .T. ) ;
#312 = CIRCLE ( 'NONE', #120, 0.1560937499999999756 ) ;
#313 = EDGE_CURVE ( 'NONE', #182, #200, #297, .T. ) ;
#314 = EDGE_CURVE ( 'NONE', #4, #12, #238, .T. ) ;
#315 = ADVANCED_FACE ( 'NONE', ( #77 ), #254, .T. ) ;
#316 = DIRECTION ( 'NONE',  ( 0.0000000000000000000, 1.000000000000000000, 0.0000000000000000000 ) ) ;
#317 = COLOUR_RGB ( '',0.7921568627450980005, 0.8196078431372548767, 0.9333333333333333481 ) ;
#318 = PRODUCT ( 'Micro_BEM-312-02X', 'Micro_BEM-312-02X', '', ( #281 ) ) ;
#319 = ADVANCED_FACE ( 'NONE', ( #301 ), #137, .T. ) ;
#320 = ORIENTED_EDGE ( 'NONE', *, *, #198, .T. ) ;
#321 = PRODUCT_DEFINITION ( 'UNKNOWN', '', #292, #197 ) ;
#322 = UNCERTAINTY_MEASURE_WITH_UNIT (LENGTH_MEASURE( 1.000000000000000082E-05 ), #73, 'distance_accuracy_value', 'NONE');
#323 = CARTESIAN_POINT ( 'NONE',  ( 9.956378477067980482E-17, 0.0000000000000000000, 0.8129999999999999449 ) ) ;
#324 = DIRECTION ( 'NONE',  ( 0.1736481776669313859, 0.0000000000000000000, 0.9848077530122077983 ) ) ;
#325 =( CONVERSION_BASED_UNIT ( 'INCH', #151 ) LENGTH_UNIT ( ) NAMED_UNIT ( #111 ) );
ENDSEC;
END-ISO-10303-21;
