ISO-10303-21;
HEADER;
FILE_DESCRIPTION (( 'STEP AP214' ),
    '1' );
FILE_NAME ('Micro_BMRM-015-4X.STEP',
    '2021-09-03T14:30:26',
    ( '' ),
    ( '' ),
    'SwSTEP 2.0',
    'SolidWorks 2020',
    '' );
FILE_SCHEMA (( 'AUTOMOTIVE_DESIGN' ));
ENDSEC;

DATA;
#1 = ORIENTED_EDGE ( 'NONE', *, *, #213, .F. ) ;
#2 = CIRCLE ( 'NONE', #106, 0.02949797250000000398 ) ;
#3 = STYLED_ITEM ( 'NONE', ( #292 ), #193 ) ;
#4 = ORIENTED_EDGE ( 'NONE', *, *, #279, .F. ) ;
#5 = EDGE_CURVE ( 'NONE', #305, #304, #42, .T. ) ;
#6 = VERTEX_POINT ( 'NONE', #215 ) ;
#7 = ORIENTED_EDGE ( 'NONE', *, *, #307, .F. ) ;
#8 = DIRECTION ( 'NONE',  ( 0.0000000000000000000, 0.0000000000000000000, -1.000000000000000000 ) ) ;
#9 = CIRCLE ( 'NONE', #153, 0.02949797249999999704 ) ;
#10 = EDGE_CURVE ( 'NONE', #117, #156, #2, .T. ) ;
#11 = CARTESIAN_POINT ( 'NONE',  ( -0.02949797249999999704, 0.0000000000000000000, 0.02949797250000000398 ) ) ;
#12 = LINE ( 'NONE', #119, #157 ) ;
#13 = DIRECTION ( 'NONE',  ( 1.224646799147353207E-16, 0.0000000000000000000, 1.000000000000000000 ) ) ;
#14 = SURFACE_SIDE_STYLE ('',( #38 ) ) ;
#15 = DIRECTION ( 'NONE',  ( 1.000000000000000000, 0.0000000000000000000, 0.0000000000000000000 ) ) ;
#16 = ORIENTED_EDGE ( 'NONE', *, *, #277, .T. ) ;
#17 = CARTESIAN_POINT ( 'NONE',  ( 3.612459760346164844E-18, 0.0000000000000000000, 0.02949797249999999704 ) ) ;
#18 = LINE ( 'NONE', #162, #107 ) ;
#19 = UNCERTAINTY_MEASURE_WITH_UNIT (LENGTH_MEASURE( 1.000000000000000082E-05 ), #227, 'distance_accuracy_value', 'NONE');
#20 = EDGE_CURVE ( 'NONE', #233, #156, #296, .T. ) ;
#21 = AXIS2_PLACEMENT_3D ( 'NONE', #209, #286, #244 ) ;
#22 = APPLICATION_PROTOCOL_DEFINITION ( 'draft international standard', 'automotive_design', 1998, #132 ) ;
#23 = SURFACE_SIDE_STYLE ('',( #259 ) ) ;
#24 =( NAMED_UNIT ( * ) SI_UNIT ( $, .STERADIAN. ) SOLID_ANGLE_UNIT ( ) );
#25 = AXIS2_PLACEMENT_3D ( 'NONE', #113, #138, #192 ) ;
#26 = EDGE_CURVE ( 'NONE', #74, #212, #271, .T. ) ;
#27 = LINE ( 'NONE', #325, #251 ) ;
#28 = VERTEX_POINT ( 'NONE', #137 ) ;
#29 = DIMENSIONAL_EXPONENTS ( 1.000000000000000000, 0.0000000000000000000, 0.0000000000000000000, 0.0000000000000000000, 0.0000000000000000000, 0.0000000000000000000, 0.0000000000000000000 ) ;
#30 = AXIS2_PLACEMENT_3D ( 'NONE', #139, #129, #78 ) ;
#31 = ORIENTED_EDGE ( 'NONE', *, *, #204, .T. ) ;
#32 = CARTESIAN_POINT ( 'NONE',  ( 3.612459760346164844E-18, 0.0000000000000000000, 0.02949797249999999704 ) ) ;
#33 = DIRECTION ( 'NONE',  ( -1.224646799147353207E-16, -0.0000000000000000000, -1.000000000000000000 ) ) ;
#34 = DIRECTION ( 'NONE',  ( 1.000000000000000000, 0.0000000000000000000, 0.0000000000000000000 ) ) ;
#35 = CIRCLE ( 'NONE', #181, 0.07874000000000000443 ) ;
#36 = ADVANCED_FACE ( 'NONE', ( #75 ), #180, .T. ) ;
#37 = CARTESIAN_POINT ( 'NONE',  ( -0.02949797249999997623, 6.627664328416212062E-18, 0.1653539999999999732 ) ) ;
#38 = SURFACE_STYLE_FILL_AREA ( #314 ) ;
#39 = CYLINDRICAL_SURFACE ( 'NONE', #25, 0.07874000000000000443 ) ;
#40 = VERTEX_POINT ( 'NONE', #160 ) ;
#41 = COLOUR_RGB ( '',0.7921568627450980005, 0.8196078431372548767, 0.9333333333333333481 ) ;
#42 = CIRCLE ( 'NONE', #65, 0.07874000000000000443 ) ;
#43 = DIRECTION ( 'NONE',  ( -1.000000000000000000, 0.0000000000000000000, 1.224646799147352961E-16 ) ) ;
#44 =( GEOMETRIC_REPRESENTATION_CONTEXT ( 3 ) GLOBAL_UNCERTAINTY_ASSIGNED_CONTEXT ( ( #81 ) ) GLOBAL_UNIT_ASSIGNED_CONTEXT ( ( #70, #232, #174 ) ) REPRESENTATION_CONTEXT ( 'NONE', 'WORKASPACE' ) );
#45 = DIRECTION ( 'NONE',  ( 0.0000000000000000000, 0.0000000000000000000, 1.000000000000000000 ) ) ;
#46 = CARTESIAN_POINT ( 'NONE',  ( 0.02949797250000002133, 0.0000000000000000000, 0.1653539999999999732 ) ) ;
#47 = EDGE_CURVE ( 'NONE', #6, #28, #218, .T. ) ;
#48 = LENGTH_MEASURE_WITH_UNIT ( LENGTH_MEASURE( 0.02539999999999999897 ), #54 );
#49 = VECTOR ( 'NONE', #185, 39.37007874015748143 ) ;
#50 = AXIS2_PLACEMENT_3D ( 'NONE', #96, #257, #202 ) ;
#51 = CARTESIAN_POINT ( 'NONE',  ( 0.07874000000000004607, 9.642868896486264672E-18, 0.4446194153218638312 ) ) ;
#52 = FILL_AREA_STYLE_COLOUR ( '', #41 ) ;
#53 = EDGE_CURVE ( 'NONE', #212, #305, #12, .T. ) ;
#54 =( LENGTH_UNIT ( ) NAMED_UNIT ( * ) SI_UNIT ( $, .METRE. ) );
#55 = ORIENTED_EDGE ( 'NONE', *, *, #10, .F. ) ;
#56 = ORIENTED_EDGE ( 'NONE', *, *, #288, .T. ) ;
#57 = ORIENTED_EDGE ( 'NONE', *, *, #10, .T. ) ;
#58 = ORIENTED_EDGE ( 'NONE', *, *, #47, .F. ) ;
#59 = ORIENTED_EDGE ( 'NONE', *, *, #53, .T. ) ;
#60 = ADVANCED_FACE ( 'NONE', ( #313 ), #194, .T. ) ;
#61 = AXIS2_PLACEMENT_3D ( 'NONE', #93, #64, #170 ) ;
#62 = DIRECTION ( 'NONE',  ( 0.0000000000000000000, 0.0000000000000000000, 1.000000000000000000 ) ) ;
#63 = CARTESIAN_POINT ( 'NONE',  ( 2.025002468262114287E-17, 0.0000000000000000000, 0.1653539999999999732 ) ) ;
#64 = DIRECTION ( 'NONE',  ( 0.0000000000000000000, 0.0000000000000000000, -1.000000000000000000 ) ) ;
#65 = AXIS2_PLACEMENT_3D ( 'NONE', #187, #183, #34 ) ;
#66 = AXIS2_PLACEMENT_3D ( 'NONE', #210, #33, #306 ) ;
#67 = CARTESIAN_POINT ( 'NONE',  ( 5.445017438126880810E-17, 0.0000000000000000000, 0.4446194153218638312 ) ) ;
#68 = PRODUCT_RELATED_PRODUCT_CATEGORY ( 'part', '', ( #243 ) ) ;
#69 =( NAMED_UNIT ( * ) SI_UNIT ( $, .STERADIAN. ) SOLID_ANGLE_UNIT ( ) );
#70 =( CONVERSION_BASED_UNIT ( 'INCH', #95 ) LENGTH_UNIT ( ) NAMED_UNIT ( #130 ) );
#71 = AXIS2_PLACEMENT_3D ( 'NONE', #228, #252, #169 ) ;
#72 = ORIENTED_EDGE ( 'NONE', *, *, #151, .F. ) ;
#73 = CONICAL_SURFACE ( 'NONE', #98, 0.06374000000000018540, 0.7853981633974522758 ) ;
#74 = VERTEX_POINT ( 'NONE', #46 ) ;
#75 = FACE_OUTER_BOUND ( 'NONE', #102, .T. ) ;
#76 = ORIENTED_EDGE ( 'NONE', *, *, #80, .F. ) ;
#77 = AXIS2_PLACEMENT_3D ( 'NONE', #159, #111, #103 ) ;
#78 = DIRECTION ( 'NONE',  ( -1.000000000000000000, 1.224646799147353454E-16, 0.0000000000000000000 ) ) ;
#79 = EDGE_LOOP ( 'NONE', ( #280, #59, #133, #189 ) ) ;
#80 = EDGE_CURVE ( 'NONE', #28, #305, #188, .T. ) ;
#81 = UNCERTAINTY_MEASURE_WITH_UNIT (LENGTH_MEASURE( 1.000000000000000082E-05 ), #70, 'distance_accuracy_value', 'NONE');
#82 = ORIENTED_EDGE ( 'NONE', *, *, #80, .T. ) ;
#83 = CARTESIAN_POINT ( 'NONE',  ( 0.07874000000000000443, 9.642868896486258509E-18, 1.968503999999999809 ) ) ;
#84 = CONICAL_SURFACE ( 'NONE', #77, 0.02949797249999999704, 0.1745329251994338360 ) ;
#85 = DIRECTION ( 'NONE',  ( -1.224646799147353207E-16, -0.0000000000000000000, -1.000000000000000000 ) ) ;
#86 = CARTESIAN_POINT ( 'NONE',  ( 0.0000000000000000000, 0.0000000000000000000, 0.0000000000000000000 ) ) ;
#87 = DIRECTION ( 'NONE',  ( 1.000000000000000000, 0.0000000000000000000, 0.0000000000000000000 ) ) ;
#88 = EDGE_LOOP ( 'NONE', ( #4, #101, #282, #1 ) ) ;
#89 = DIRECTION ( 'NONE',  ( -1.000000000000000000, 0.0000000000000000000, 1.447052840699614406E-16 ) ) ;
#90 = EDGE_LOOP ( 'NONE', ( #155, #127, #31, #261 ) ) ;
#91 = CARTESIAN_POINT ( 'NONE',  ( 0.0000000000000000000, 0.0000000000000000000, 1.968503999999999809 ) ) ;
#92 = AXIS2_PLACEMENT_3D ( 'NONE', #190, #186, #118 ) ;
#93 = CARTESIAN_POINT ( 'NONE',  ( 0.0000000000000000000, 0.0000000000000000000, 1.968503999999999809 ) ) ;
#94 = EDGE_CURVE ( 'NONE', #28, #6, #224, .T. ) ;
#95 = LENGTH_MEASURE_WITH_UNIT ( LENGTH_MEASURE( 0.02539999999999999897 ), #173 );
#96 = CARTESIAN_POINT ( 'NONE',  ( 0.0000000000000000000, 0.0000000000000000000, 0.0000000000000000000 ) ) ;
#97 = EDGE_LOOP ( 'NONE', ( #56, #105, #57, #182 ) ) ;
#98 = AXIS2_PLACEMENT_3D ( 'NONE', #216, #225, #231 ) ;
#99 = PRODUCT_DEFINITION_CONTEXT ( 'detailed design', #132, 'design' ) ;
#100 = APPLICATION_CONTEXT ( 'automotive_design' ) ;
#101 = ORIENTED_EDGE ( 'NONE', *, *, #307, .T. ) ;
#102 = EDGE_LOOP ( 'NONE', ( #184, #238, #265 ) ) ;
#103 = DIRECTION ( 'NONE',  ( 1.000000000000000000, 0.0000000000000000000, 0.0000000000000000000 ) ) ;
#104 = DIRECTION ( 'NONE',  ( 0.0000000000000000000, 1.000000000000000000, 0.0000000000000000000 ) ) ;
#105 = ORIENTED_EDGE ( 'NONE', *, *, #266, .T. ) ;
#106 = AXIS2_PLACEMENT_3D ( 'NONE', #32, #165, #258 ) ;
#107 = VECTOR ( 'NONE', #250, 39.37007874015748854 ) ;
#108 = FACE_OUTER_BOUND ( 'NONE', #126, .T. ) ;
#109 = MECHANICAL_DESIGN_GEOMETRIC_PRESENTATION_REPRESENTATION (  '', ( #264 ), #44 ) ;
#110 = EDGE_LOOP ( 'NONE', ( #131, #177, #82, #205 ) ) ;
#111 = DIRECTION ( 'NONE',  ( 1.224646799147353207E-16, 0.0000000000000000000, 1.000000000000000000 ) ) ;
#112 = FACE_OUTER_BOUND ( 'NONE', #142, .T. ) ;
#113 = CARTESIAN_POINT ( 'NONE',  ( 0.0000000000000000000, 0.0000000000000000000, 1.968503999999999809 ) ) ;
#114 = CARTESIAN_POINT ( 'NONE',  ( 0.02949797250000000398, 3.612459760346164844E-18, -3.612459760346164844E-18 ) ) ;
#115 = VECTOR ( 'NONE', #255, 39.37007874015748143 ) ;
#116 = PRESENTATION_LAYER_ASSIGNMENT (  '', '', ( #264 ) ) ;
#117 = VERTEX_POINT ( 'NONE', #144 ) ;
#118 = DIRECTION ( 'NONE',  ( 1.000000000000000000, 0.0000000000000000000, 0.0000000000000000000 ) ) ;
#119 = CARTESIAN_POINT ( 'NONE',  ( -0.02949797249999997623, 3.612459760346164844E-18, 0.1653539999999999732 ) ) ;
#120 = DIRECTION ( 'NONE',  ( -0.0000000000000000000, -0.0000000000000000000, -1.000000000000000000 ) ) ;
#121 = ADVANCED_FACE ( 'NONE', ( #248 ), #73, .T. ) ;
#122 = VECTOR ( 'NONE', #120, 39.37007874015748143 ) ;
#123 = SHAPE_DEFINITION_REPRESENTATION ( #290, #254 ) ;
#124 = ADVANCED_FACE ( 'NONE', ( #322 ), #276, .T. ) ;
#125 = DIMENSIONAL_EXPONENTS ( 1.000000000000000000, 0.0000000000000000000, 0.0000000000000000000, 0.0000000000000000000, 0.0000000000000000000, 0.0000000000000000000, 0.0000000000000000000 ) ;
#126 = EDGE_LOOP ( 'NONE', ( #323, #147, #315, #76 ) ) ;
#127 = ORIENTED_EDGE ( 'NONE', *, *, #26, .T. ) ;
#128 = CIRCLE ( 'NONE', #172, 0.02949797249999999704 ) ;
#129 = DIRECTION ( 'NONE',  ( 1.224646799147353207E-16, 1.000000000000000000, -0.0000000000000000000 ) ) ;
#130 = DIMENSIONAL_EXPONENTS ( 1.000000000000000000, 0.0000000000000000000, 0.0000000000000000000, 0.0000000000000000000, 0.0000000000000000000, 0.0000000000000000000, 0.0000000000000000000 ) ;
#131 = ORIENTED_EDGE ( 'NONE', *, *, #273, .F. ) ;
#132 = APPLICATION_CONTEXT ( 'automotive_design' ) ;
#133 = ORIENTED_EDGE ( 'NONE', *, *, #5, .T. ) ;
#134 = CARTESIAN_POINT ( 'NONE',  ( 0.0000000000000000000, 0.0000000000000000000, 1.953504000000000129 ) ) ;
#135 = PRESENTATION_LAYER_ASSIGNMENT (  '', '', ( #3 ) ) ;
#136 = DIRECTION ( 'NONE',  ( 0.0000000000000000000, -1.000000000000000000, 0.0000000000000000000 ) ) ;
#137 = CARTESIAN_POINT ( 'NONE',  ( -0.07874000000000000443, 0.0000000000000000000, 1.953504000000000129 ) ) ;
#138 = DIRECTION ( 'NONE',  ( -0.0000000000000000000, -0.0000000000000000000, -1.000000000000000000 ) ) ;
#139 = CARTESIAN_POINT ( 'NONE',  ( 3.612459760346164844E-18, 0.0000000000000000000, 0.02949797249999999704 ) ) ;
#140 = CARTESIAN_POINT ( 'NONE',  ( -0.07874000000000000443, 0.0000000000000000000, 1.968503999999999809 ) ) ;
#141 = SPHERICAL_SURFACE ( 'NONE', #92, 0.02949797249999999704 ) ;
#142 = EDGE_LOOP ( 'NONE', ( #281, #158, #178, #16 ) ) ;
#143 =( GEOMETRIC_REPRESENTATION_CONTEXT ( 3 ) GLOBAL_UNCERTAINTY_ASSIGNED_CONTEXT ( ( #19 ) ) GLOBAL_UNIT_ASSIGNED_CONTEXT ( ( #227, #278, #24 ) ) REPRESENTATION_CONTEXT ( 'NONE', 'WORKASPACE' ) );
#144 = CARTESIAN_POINT ( 'NONE',  ( 0.02949797250000000745, 3.612459760346164844E-18, 0.02949797249999999357 ) ) ;
#145 = CARTESIAN_POINT ( 'NONE',  ( 5.418689640519246881E-18, 0.0000000000000000000, 0.0000000000000000000 ) ) ;
#146 = ADVANCED_FACE ( 'NONE', ( #112 ), #84, .T. ) ;
#147 = ORIENTED_EDGE ( 'NONE', *, *, #273, .T. ) ;
#148 = CLOSED_SHELL ( 'NONE', ( #283, #60, #241, #121, #154, #201, #124, #230, #146, #175, #36 ) ) ;
#149 = CONICAL_SURFACE ( 'NONE', #61, 0.06374000000000018540, 0.7853981633974522758 ) ;
#150 = PRODUCT_DEFINITION_FORMATION_WITH_SPECIFIED_SOURCE ( 'ANY', '', #243, .NOT_KNOWN. ) ;
#151 = EDGE_CURVE ( 'NONE', #233, #117, #9, .T. ) ;
#152 = CARTESIAN_POINT ( 'NONE',  ( 0.0000000000000000000, 0.0000000000000000000, 1.968503999999999809 ) ) ;
#153 = AXIS2_PLACEMENT_3D ( 'NONE', #309, #136, #8 ) ;
#154 = ADVANCED_FACE ( 'NONE', ( #108 ), #247, .T. ) ;
#155 = ORIENTED_EDGE ( 'NONE', *, *, #266, .F. ) ;
#156 = VERTEX_POINT ( 'NONE', #11 ) ;
#157 = VECTOR ( 'NONE', #219, 39.37007874015747433 ) ;
#158 = ORIENTED_EDGE ( 'NONE', *, *, #26, .F. ) ;
#159 = CARTESIAN_POINT ( 'NONE',  ( 2.025002468262114287E-17, 0.0000000000000000000, 0.1653539999999999732 ) ) ;
#160 = CARTESIAN_POINT ( 'NONE',  ( 0.06374000000000018540, 8.724383797125754882E-18, 1.968503999999999809 ) ) ;
#161 = AXIS2_PLACEMENT_3D ( 'NONE', #319, #249, #87 ) ;
#162 = CARTESIAN_POINT ( 'NONE',  ( -0.06374000000000018540, 0.0000000000000000000, 1.968503999999999809 ) ) ;
#163 = UNCERTAINTY_MEASURE_WITH_UNIT (LENGTH_MEASURE( 1.000000000000000082E-05 ), #217, 'distance_accuracy_value', 'NONE');
#164 = DIRECTION ( 'NONE',  ( -1.224646799147353207E-16, -0.0000000000000000000, -1.000000000000000000 ) ) ;
#165 = DIRECTION ( 'NONE',  ( 1.224646799147353207E-16, 0.0000000000000000000, 1.000000000000000000 ) ) ;
#166 = CARTESIAN_POINT ( 'NONE',  ( 0.02949797250000002133, 0.0000000000000000000, 0.1653539999999999732 ) ) ;
#167 = AXIS2_PLACEMENT_3D ( 'NONE', #239, #104, #285 ) ;
#168 = DIRECTION ( 'NONE',  ( 1.000000000000000000, 0.0000000000000000000, 0.0000000000000000000 ) ) ;
#169 = DIRECTION ( 'NONE',  ( -1.000000000000000000, 0.0000000000000000000, 1.224646799147352961E-16 ) ) ;
#170 = DIRECTION ( 'NONE',  ( -1.000000000000000000, 0.0000000000000000000, 0.0000000000000000000 ) ) ;
#171 = PRODUCT_DEFINITION ( 'UNKNOWN', '', #150, #99 ) ;
#172 = AXIS2_PLACEMENT_3D ( 'NONE', #63, #164, #268 ) ;
#173 =( LENGTH_UNIT ( ) NAMED_UNIT ( * ) SI_UNIT ( $, .METRE. ) );
#174 =( NAMED_UNIT ( * ) SI_UNIT ( $, .STERADIAN. ) SOLID_ANGLE_UNIT ( ) );
#175 = ADVANCED_FACE ( 'NONE', ( #191 ), #293, .T. ) ;
#176 = AXIS2_PLACEMENT_3D ( 'NONE', #86, #284, #43 ) ;
#177 = ORIENTED_EDGE ( 'NONE', *, *, #47, .T. ) ;
#178 = ORIENTED_EDGE ( 'NONE', *, *, #220, .T. ) ;
#179 = ORIENTED_EDGE ( 'NONE', *, *, #279, .T. ) ;
#180 = SPHERICAL_SURFACE ( 'NONE', #167, 0.02949797249999999704 ) ;
#181 = AXIS2_PLACEMENT_3D ( 'NONE', #67, #316, #15 ) ;
#182 = ORIENTED_EDGE ( 'NONE', *, *, #204, .F. ) ;
#183 = DIRECTION ( 'NONE',  ( -1.224646799147353207E-16, -0.0000000000000000000, -1.000000000000000000 ) ) ;
#184 = ORIENTED_EDGE ( 'NONE', *, *, #20, .F. ) ;
#185 = DIRECTION ( 'NONE',  ( -0.0000000000000000000, -0.0000000000000000000, -1.000000000000000000 ) ) ;
#186 = DIRECTION ( 'NONE',  ( 0.0000000000000000000, 1.000000000000000000, 0.0000000000000000000 ) ) ;
#187 = CARTESIAN_POINT ( 'NONE',  ( 5.445017438126880810E-17, 0.0000000000000000000, 0.4446194153218638312 ) ) ;
#188 = LINE ( 'NONE', #140, #122 ) ;
#189 = ORIENTED_EDGE ( 'NONE', *, *, #220, .F. ) ;
#190 = CARTESIAN_POINT ( 'NONE',  ( 3.612459760346164844E-18, 0.0000000000000000000, 0.02949797249999999704 ) ) ;
#191 = FACE_OUTER_BOUND ( 'NONE', #90, .T. ) ;
#192 = DIRECTION ( 'NONE',  ( -1.000000000000000000, 0.0000000000000000000, 0.0000000000000000000 ) ) ;
#193 = MANIFOLD_SOLID_BREP ( 'Fillet1', #148 ) ;
#194 = CYLINDRICAL_SURFACE ( 'NONE', #176, 0.02949797250000000398 ) ;
#195 =( GEOMETRIC_REPRESENTATION_CONTEXT ( 3 ) GLOBAL_UNCERTAINTY_ASSIGNED_CONTEXT ( ( #163 ) ) GLOBAL_UNIT_ASSIGNED_CONTEXT ( ( #217, #253, #69 ) ) REPRESENTATION_CONTEXT ( 'NONE', 'WORKASPACE' ) );
#196 = DIRECTION ( 'NONE',  ( -1.224646799147353207E-16, -0.0000000000000000000, -1.000000000000000000 ) ) ;
#197 = PRODUCT_CONTEXT ( 'NONE', #100, 'mechanical' ) ;
#198 = PRESENTATION_STYLE_ASSIGNMENT (( #200 ) ) ;
#199 = AXIS2_PLACEMENT_3D ( 'NONE', #246, #13, #318 ) ;
#200 = SURFACE_STYLE_USAGE ( .BOTH. , #23 ) ;
#201 = ADVANCED_FACE ( 'NONE', ( #223 ), #39, .T. ) ;
#202 = DIRECTION ( 'NONE',  ( 1.000000000000000000, 0.0000000000000000000, 0.0000000000000000000 ) ) ;
#203 = ORIENTED_EDGE ( 'NONE', *, *, #235, .T. ) ;
#204 = EDGE_CURVE ( 'NONE', #212, #156, #214, .T. ) ;
#205 = ORIENTED_EDGE ( 'NONE', *, *, #277, .F. ) ;
#206 = VERTEX_POINT ( 'NONE', #295 ) ;
#207 = MECHANICAL_DESIGN_GEOMETRIC_PRESENTATION_REPRESENTATION (  '', ( #3 ), #195 ) ;
#208 = EDGE_LOOP ( 'NONE', ( #72, #234, #55 ) ) ;
#209 = CARTESIAN_POINT ( 'NONE',  ( 0.0000000000000000000, 0.0000000000000000000, 1.968503999999999809 ) ) ;
#210 = CARTESIAN_POINT ( 'NONE',  ( 2.025002468262114287E-17, 0.0000000000000000000, 0.1653539999999999732 ) ) ;
#211 = DIRECTION ( 'NONE',  ( 1.000000000000000000, 0.0000000000000000000, -0.0000000000000000000 ) ) ;
#212 = VERTEX_POINT ( 'NONE', #37 ) ;
#213 = EDGE_CURVE ( 'NONE', #206, #28, #18, .T. ) ;
#214 = LINE ( 'NONE', #320, #260 ) ;
#215 = CARTESIAN_POINT ( 'NONE',  ( 0.07874000000000000443, 9.642868896486258509E-18, 1.953504000000000129 ) ) ;
#216 = CARTESIAN_POINT ( 'NONE',  ( 0.0000000000000000000, 0.0000000000000000000, 1.968503999999999809 ) ) ;
#217 =( CONVERSION_BASED_UNIT ( 'INCH', #297 ) LENGTH_UNIT ( ) NAMED_UNIT ( #29 ) );
#218 = CIRCLE ( 'NONE', #303, 0.07874000000000000443 ) ;
#219 = DIRECTION ( 'NONE',  ( -0.1736481776669311639, 2.126576849575782392E-17, 0.9848077530122080203 ) ) ;
#220 = EDGE_CURVE ( 'NONE', #74, #304, #222, .T. ) ;
#221 = DIRECTION ( 'NONE',  ( 1.224646799147353207E-16, 0.0000000000000000000, 1.000000000000000000 ) ) ;
#222 = LINE ( 'NONE', #166, #115 ) ;
#223 = FACE_OUTER_BOUND ( 'NONE', #110, .T. ) ;
#224 = CIRCLE ( 'NONE', #161, 0.07874000000000000443 ) ;
#225 = DIRECTION ( 'NONE',  ( 0.0000000000000000000, 0.0000000000000000000, -1.000000000000000000 ) ) ;
#226 = FILL_AREA_STYLE_COLOUR ( '', #229 ) ;
#227 =( CONVERSION_BASED_UNIT ( 'INCH', #48 ) LENGTH_UNIT ( ) NAMED_UNIT ( #125 ) );
#228 = CARTESIAN_POINT ( 'NONE',  ( 0.0000000000000000000, 0.0000000000000000000, 0.0000000000000000000 ) ) ;
#229 = COLOUR_RGB ( '',0.7921568627450980005, 0.8196078431372548767, 0.9333333333333333481 ) ;
#230 = ADVANCED_FACE ( 'NONE', ( #270 ), #149, .T. ) ;
#231 = DIRECTION ( 'NONE',  ( -1.000000000000000000, 0.0000000000000000000, 0.0000000000000000000 ) ) ;
#232 =( NAMED_UNIT ( * ) PLANE_ANGLE_UNIT ( ) SI_UNIT ( $, .RADIAN. ) );
#233 = VERTEX_POINT ( 'NONE', #145 ) ;
#234 = ORIENTED_EDGE ( 'NONE', *, *, #20, .T. ) ;
#235 = EDGE_CURVE ( 'NONE', #206, #40, #256, .T. ) ;
#236 = CIRCLE ( 'NONE', #275, 0.06374000000000018540 ) ;
#237 = EDGE_LOOP ( 'NONE', ( #203, #179 ) ) ;
#238 = ORIENTED_EDGE ( 'NONE', *, *, #151, .T. ) ;
#239 = CARTESIAN_POINT ( 'NONE',  ( 3.612459760346164844E-18, 0.0000000000000000000, 0.02949797249999999704 ) ) ;
#240 = DIRECTION ( 'NONE',  ( 0.0000000000000000000, 0.0000000000000000000, -1.000000000000000000 ) ) ;
#241 = ADVANCED_FACE ( 'NONE', ( #312 ), #321, .T. ) ;
#242 = VECTOR ( 'NONE', #85, 39.37007874015748143 ) ;
#243 = PRODUCT ( 'Micro_BMRM-015-4X', 'Micro_BMRM-015-4X', '', ( #197 ) ) ;
#244 = DIRECTION ( 'NONE',  ( -1.000000000000000000, 0.0000000000000000000, 0.0000000000000000000 ) ) ;
#245 = DIRECTION ( 'NONE',  ( 1.000000000000000000, 0.0000000000000000000, 0.0000000000000000000 ) ) ;
#246 = CARTESIAN_POINT ( 'NONE',  ( 2.025002468262114287E-17, 0.0000000000000000000, 0.1653539999999999732 ) ) ;
#247 = CYLINDRICAL_SURFACE ( 'NONE', #21, 0.07874000000000000443 ) ;
#248 = FACE_OUTER_BOUND ( 'NONE', #88, .T. ) ;
#249 = DIRECTION ( 'NONE',  ( 0.0000000000000000000, 0.0000000000000000000, -1.000000000000000000 ) ) ;
#250 = DIRECTION ( 'NONE',  ( -0.7071067811865502373, 0.0000000000000000000, -0.7071067811865446862 ) ) ;
#251 = VECTOR ( 'NONE', #274, 39.37007874015748854 ) ;
#252 = DIRECTION ( 'NONE',  ( -1.224646799147353207E-16, -0.0000000000000000000, -1.000000000000000000 ) ) ;
#253 =( NAMED_UNIT ( * ) PLANE_ANGLE_UNIT ( ) SI_UNIT ( $, .RADIAN. ) );
#254 = ADVANCED_BREP_SHAPE_REPRESENTATION ( 'Micro_BMRM-015-4X', ( #193, #50 ), #143 ) ;
#255 = DIRECTION ( 'NONE',  ( 0.1736481776669313304, 0.0000000000000000000, 0.9848077530122077983 ) ) ;
#256 = CIRCLE ( 'NONE', #311, 0.06374000000000018540 ) ;
#257 = DIRECTION ( 'NONE',  ( 0.0000000000000000000, 0.0000000000000000000, 1.000000000000000000 ) ) ;
#258 = DIRECTION ( 'NONE',  ( -1.000000000000000000, 0.0000000000000000000, 1.447052840699614406E-16 ) ) ;
#259 = SURFACE_STYLE_FILL_AREA ( #298 ) ;
#260 = VECTOR ( 'NONE', #196, 39.37007874015748143 ) ;
#261 = ORIENTED_EDGE ( 'NONE', *, *, #302, .T. ) ;
#262 = ORIENTED_EDGE ( 'NONE', *, *, #235, .F. ) ;
#263 = AXIS2_PLACEMENT_3D ( 'NONE', #152, #317, #211 ) ;
#264 = STYLED_ITEM ( 'NONE', ( #198 ), #254 ) ;
#265 = ORIENTED_EDGE ( 'NONE', *, *, #302, .F. ) ;
#266 = EDGE_CURVE ( 'NONE', #74, #117, #310, .T. ) ;
#267 = DIRECTION ( 'NONE',  ( 1.000000000000000000, 0.0000000000000000000, 0.0000000000000000000 ) ) ;
#268 = DIRECTION ( 'NONE',  ( -1.000000000000000000, 0.0000000000000000000, 0.0000000000000000000 ) ) ;
#269 =( LENGTH_UNIT ( ) NAMED_UNIT ( * ) SI_UNIT ( $, .METRE. ) );
#270 = FACE_OUTER_BOUND ( 'NONE', #308, .T. ) ;
#271 = CIRCLE ( 'NONE', #66, 0.02949797249999999704 ) ;
#272 = FACE_OUTER_BOUND ( 'NONE', #208, .T. ) ;
#273 = EDGE_CURVE ( 'NONE', #6, #304, #291, .T. ) ;
#274 = DIRECTION ( 'NONE',  ( 0.7071067811865502373, 8.659560562354966138E-17, -0.7071067811865446862 ) ) ;
#275 = AXIS2_PLACEMENT_3D ( 'NONE', #289, #62, #168 ) ;
#276 = PLANE ( 'NONE',  #263 ) ;
#277 = EDGE_CURVE ( 'NONE', #304, #305, #35, .T. ) ;
#278 =( NAMED_UNIT ( * ) PLANE_ANGLE_UNIT ( ) SI_UNIT ( $, .RADIAN. ) );
#279 = EDGE_CURVE ( 'NONE', #40, #206, #236, .T. ) ;
#280 = ORIENTED_EDGE ( 'NONE', *, *, #288, .F. ) ;
#281 = ORIENTED_EDGE ( 'NONE', *, *, #53, .F. ) ;
#282 = ORIENTED_EDGE ( 'NONE', *, *, #94, .F. ) ;
#283 = ADVANCED_FACE ( 'NONE', ( #272 ), #141, .T. ) ;
#284 = DIRECTION ( 'NONE',  ( -1.224646799147353207E-16, -0.0000000000000000000, -1.000000000000000000 ) ) ;
#285 = DIRECTION ( 'NONE',  ( 1.000000000000000000, 0.0000000000000000000, 0.0000000000000000000 ) ) ;
#286 = DIRECTION ( 'NONE',  ( -0.0000000000000000000, -0.0000000000000000000, -1.000000000000000000 ) ) ;
#287 = ORIENTED_EDGE ( 'NONE', *, *, #213, .T. ) ;
#288 = EDGE_CURVE ( 'NONE', #212, #74, #128, .T. ) ;
#289 = CARTESIAN_POINT ( 'NONE',  ( 0.0000000000000000000, 0.0000000000000000000, 1.968503999999999809 ) ) ;
#290 = PRODUCT_DEFINITION_SHAPE ( 'NONE', 'NONE',  #171 ) ;
#291 = LINE ( 'NONE', #83, #49 ) ;
#292 = PRESENTATION_STYLE_ASSIGNMENT (( #294 ) ) ;
#293 = CYLINDRICAL_SURFACE ( 'NONE', #71, 0.02949797250000000398 ) ;
#294 = SURFACE_STYLE_USAGE ( .BOTH. , #14 ) ;
#295 = CARTESIAN_POINT ( 'NONE',  ( -0.06374000000000018540, 0.0000000000000000000, 1.968503999999999809 ) ) ;
#296 = CIRCLE ( 'NONE', #30, 0.02949797249999999704 ) ;
#297 = LENGTH_MEASURE_WITH_UNIT ( LENGTH_MEASURE( 0.02539999999999999897 ), #269 );
#298 = FILL_AREA_STYLE ('',( #52 ) ) ;
#299 = AXIS2_PLACEMENT_3D ( 'NONE', #17, #221, #89 ) ;
#300 = CIRCLE ( 'NONE', #299, 0.02949797250000000398 ) ;
#301 = APPLICATION_PROTOCOL_DEFINITION ( 'draft international standard', 'automotive_design', 1998, #100 ) ;
#302 = EDGE_CURVE ( 'NONE', #156, #117, #300, .T. ) ;
#303 = AXIS2_PLACEMENT_3D ( 'NONE', #134, #240, #245 ) ;
#304 = VERTEX_POINT ( 'NONE', #51 ) ;
#305 = VERTEX_POINT ( 'NONE', #324 ) ;
#306 = DIRECTION ( 'NONE',  ( -1.000000000000000000, 0.0000000000000000000, 0.0000000000000000000 ) ) ;
#307 = EDGE_CURVE ( 'NONE', #40, #6, #27, .T. ) ;
#308 = EDGE_LOOP ( 'NONE', ( #7, #262, #287, #58 ) ) ;
#309 = CARTESIAN_POINT ( 'NONE',  ( 3.612459760346164844E-18, 0.0000000000000000000, 0.02949797249999999704 ) ) ;
#310 = LINE ( 'NONE', #114, #242 ) ;
#311 = AXIS2_PLACEMENT_3D ( 'NONE', #91, #45, #267 ) ;
#312 = FACE_OUTER_BOUND ( 'NONE', #79, .T. ) ;
#313 = FACE_OUTER_BOUND ( 'NONE', #97, .T. ) ;
#314 = FILL_AREA_STYLE ('',( #226 ) ) ;
#315 = ORIENTED_EDGE ( 'NONE', *, *, #5, .F. ) ;
#316 = DIRECTION ( 'NONE',  ( -1.224646799147353207E-16, -0.0000000000000000000, -1.000000000000000000 ) ) ;
#317 = DIRECTION ( 'NONE',  ( 0.0000000000000000000, 0.0000000000000000000, 1.000000000000000000 ) ) ;
#318 = DIRECTION ( 'NONE',  ( 1.000000000000000000, 0.0000000000000000000, 0.0000000000000000000 ) ) ;
#319 = CARTESIAN_POINT ( 'NONE',  ( 0.0000000000000000000, 0.0000000000000000000, 1.953504000000000129 ) ) ;
#320 = CARTESIAN_POINT ( 'NONE',  ( -0.02949797250000000398, 0.0000000000000000000, 3.612459760346164844E-18 ) ) ;
#321 = CONICAL_SURFACE ( 'NONE', #199, 0.02949797249999999704, 0.1745329251994338360 ) ;
#322 = FACE_OUTER_BOUND ( 'NONE', #237, .T. ) ;
#323 = ORIENTED_EDGE ( 'NONE', *, *, #94, .T. ) ;
#324 = CARTESIAN_POINT ( 'NONE',  ( -0.07873999999999994892, 0.0000000000000000000, 0.4446194153218638312 ) ) ;
#325 = CARTESIAN_POINT ( 'NONE',  ( 0.06374000000000018540, 7.805898697765251255E-18, 1.968503999999999809 ) ) ;
ENDSEC;
END-ISO-10303-21;
