ISO-10303-21;
HEADER;
FILE_DESCRIPTION (( 'STEP AP214' ),
    '1' );
FILE_NAME ('30242.STEP',
    '2023-06-22T18:12:46',
    ( '' ),
    ( '' ),
    'SwSTEP 2.0',
    'SolidWorks 2023',
    '' );
FILE_SCHEMA (( 'AUTOMOTIVE_DESIGN' ));
ENDSEC;

DATA;
#1 = SURFACE_STYLE_FILL_AREA ( #175 ) ;
#2 = EDGE_CURVE ( 'NONE', #64, #110, #154, .T. ) ;
#3 = EDGE_LOOP ( 'NONE', ( #109, #133 ) ) ;
#4 =( CONVERSION_BASED_UNIT ( 'INCH', #54 ) LENGTH_UNIT ( ) NAMED_UNIT ( #152 ) );
#5 = PRESENTATION_STYLE_ASSIGNMENT (( #223 ) ) ;
#6 = CARTESIAN_POINT ( 'NONE',  ( -6.123233995736766036E-17, 2.500000000000000000, 0.000000000000000000 ) ) ;
#7 =( NAMED_UNIT ( * ) SI_UNIT ( $, .STERADIAN. ) SOLID_ANGLE_UNIT ( ) );
#8 = DIRECTION ( 'NONE',  ( -0.000000000000000000, -1.000000000000000000, -0.000000000000000000 ) ) ;
#9 = CLOSED_SHELL ( 'NONE', ( #164, #210, #270, #308 ) ) ;
#10 = FILL_AREA_STYLE_COLOUR ( '', #242 ) ;
#11 = FACE_OUTER_BOUND ( 'NONE', #251, .T. ) ;
#12 = DIMENSIONAL_EXPONENTS ( 1.000000000000000000, 0.000000000000000000, 0.000000000000000000, 0.000000000000000000, 0.000000000000000000, 0.000000000000000000, 0.000000000000000000 ) ;
#13 = PRODUCT_DEFINITION_FORMATION_WITH_SPECIFIED_SOURCE ( 'ANY', '', #211, .NOT_KNOWN. ) ;
#14 = DIMENSIONAL_EXPONENTS ( 1.000000000000000000, 0.000000000000000000, 0.000000000000000000, 0.000000000000000000, 0.000000000000000000, 0.000000000000000000, 0.000000000000000000 ) ;
#15 = EDGE_LOOP ( 'NONE', ( #112, #309, #208, #252 ) ) ;
#16 = MECHANICAL_DESIGN_GEOMETRIC_PRESENTATION_REPRESENTATION (  '', ( #106 ), #264 ) ;
#17 = DIRECTION ( 'NONE',  ( 0.000000000000000000, 0.000000000000000000, -1.000000000000000000 ) ) ;
#18 = DIRECTION ( 'NONE',  ( 0.000000000000000000, 0.000000000000000000, -1.000000000000000000 ) ) ;
#19 = DIRECTION ( 'NONE',  ( -3.498990854706722745E-17, 1.000000000000000000, -0.000000000000000000 ) ) ;
#20 = CARTESIAN_POINT ( 'NONE',  ( 0.000000000000000000, 0.7500000000000001110, 0.000000000000000000 ) ) ;
#21 = CIRCLE ( 'NONE', #134, 0.1562500000000000000 ) ;
#22 = CARTESIAN_POINT ( 'NONE',  ( 0.000000000000000000, 0.7500000000000001110, 0.000000000000000000 ) ) ;
#23 =( NAMED_UNIT ( * ) PLANE_ANGLE_UNIT ( ) SI_UNIT ( $, .RADIAN. ) );
#24 = CARTESIAN_POINT ( 'NONE',  ( 0.000000000000000000, 0.000000000000000000, 0.000000000000000000 ) ) ;
#25 = AXIS2_PLACEMENT_3D ( 'NONE', #141, #19, #67 ) ;
#26 = LENGTH_MEASURE_WITH_UNIT ( LENGTH_MEASURE( 0.02539999999999999897 ), #74 );
#27 = EDGE_CURVE ( 'NONE', #279, #233, #187, .T. ) ;
#28 = CARTESIAN_POINT ( 'NONE',  ( 0.000000000000000000, 0.7500000000000001110, -0.1562500000000000000 ) ) ;
#29 = FACE_OUTER_BOUND ( 'NONE', #52, .T. ) ;
#30 =( LENGTH_UNIT ( ) NAMED_UNIT ( * ) SI_UNIT ( $, .METRE. ) );
#31 = MECHANICAL_DESIGN_GEOMETRIC_PRESENTATION_REPRESENTATION (  '', ( #125 ), #302 ) ;
#32 = CIRCLE ( 'NONE', #73, 0.1562500000000000833 ) ;
#33 =( NAMED_UNIT ( * ) SI_UNIT ( $, .STERADIAN. ) SOLID_ANGLE_UNIT ( ) );
#34 = SURFACE_STYLE_FILL_AREA ( #295 ) ;
#35 = FILL_AREA_STYLE_COLOUR ( '', #199 ) ;
#36 = EDGE_CURVE ( 'NONE', #238, #48, #139, .T. ) ;
#37 = PRODUCT_DEFINITION_CONTEXT ( 'detailed design', #147, 'design' ) ;
#38 = ORIENTED_EDGE ( 'NONE', *, *, #190, .F. ) ;
#39 = AXIS2_PLACEMENT_3D ( 'NONE', #61, #200, #57 ) ;
#40 = AXIS2_PLACEMENT_3D ( 'NONE', #105, #289, #127 ) ;
#41 = ORIENTED_EDGE ( 'NONE', *, *, #158, .F. ) ;
#42 = ADVANCED_BREP_SHAPE_REPRESENTATION ( '30242', ( #216, #100, #265 ), #94 ) ;
#43 = CARTESIAN_POINT ( 'NONE',  ( 0.000000000000000000, 0.000000000000000000, 0.000000000000000000 ) ) ;
#44 = PRESENTATION_STYLE_ASSIGNMENT (( #254 ) ) ;
#45 = DIRECTION ( 'NONE',  ( 0.000000000000000000, 0.000000000000000000, -1.000000000000000000 ) ) ;
#46 = SURFACE_STYLE_FILL_AREA ( #160 ) ;
#47 = CARTESIAN_POINT ( 'NONE',  ( -7.582401355855259480E-33, 0.7499999999999998890, 0.000000000000000000 ) ) ;
#48 = VERTEX_POINT ( 'NONE', #90 ) ;
#49 = DIRECTION ( 'NONE',  ( -3.498990854706722745E-17, 1.000000000000000000, -0.000000000000000000 ) ) ;
#50 = DIRECTION ( 'NONE',  ( -1.000000000000000000, 0.000000000000000000, 0.000000000000000000 ) ) ;
#51 = PRESENTATION_LAYER_ASSIGNMENT (  '', '', ( #284 ) ) ;
#52 = EDGE_LOOP ( 'NONE', ( #195, #215 ) ) ;
#53 = PRODUCT_DEFINITION ( 'UNKNOWN', '', #13, #37 ) ;
#54 = LENGTH_MEASURE_WITH_UNIT ( LENGTH_MEASURE( 0.02539999999999999897 ), #268 );
#55 = FILL_AREA_STYLE ('',( #246 ) ) ;
#56 = MECHANICAL_DESIGN_GEOMETRIC_PRESENTATION_REPRESENTATION (  '', ( #93 ), #218 ) ;
#57 = DIRECTION ( 'NONE',  ( 0.000000000000000000, 0.000000000000000000, -1.000000000000000000 ) ) ;
#58 = SURFACE_STYLE_USAGE ( .BOTH. , #294 ) ;
#59 = CARTESIAN_POINT ( 'NONE',  ( 1.913510623667739463E-17, 0.000000000000000000, 0.1562500000000000000 ) ) ;
#60 = FILL_AREA_STYLE ('',( #81 ) ) ;
#61 = CARTESIAN_POINT ( 'NONE',  ( 0.000000000000000000, 0.000000000000000000, 0.000000000000000000 ) ) ;
#62 = AXIS2_PLACEMENT_3D ( 'NONE', #24, #97, #269 ) ;
#63 = STYLED_ITEM ( 'NONE', ( #287 ), #216 ) ;
#64 = VERTEX_POINT ( 'NONE', #70 ) ;
#65 = UNCERTAINTY_MEASURE_WITH_UNIT (LENGTH_MEASURE( 1.000000000000000082E-05 ), #4, 'distance_accuracy_value', 'NONE');
#66 = EDGE_CURVE ( 'NONE', #64, #279, #165, .T. ) ;
#67 = DIRECTION ( 'NONE',  ( -1.000000000000000000, 0.000000000000000000, 0.000000000000000000 ) ) ;
#68 = PLANE ( 'NONE',  #292 ) ;
#69 = CIRCLE ( 'NONE', #39, 0.1562500000000000000 ) ;
#70 = CARTESIAN_POINT ( 'NONE',  ( -0.1562500000000000000, 0.7499999999999998890, 0.000000000000000000 ) ) ;
#71 = ORIENTED_EDGE ( 'NONE', *, *, #155, .T. ) ;
#72 = EDGE_CURVE ( 'NONE', #238, #276, #177, .T. ) ;
#73 = AXIS2_PLACEMENT_3D ( 'NONE', #307, #255, #138 ) ;
#74 =( LENGTH_UNIT ( ) NAMED_UNIT ( * ) SI_UNIT ( $, .METRE. ) );
#75 = LENGTH_MEASURE_WITH_UNIT ( LENGTH_MEASURE( 0.02539999999999999897 ), #293 );
#76 = SURFACE_STYLE_FILL_AREA ( #55 ) ;
#77 = DIRECTION ( 'NONE',  ( 0.000000000000000000, 0.000000000000000000, -1.000000000000000000 ) ) ;
#78 =( NAMED_UNIT ( * ) SI_UNIT ( $, .STERADIAN. ) SOLID_ANGLE_UNIT ( ) );
#79 = VECTOR ( 'NONE', #259, 39.37007874015748143 ) ;
#80 = DIMENSIONAL_EXPONENTS ( 1.000000000000000000, 0.000000000000000000, 0.000000000000000000, 0.000000000000000000, 0.000000000000000000, 0.000000000000000000, 0.000000000000000000 ) ;
#81 = FILL_AREA_STYLE_COLOUR ( '', #179 ) ;
#82 = UNCERTAINTY_MEASURE_WITH_UNIT (LENGTH_MEASURE( 1.000000000000000082E-05 ), #225, 'distance_accuracy_value', 'NONE');
#83 = EDGE_LOOP ( 'NONE', ( #41, #71, #261, #298 ) ) ;
#84 = DIRECTION ( 'NONE',  ( 0.000000000000000000, 0.000000000000000000, 1.000000000000000000 ) ) ;
#85 = ORIENTED_EDGE ( 'NONE', *, *, #36, .T. ) ;
#86 = ORIENTED_EDGE ( 'NONE', *, *, #226, .T. ) ;
#87 = SHAPE_DEFINITION_REPRESENTATION ( #224, #42 ) ;
#88 = DIRECTION ( 'NONE',  ( -1.000000000000000000, 0.000000000000000000, 0.000000000000000000 ) ) ;
#89 = ADVANCED_FACE ( 'NONE', ( #153 ), #266, .T. ) ;
#90 = CARTESIAN_POINT ( 'NONE',  ( 1.913510623667739463E-17, 0.7500000000000001110, 0.1562500000000000000 ) ) ;
#91 = CARTESIAN_POINT ( 'NONE',  ( -6.123233995736766036E-17, 2.500000000000000000, 0.000000000000000000 ) ) ;
#92 = ORIENTED_EDGE ( 'NONE', *, *, #72, .T. ) ;
#93 = STYLED_ITEM ( 'NONE', ( #253 ), #129 ) ;
#94 =( GEOMETRIC_REPRESENTATION_CONTEXT ( 3 ) GLOBAL_UNCERTAINTY_ASSIGNED_CONTEXT ( ( #82 ) ) GLOBAL_UNIT_ASSIGNED_CONTEXT ( ( #225, #202, #291 ) ) REPRESENTATION_CONTEXT ( 'NONE', 'WORKASPACE' ) );
#95 = APPLICATION_CONTEXT ( 'automotive_design' ) ;
#96 = FACE_OUTER_BOUND ( 'NONE', #301, .T. ) ;
#97 = DIRECTION ( 'NONE',  ( 0.000000000000000000, -1.000000000000000000, -0.000000000000000000 ) ) ;
#98 =( CONVERSION_BASED_UNIT ( 'INCH', #75 ) LENGTH_UNIT ( ) NAMED_UNIT ( #186 ) );
#99 = FILL_AREA_STYLE_COLOUR ( '', #228 ) ;
#100 = MANIFOLD_SOLID_BREP ( 'Revolve - Tool Body (Straight Shanked)', #9 ) ;
#101 = LINE ( 'NONE', #220, #166 ) ;
#102 = LENGTH_MEASURE_WITH_UNIT ( LENGTH_MEASURE( 0.02539999999999999897 ), #30 );
#103 = LENGTH_MEASURE_WITH_UNIT ( LENGTH_MEASURE( 0.02539999999999999897 ), #234 );
#104 = EDGE_CURVE ( 'NONE', #276, #111, #69, .T. ) ;
#105 = CARTESIAN_POINT ( 'NONE',  ( 0.1562500000000000000, 2.500000000000000000, 0.000000000000000000 ) ) ;
#106 = STYLED_ITEM ( 'NONE', ( #143 ), #89 ) ;
#107 = AXIS2_PLACEMENT_3D ( 'NONE', #217, #222, #118 ) ;
#108 = DIRECTION ( 'NONE',  ( -0.000000000000000000, -1.000000000000000000, -0.000000000000000000 ) ) ;
#109 = ORIENTED_EDGE ( 'NONE', *, *, #2, .F. ) ;
#110 = VERTEX_POINT ( 'NONE', #247 ) ;
#111 = VERTEX_POINT ( 'NONE', #59 ) ;
#112 = ORIENTED_EDGE ( 'NONE', *, *, #2, .T. ) ;
#113 = DIRECTION ( 'NONE',  ( -1.000000000000000000, 0.000000000000000000, 0.000000000000000000 ) ) ;
#114 = DIRECTION ( 'NONE',  ( -1.000000000000000000, -3.498990854706722745E-17, 0.000000000000000000 ) ) ;
#115 = COLOUR_RGB ( '',1.000000000000000000, 0.000000000000000000, 0.000000000000000000 ) ;
#116 = MECHANICAL_DESIGN_GEOMETRIC_PRESENTATION_REPRESENTATION (  '', ( #284 ), #192 ) ;
#117 = CARTESIAN_POINT ( 'NONE',  ( 0.1562499999999999722, 2.500000000000000000, 1.913510623667739771E-17 ) ) ;
#118 = DIRECTION ( 'NONE',  ( 0.000000000000000000, 0.000000000000000000, -1.000000000000000000 ) ) ;
#119 = CARTESIAN_POINT ( 'NONE',  ( -0.1562500000000001388, 2.500000000000000000, 0.000000000000000000 ) ) ;
#120 =( CONVERSION_BASED_UNIT ( 'INCH', #263 ) LENGTH_UNIT ( ) NAMED_UNIT ( #271 ) );
#121 =( CONVERSION_BASED_UNIT ( 'INCH', #26 ) LENGTH_UNIT ( ) NAMED_UNIT ( #14 ) );
#122 = UNCERTAINTY_MEASURE_WITH_UNIT (LENGTH_MEASURE( 1.000000000000000082E-05 ), #98, 'distance_accuracy_value', 'NONE');
#123 = CARTESIAN_POINT ( 'NONE',  ( 0.000000000000000000, 0.000000000000000000, -0.1562500000000000000 ) ) ;
#124 = PLANE ( 'NONE',  #191 ) ;
#125 = STYLED_ITEM ( 'NONE', ( #197 ), #280 ) ;
#126 = PRESENTATION_LAYER_ASSIGNMENT (  '', '', ( #63 ) ) ;
#127 = DIRECTION ( 'NONE',  ( 1.000000000000000000, 3.498990854706722745E-17, 0.000000000000000000 ) ) ;
#128 = FACE_OUTER_BOUND ( 'NONE', #185, .T. ) ;
#129 = ADVANCED_FACE ( 'NONE', ( #29 ), #124, .T. ) ;
#130 = ORIENTED_EDGE ( 'NONE', *, *, #221, .T. ) ;
#131 = MECHANICAL_DESIGN_GEOMETRIC_PRESENTATION_REPRESENTATION (  '', ( #260 ), #235 ) ;
#132 = ORIENTED_EDGE ( 'NONE', *, *, #104, .F. ) ;
#133 = ORIENTED_EDGE ( 'NONE', *, *, #155, .F. ) ;
#134 = AXIS2_PLACEMENT_3D ( 'NONE', #278, #236, #18 ) ;
#135 =( CONVERSION_BASED_UNIT ( 'INCH', #167 ) LENGTH_UNIT ( ) NAMED_UNIT ( #300 ) );
#136 = DIRECTION ( 'NONE',  ( -3.498990854706722745E-17, 1.000000000000000000, -0.000000000000000000 ) ) ;
#137 = CARTESIAN_POINT ( 'NONE',  ( 0.000000000000000000, 0.000000000000000000, 0.000000000000000000 ) ) ;
#138 = DIRECTION ( 'NONE',  ( -1.000000000000000000, 0.000000000000000000, 0.000000000000000000 ) ) ;
#139 = CIRCLE ( 'NONE', #178, 0.1562500000000000000 ) ;
#140 = CARTESIAN_POINT ( 'NONE',  ( -6.123233995736766036E-17, 2.500000000000000000, 0.000000000000000000 ) ) ;
#141 = CARTESIAN_POINT ( 'NONE',  ( -7.582401355855259480E-33, 0.7499999999999998890, 0.000000000000000000 ) ) ;
#142 = DIRECTION ( 'NONE',  ( -3.498990854706722745E-17, 1.000000000000000000, -0.000000000000000000 ) ) ;
#143 = PRESENTATION_STYLE_ASSIGNMENT (( #171 ) ) ;
#144 = DIRECTION ( 'NONE',  ( -0.000000000000000000, -1.000000000000000000, -0.000000000000000000 ) ) ;
#145 = PRESENTATION_LAYER_ASSIGNMENT (  '', '', ( #260 ) ) ;
#146 =( NAMED_UNIT ( * ) SI_UNIT ( $, .STERADIAN. ) SOLID_ANGLE_UNIT ( ) );
#147 = APPLICATION_CONTEXT ( 'automotive_design' ) ;
#148 = CYLINDRICAL_SURFACE ( 'NONE', #283, 0.1562500000000000000 ) ;
#149 = FILL_AREA_STYLE_COLOUR ( '', #244 ) ;
#150 = APPLICATION_PROTOCOL_DEFINITION ( 'draft international standard', 'automotive_design', 1998, #95 ) ;
#151 = PLANE ( 'NONE',  #40 ) ;
#152 = DIMENSIONAL_EXPONENTS ( 1.000000000000000000, 0.000000000000000000, 0.000000000000000000, 0.000000000000000000, 0.000000000000000000, 0.000000000000000000, 0.000000000000000000 ) ;
#153 = FACE_OUTER_BOUND ( 'NONE', #274, .T. ) ;
#154 = CIRCLE ( 'NONE', #25, 0.1562500000000000000 ) ;
#155 = EDGE_CURVE ( 'NONE', #110, #64, #209, .T. ) ;
#156 = ORIENTED_EDGE ( 'NONE', *, *, #72, .F. ) ;
#157 = CLOSED_SHELL ( 'NONE', ( #286, #129, #280, #89 ) ) ;
#158 = EDGE_CURVE ( 'NONE', #110, #233, #159, .T. ) ;
#159 = LINE ( 'NONE', #117, #79 ) ;
#160 = FILL_AREA_STYLE ('',( #35 ) ) ;
#161 = PRESENTATION_LAYER_ASSIGNMENT (  '', '', ( #93 ) ) ;
#162 = CARTESIAN_POINT ( 'NONE',  ( 9.564794532282251356E-35, 0.7500000000000001110, 0.000000000000000000 ) ) ;
#163 = DIRECTION ( 'NONE',  ( 0.000000000000000000, -0.000000000000000000, 1.000000000000000000 ) ) ;
#164 = ADVANCED_FACE ( 'NONE', ( #219 ), #196, .T. ) ;
#165 = LINE ( 'NONE', #258, #198 ) ;
#166 = VECTOR ( 'NONE', #144, 39.37007874015748143 ) ;
#167 = LENGTH_MEASURE_WITH_UNIT ( LENGTH_MEASURE( 0.02539999999999999897 ), #181 );
#168 = CIRCLE ( 'NONE', #107, 0.1562500000000000000 ) ;
#169 = SURFACE_SIDE_STYLE ('',( #34 ) ) ;
#170 = FACE_OUTER_BOUND ( 'NONE', #83, .T. ) ;
#171 = SURFACE_STYLE_USAGE ( .BOTH. , #262 ) ;
#172 = SURFACE_STYLE_USAGE ( .BOTH. , #290 ) ;
#173 = VECTOR ( 'NONE', #8, 39.37007874015748143 ) ;
#174 = AXIS2_PLACEMENT_3D ( 'NONE', #137, #240, #77 ) ;
#175 = FILL_AREA_STYLE ('',( #99 ) ) ;
#176 = PRODUCT_RELATED_PRODUCT_CATEGORY ( 'part', '', ( #211 ) ) ;
#177 = LINE ( 'NONE', #288, #173 ) ;
#178 = AXIS2_PLACEMENT_3D ( 'NONE', #22, #256, #45 ) ;
#179 = COLOUR_RGB ( '',0.7921568627450980005, 0.8196078431372548767, 0.9333333333333333481 ) ;
#180 = EDGE_CURVE ( 'NONE', #233, #279, #32, .T. ) ;
#181 =( LENGTH_UNIT ( ) NAMED_UNIT ( * ) SI_UNIT ( $, .METRE. ) );
#182 = UNCERTAINTY_MEASURE_WITH_UNIT (LENGTH_MEASURE( 1.000000000000000082E-05 ), #120, 'distance_accuracy_value', 'NONE');
#183 = DIRECTION ( 'NONE',  ( 1.000000000000000000, 0.000000000000000000, 0.000000000000000000 ) ) ;
#184 = APPLICATION_PROTOCOL_DEFINITION ( 'draft international standard', 'automotive_design', 1998, #147 ) ;
#185 = EDGE_LOOP ( 'NONE', ( #85, #86, #132, #156 ) ) ;
#186 = DIMENSIONAL_EXPONENTS ( 1.000000000000000000, 0.000000000000000000, 0.000000000000000000, 0.000000000000000000, 0.000000000000000000, 0.000000000000000000, 0.000000000000000000 ) ;
#187 = CIRCLE ( 'NONE', #275, 0.1562500000000000833 ) ;
#188 = PRESENTATION_LAYER_ASSIGNMENT (  '', '', ( #125 ) ) ;
#189 = CARTESIAN_POINT ( 'NONE',  ( 0.000000000000000000, 0.000000000000000000, 0.000000000000000000 ) ) ;
#190 = EDGE_CURVE ( 'NONE', #111, #276, #21, .T. ) ;
#191 = AXIS2_PLACEMENT_3D ( 'NONE', #20, #305, #163 ) ;
#192 =( GEOMETRIC_REPRESENTATION_CONTEXT ( 3 ) GLOBAL_UNCERTAINTY_ASSIGNED_CONTEXT ( ( #205 ) ) GLOBAL_UNIT_ASSIGNED_CONTEXT ( ( #207, #296, #237 ) ) REPRESENTATION_CONTEXT ( 'NONE', 'WORKASPACE' ) );
#193 =( NAMED_UNIT ( * ) PLANE_ANGLE_UNIT ( ) SI_UNIT ( $, .RADIAN. ) );
#194 = DIRECTION ( 'NONE',  ( -3.498990854706722745E-17, 1.000000000000000000, -0.000000000000000000 ) ) ;
#195 = ORIENTED_EDGE ( 'NONE', *, *, #36, .F. ) ;
#196 = CYLINDRICAL_SURFACE ( 'NONE', #213, 0.1562500000000000278 ) ;
#197 = PRESENTATION_STYLE_ASSIGNMENT (( #58 ) ) ;
#198 = VECTOR ( 'NONE', #136, 39.37007874015748143 ) ;
#199 = COLOUR_RGB ( '',1.000000000000000000, 0.000000000000000000, 0.000000000000000000 ) ;
#200 = DIRECTION ( 'NONE',  ( -0.000000000000000000, -1.000000000000000000, -0.000000000000000000 ) ) ;
#201 =( NAMED_UNIT ( * ) PLANE_ANGLE_UNIT ( ) SI_UNIT ( $, .RADIAN. ) );
#202 =( NAMED_UNIT ( * ) PLANE_ANGLE_UNIT ( ) SI_UNIT ( $, .RADIAN. ) );
#203 = SURFACE_STYLE_FILL_AREA ( #60 ) ;
#204 = FILL_AREA_STYLE ('',( #149 ) ) ;
#205 = UNCERTAINTY_MEASURE_WITH_UNIT (LENGTH_MEASURE( 1.000000000000000082E-05 ), #207, 'distance_accuracy_value', 'NONE');
#206 = UNCERTAINTY_MEASURE_WITH_UNIT (LENGTH_MEASURE( 1.000000000000000082E-05 ), #135, 'distance_accuracy_value', 'NONE');
#207 =( CONVERSION_BASED_UNIT ( 'INCH', #103 ) LENGTH_UNIT ( ) NAMED_UNIT ( #12 ) );
#208 = ORIENTED_EDGE ( 'NONE', *, *, #27, .F. ) ;
#209 = CIRCLE ( 'NONE', #232, 0.1562500000000000000 ) ;
#210 = ADVANCED_FACE ( 'NONE', ( #282 ), #68, .F. ) ;
#211 = PRODUCT ( '30242', '30242', '', ( #272 ) ) ;
#212 = ORIENTED_EDGE ( 'NONE', *, *, #27, .T. ) ;
#213 = AXIS2_PLACEMENT_3D ( 'NONE', #91, #194, #50 ) ;
#214 = MECHANICAL_DESIGN_GEOMETRIC_PRESENTATION_REPRESENTATION (  '', ( #63 ), #304 ) ;
#215 = ORIENTED_EDGE ( 'NONE', *, *, #221, .F. ) ;
#216 = MANIFOLD_SOLID_BREP ( 'Revolve - Cutting Edge', #157 ) ;
#217 = CARTESIAN_POINT ( 'NONE',  ( 0.000000000000000000, 0.7500000000000001110, 0.000000000000000000 ) ) ;
#218 =( GEOMETRIC_REPRESENTATION_CONTEXT ( 3 ) GLOBAL_UNCERTAINTY_ASSIGNED_CONTEXT ( ( #206 ) ) GLOBAL_UNIT_ASSIGNED_CONTEXT ( ( #135, #193, #239 ) ) REPRESENTATION_CONTEXT ( 'NONE', 'WORKASPACE' ) );
#219 = FACE_OUTER_BOUND ( 'NONE', #15, .T. ) ;
#220 = CARTESIAN_POINT ( 'NONE',  ( 1.913510623667739463E-17, 0.000000000000000000, 0.1562500000000000000 ) ) ;
#221 = EDGE_CURVE ( 'NONE', #48, #238, #168, .T. ) ;
#222 = DIRECTION ( 'NONE',  ( -0.000000000000000000, -1.000000000000000000, -0.000000000000000000 ) ) ;
#223 = SURFACE_STYLE_USAGE ( .BOTH. , #267 ) ;
#224 = PRODUCT_DEFINITION_SHAPE ( 'NONE', 'NONE',  #53 ) ;
#225 =( CONVERSION_BASED_UNIT ( 'INCH', #102 ) LENGTH_UNIT ( ) NAMED_UNIT ( #80 ) );
#226 = EDGE_CURVE ( 'NONE', #48, #111, #101, .T. ) ;
#227 = CARTESIAN_POINT ( 'NONE',  ( 0.1562500000000000000, 2.500000000000000000, 1.913510623667739771E-17 ) ) ;
#228 = COLOUR_RGB ( '',1.000000000000000000, 0.000000000000000000, 0.000000000000000000 ) ;
#229 =( NAMED_UNIT ( * ) PLANE_ANGLE_UNIT ( ) SI_UNIT ( $, .RADIAN. ) );
#230 =( LENGTH_UNIT ( ) NAMED_UNIT ( * ) SI_UNIT ( $, .METRE. ) );
#231 =( NAMED_UNIT ( * ) PLANE_ANGLE_UNIT ( ) SI_UNIT ( $, .RADIAN. ) );
#232 = AXIS2_PLACEMENT_3D ( 'NONE', #47, #49, #88 ) ;
#233 = VERTEX_POINT ( 'NONE', #227 ) ;
#234 =( LENGTH_UNIT ( ) NAMED_UNIT ( * ) SI_UNIT ( $, .METRE. ) );
#235 =( GEOMETRIC_REPRESENTATION_CONTEXT ( 3 ) GLOBAL_UNCERTAINTY_ASSIGNED_CONTEXT ( ( #122 ) ) GLOBAL_UNIT_ASSIGNED_CONTEXT ( ( #98, #201, #78 ) ) REPRESENTATION_CONTEXT ( 'NONE', 'WORKASPACE' ) );
#236 = DIRECTION ( 'NONE',  ( -0.000000000000000000, -1.000000000000000000, -0.000000000000000000 ) ) ;
#237 =( NAMED_UNIT ( * ) SI_UNIT ( $, .STERADIAN. ) SOLID_ANGLE_UNIT ( ) );
#238 = VERTEX_POINT ( 'NONE', #28 ) ;
#239 =( NAMED_UNIT ( * ) SI_UNIT ( $, .STERADIAN. ) SOLID_ANGLE_UNIT ( ) );
#240 = DIRECTION ( 'NONE',  ( -0.000000000000000000, -1.000000000000000000, -0.000000000000000000 ) ) ;
#241 = DIRECTION ( 'NONE',  ( -1.000000000000000000, 0.000000000000000000, 0.000000000000000000 ) ) ;
#242 = COLOUR_RGB ( '',1.000000000000000000, 0.000000000000000000, 0.000000000000000000 ) ;
#243 = CYLINDRICAL_SURFACE ( 'NONE', #248, 0.1562500000000000278 ) ;
#244 = COLOUR_RGB ( '',0.7921568627450980005, 0.8196078431372548767, 0.9333333333333333481 ) ;
#245 = SURFACE_STYLE_FILL_AREA ( #204 ) ;
#246 = FILL_AREA_STYLE_COLOUR ( '', #115 ) ;
#247 = CARTESIAN_POINT ( 'NONE',  ( 0.1562500000000000000, 0.7499999999999998890, 1.913510623667739771E-17 ) ) ;
#248 = AXIS2_PLACEMENT_3D ( 'NONE', #6, #142, #241 ) ;
#249 = UNCERTAINTY_MEASURE_WITH_UNIT (LENGTH_MEASURE( 1.000000000000000082E-05 ), #121, 'distance_accuracy_value', 'NONE');
#250 = ORIENTED_EDGE ( 'NONE', *, *, #226, .F. ) ;
#251 = EDGE_LOOP ( 'NONE', ( #212, #306 ) ) ;
#252 = ORIENTED_EDGE ( 'NONE', *, *, #66, .F. ) ;
#253 = PRESENTATION_STYLE_ASSIGNMENT (( #285 ) ) ;
#254 = SURFACE_STYLE_USAGE ( .BOTH. , #277 ) ;
#255 = DIRECTION ( 'NONE',  ( -3.498990854706722745E-17, 1.000000000000000000, -0.000000000000000000 ) ) ;
#256 = DIRECTION ( 'NONE',  ( -0.000000000000000000, -1.000000000000000000, -0.000000000000000000 ) ) ;
#257 = DIRECTION ( 'NONE',  ( -3.498990854706722745E-17, 1.000000000000000000, 0.000000000000000000 ) ) ;
#258 = CARTESIAN_POINT ( 'NONE',  ( -0.1562500000000001110, 2.500000000000000000, 0.000000000000000000 ) ) ;
#259 = DIRECTION ( 'NONE',  ( -3.498990854706722745E-17, 1.000000000000000000, -0.000000000000000000 ) ) ;
#260 = STYLED_ITEM ( 'NONE', ( #5 ), #100 ) ;
#261 = ORIENTED_EDGE ( 'NONE', *, *, #66, .T. ) ;
#262 = SURFACE_SIDE_STYLE ('',( #76 ) ) ;
#263 = LENGTH_MEASURE_WITH_UNIT ( LENGTH_MEASURE( 0.02539999999999999897 ), #230 );
#264 =( GEOMETRIC_REPRESENTATION_CONTEXT ( 3 ) GLOBAL_UNCERTAINTY_ASSIGNED_CONTEXT ( ( #182 ) ) GLOBAL_UNIT_ASSIGNED_CONTEXT ( ( #120, #231, #146 ) ) REPRESENTATION_CONTEXT ( 'NONE', 'WORKASPACE' ) );
#265 = AXIS2_PLACEMENT_3D ( 'NONE', #43, #84, #183 ) ;
#266 = PLANE ( 'NONE',  #62 ) ;
#267 = SURFACE_SIDE_STYLE ('',( #245 ) ) ;
#268 =( LENGTH_UNIT ( ) NAMED_UNIT ( * ) SI_UNIT ( $, .METRE. ) );
#269 = DIRECTION ( 'NONE',  ( 0.000000000000000000, 0.000000000000000000, -1.000000000000000000 ) ) ;
#270 = ADVANCED_FACE ( 'NONE', ( #170 ), #243, .T. ) ;
#271 = DIMENSIONAL_EXPONENTS ( 1.000000000000000000, 0.000000000000000000, 0.000000000000000000, 0.000000000000000000, 0.000000000000000000, 0.000000000000000000, 0.000000000000000000 ) ;
#272 = PRODUCT_CONTEXT ( 'NONE', #95, 'mechanical' ) ;
#273 = CYLINDRICAL_SURFACE ( 'NONE', #174, 0.1562500000000000000 ) ;
#274 = EDGE_LOOP ( 'NONE', ( #299, #303 ) ) ;
#275 = AXIS2_PLACEMENT_3D ( 'NONE', #140, #281, #113 ) ;
#276 = VERTEX_POINT ( 'NONE', #123 ) ;
#277 = SURFACE_SIDE_STYLE ('',( #46 ) ) ;
#278 = CARTESIAN_POINT ( 'NONE',  ( 0.000000000000000000, 0.000000000000000000, 0.000000000000000000 ) ) ;
#279 = VERTEX_POINT ( 'NONE', #119 ) ;
#280 = ADVANCED_FACE ( 'NONE', ( #96 ), #148, .T. ) ;
#281 = DIRECTION ( 'NONE',  ( -3.498990854706722745E-17, 1.000000000000000000, -0.000000000000000000 ) ) ;
#282 = FACE_OUTER_BOUND ( 'NONE', #3, .T. ) ;
#283 = AXIS2_PLACEMENT_3D ( 'NONE', #189, #108, #17 ) ;
#284 = STYLED_ITEM ( 'NONE', ( #44 ), #286 ) ;
#285 = SURFACE_STYLE_USAGE ( .BOTH. , #169 ) ;
#286 = ADVANCED_FACE ( 'NONE', ( #128 ), #273, .T. ) ;
#287 = PRESENTATION_STYLE_ASSIGNMENT (( #172 ) ) ;
#288 = CARTESIAN_POINT ( 'NONE',  ( 0.000000000000000000, 0.000000000000000000, -0.1562500000000000000 ) ) ;
#289 = DIRECTION ( 'NONE',  ( 3.498990854706722745E-17, -1.000000000000000000, 0.000000000000000000 ) ) ;
#290 = SURFACE_SIDE_STYLE ('',( #203 ) ) ;
#291 =( NAMED_UNIT ( * ) SI_UNIT ( $, .STERADIAN. ) SOLID_ANGLE_UNIT ( ) );
#292 = AXIS2_PLACEMENT_3D ( 'NONE', #162, #257, #114 ) ;
#293 =( LENGTH_UNIT ( ) NAMED_UNIT ( * ) SI_UNIT ( $, .METRE. ) );
#294 = SURFACE_SIDE_STYLE ('',( #1 ) ) ;
#295 = FILL_AREA_STYLE ('',( #10 ) ) ;
#296 =( NAMED_UNIT ( * ) PLANE_ANGLE_UNIT ( ) SI_UNIT ( $, .RADIAN. ) );
#297 = PRESENTATION_LAYER_ASSIGNMENT (  '', '', ( #106 ) ) ;
#298 = ORIENTED_EDGE ( 'NONE', *, *, #180, .F. ) ;
#299 = ORIENTED_EDGE ( 'NONE', *, *, #104, .T. ) ;
#300 = DIMENSIONAL_EXPONENTS ( 1.000000000000000000, 0.000000000000000000, 0.000000000000000000, 0.000000000000000000, 0.000000000000000000, 0.000000000000000000, 0.000000000000000000 ) ;
#301 = EDGE_LOOP ( 'NONE', ( #250, #130, #92, #38 ) ) ;
#302 =( GEOMETRIC_REPRESENTATION_CONTEXT ( 3 ) GLOBAL_UNCERTAINTY_ASSIGNED_CONTEXT ( ( #249 ) ) GLOBAL_UNIT_ASSIGNED_CONTEXT ( ( #121, #229, #33 ) ) REPRESENTATION_CONTEXT ( 'NONE', 'WORKASPACE' ) );
#303 = ORIENTED_EDGE ( 'NONE', *, *, #190, .T. ) ;
#304 =( GEOMETRIC_REPRESENTATION_CONTEXT ( 3 ) GLOBAL_UNCERTAINTY_ASSIGNED_CONTEXT ( ( #65 ) ) GLOBAL_UNIT_ASSIGNED_CONTEXT ( ( #4, #23, #7 ) ) REPRESENTATION_CONTEXT ( 'NONE', 'WORKASPACE' ) );
#305 = DIRECTION ( 'NONE',  ( 0.000000000000000000, 1.000000000000000000, 0.000000000000000000 ) ) ;
#306 = ORIENTED_EDGE ( 'NONE', *, *, #180, .T. ) ;
#307 = CARTESIAN_POINT ( 'NONE',  ( -6.123233995736766036E-17, 2.500000000000000000, 0.000000000000000000 ) ) ;
#308 = ADVANCED_FACE ( 'NONE', ( #11 ), #151, .F. ) ;
#309 = ORIENTED_EDGE ( 'NONE', *, *, #158, .T. ) ;
ENDSEC;
END-ISO-10303-21;
