ISO-10303-21;
HEADER;
FILE_DESCRIPTION (( 'STEP AP214' ),
    '1' );
FILE_NAME ('59772.STEP',
    '2023-07-24T15:57:10',
    ( '' ),
    ( '' ),
    'SwSTEP 2.0',
    'SolidWorks 2023',
    '' );
FILE_SCHEMA (( 'AUTOMOTIVE_DESIGN' ));
ENDSEC;

DATA;
#1 = CARTESIAN_POINT ( 'NONE',  ( 6.123233995736762930E-15, 75.00000000000000000, 0.000000000000000000 ) ) ;
#2 = DIRECTION ( 'NONE',  ( -0.000000000000000000, -1.000000000000000000, -0.000000000000000000 ) ) ;
#3 = SURFACE_STYLE_USAGE ( .BOTH. , #179 ) ;
#4 = AXIS2_PLACEMENT_3D ( 'NONE', #287, #88, #46 ) ;
#5 =( NAMED_UNIT ( * ) PLANE_ANGLE_UNIT ( ) SI_UNIT ( $, .RADIAN. ) );
#6 = FILL_AREA_STYLE_COLOUR ( '', #239 ) ;
#7 = EDGE_CURVE ( 'NONE', #252, #256, #154, .T. ) ;
#8 = ORIENTED_EDGE ( 'NONE', *, *, #65, .F. ) ;
#9 = SURFACE_STYLE_USAGE ( .BOTH. , #140 ) ;
#10 = DIRECTION ( 'NONE',  ( 1.360718665719280903E-16, 1.000000000000000000, -0.000000000000000000 ) ) ;
#11 = ORIENTED_EDGE ( 'NONE', *, *, #272, .T. ) ;
#12 = MECHANICAL_DESIGN_GEOMETRIC_PRESENTATION_REPRESENTATION (  '', ( #197 ), #201 ) ;
#13 = PLANE ( 'NONE',  #126 ) ;
#14 = ORIENTED_EDGE ( 'NONE', *, *, #111, .T. ) ;
#15 = ORIENTED_EDGE ( 'NONE', *, *, #283, .T. ) ;
#16 = FACE_OUTER_BOUND ( 'NONE', #100, .T. ) ;
#17 = AXIS2_PLACEMENT_3D ( 'NONE', #1, #93, #175 ) ;
#18 = STYLED_ITEM ( 'NONE', ( #31 ), #198 ) ;
#19 = DIRECTION ( 'NONE',  ( -0.000000000000000000, -1.000000000000000000, -0.000000000000000000 ) ) ;
#20 = CARTESIAN_POINT ( 'NONE',  ( -7.703719777548943412E-31, 30.00000000000000000, 0.000000000000000000 ) ) ;
#21 =( GEOMETRIC_REPRESENTATION_CONTEXT ( 3 ) GLOBAL_UNCERTAINTY_ASSIGNED_CONTEXT ( ( #188 ) ) GLOBAL_UNIT_ASSIGNED_CONTEXT ( ( #23, #25, #50 ) ) REPRESENTATION_CONTEXT ( 'NONE', 'WORKASPACE' ) );
#22 = DIRECTION ( 'NONE',  ( 1.360718665719280903E-16, 1.000000000000000000, -0.000000000000000000 ) ) ;
#23 =( LENGTH_UNIT ( ) NAMED_UNIT ( * ) SI_UNIT ( .MILLI., .METRE. ) );
#24 = SURFACE_STYLE_FILL_AREA ( #288 ) ;
#25 =( NAMED_UNIT ( * ) PLANE_ANGLE_UNIT ( ) SI_UNIT ( $, .RADIAN. ) );
#26 = SURFACE_STYLE_FILL_AREA ( #229 ) ;
#27 = DIRECTION ( 'NONE',  ( -1.000000000000000000, 1.360718665719280903E-16, 0.000000000000000000 ) ) ;
#28 = CYLINDRICAL_SURFACE ( 'NONE', #81, 6.000000000000000000 ) ;
#29 = FACE_OUTER_BOUND ( 'NONE', #30, .T. ) ;
#30 = EDGE_LOOP ( 'NONE', ( #58, #11, #135, #165 ) ) ;
#31 = PRESENTATION_STYLE_ASSIGNMENT (( #9 ) ) ;
#32 = DIRECTION ( 'NONE',  ( 0.000000000000000000, 0.000000000000000000, -1.000000000000000000 ) ) ;
#33 = ORIENTED_EDGE ( 'NONE', *, *, #65, .T. ) ;
#34 = ORIENTED_EDGE ( 'NONE', *, *, #7, .T. ) ;
#35 = UNCERTAINTY_MEASURE_WITH_UNIT (LENGTH_MEASURE( 1.000000000000000082E-05 ), #121, 'distance_accuracy_value', 'NONE');
#36 =( NAMED_UNIT ( * ) PLANE_ANGLE_UNIT ( ) SI_UNIT ( $, .RADIAN. ) );
#37 = STYLED_ITEM ( 'NONE', ( #264 ), #49 ) ;
#38 = AXIS2_PLACEMENT_3D ( 'NONE', #134, #153, #196 ) ;
#39 = CIRCLE ( 'NONE', #220, 6.000000000000000000 ) ;
#40 = CARTESIAN_POINT ( 'NONE',  ( -5.999999999999987566, 75.00000000000000000, 0.000000000000000000 ) ) ;
#41 =( GEOMETRIC_REPRESENTATION_CONTEXT ( 3 ) GLOBAL_UNCERTAINTY_ASSIGNED_CONTEXT ( ( #96 ) ) GLOBAL_UNIT_ASSIGNED_CONTEXT ( ( #64, #36, #85 ) ) REPRESENTATION_CONTEXT ( 'NONE', 'WORKASPACE' ) );
#42 =( NAMED_UNIT ( * ) PLANE_ANGLE_UNIT ( ) SI_UNIT ( $, .RADIAN. ) );
#43 = ADVANCED_FACE ( 'NONE', ( #222 ), #221, .T. ) ;
#44 = ORIENTED_EDGE ( 'NONE', *, *, #91, .F. ) ;
#45 = EDGE_CURVE ( 'NONE', #270, #75, #54, .T. ) ;
#46 = DIRECTION ( 'NONE',  ( 0.000000000000000000, 0.000000000000000000, -1.000000000000000000 ) ) ;
#47 = AXIS2_PLACEMENT_3D ( 'NONE', #138, #22, #109 ) ;
#48 = VERTEX_POINT ( 'NONE', #242 ) ;
#49 = ADVANCED_FACE ( 'NONE', ( #199 ), #225, .T. ) ;
#50 =( NAMED_UNIT ( * ) SI_UNIT ( $, .STERADIAN. ) SOLID_ANGLE_UNIT ( ) );
#51 = APPLICATION_CONTEXT ( 'automotive_design' ) ;
#52 = MECHANICAL_DESIGN_GEOMETRIC_PRESENTATION_REPRESENTATION (  '', ( #72 ), #41 ) ;
#53 = ADVANCED_FACE ( 'NONE', ( #57 ), #186, .F. ) ;
#54 = CIRCLE ( 'NONE', #47, 6.000000000000000000 ) ;
#55 = PRESENTATION_LAYER_ASSIGNMENT (  '', '', ( #269 ) ) ;
#56 =( LENGTH_UNIT ( ) NAMED_UNIT ( * ) SI_UNIT ( .MILLI., .METRE. ) );
#57 = FACE_OUTER_BOUND ( 'NONE', #157, .T. ) ;
#58 = ORIENTED_EDGE ( 'NONE', *, *, #190, .T. ) ;
#59 = LINE ( 'NONE', #246, #92 ) ;
#60 = ORIENTED_EDGE ( 'NONE', *, *, #177, .F. ) ;
#61 = PRODUCT_DEFINITION_CONTEXT ( 'detailed design', #51, 'design' ) ;
#62 = AXIS2_PLACEMENT_3D ( 'NONE', #180, #231, #27 ) ;
#63 = DIRECTION ( 'NONE',  ( 1.000000000000000000, -1.360718665719280903E-16, 0.000000000000000000 ) ) ;
#64 =( LENGTH_UNIT ( ) NAMED_UNIT ( * ) SI_UNIT ( .MILLI., .METRE. ) );
#65 = EDGE_CURVE ( 'NONE', #274, #214, #219, .T. ) ;
#66 = AXIS2_PLACEMENT_3D ( 'NONE', #20, #107, #208 ) ;
#67 = ADVANCED_FACE ( 'NONE', ( #141 ), #139, .T. ) ;
#68 = CLOSED_SHELL ( 'NONE', ( #248, #67, #160, #49 ) ) ;
#69 = MECHANICAL_DESIGN_GEOMETRIC_PRESENTATION_REPRESENTATION (  '', ( #281 ), #235 ) ;
#70 = EDGE_LOOP ( 'NONE', ( #115, #8 ) ) ;
#71 = EDGE_LOOP ( 'NONE', ( #277, #232, #280, #44 ) ) ;
#72 = STYLED_ITEM ( 'NONE', ( #285 ), #248 ) ;
#73 = FILL_AREA_STYLE ('',( #271 ) ) ;
#74 = DIRECTION ( 'NONE',  ( 0.000000000000000000, -1.000000000000000000, -0.000000000000000000 ) ) ;
#75 = VERTEX_POINT ( 'NONE', #183 ) ;
#76 = UNCERTAINTY_MEASURE_WITH_UNIT (LENGTH_MEASURE( 1.000000000000000082E-05 ), #257, 'distance_accuracy_value', 'NONE');
#77 = SURFACE_SIDE_STYLE ('',( #118 ) ) ;
#78 = LINE ( 'NONE', #156, #191 ) ;
#79 = FILL_AREA_STYLE_COLOUR ( '', #185 ) ;
#80 = DIRECTION ( 'NONE',  ( -0.000000000000000000, -1.000000000000000000, -0.000000000000000000 ) ) ;
#81 = AXIS2_PLACEMENT_3D ( 'NONE', #82, #237, #125 ) ;
#82 = CARTESIAN_POINT ( 'NONE',  ( 0.000000000000000000, 0.000000000000000000, 0.000000000000000000 ) ) ;
#83 = EDGE_LOOP ( 'NONE', ( #247, #146, #284, #184 ) ) ;
#84 =( GEOMETRIC_REPRESENTATION_CONTEXT ( 3 ) GLOBAL_UNCERTAINTY_ASSIGNED_CONTEXT ( ( #76 ) ) GLOBAL_UNIT_ASSIGNED_CONTEXT ( ( #257, #42, #148 ) ) REPRESENTATION_CONTEXT ( 'NONE', 'WORKASPACE' ) );
#85 =( NAMED_UNIT ( * ) SI_UNIT ( $, .STERADIAN. ) SOLID_ANGLE_UNIT ( ) );
#86 = CIRCLE ( 'NONE', #249, 6.000000000000000000 ) ;
#87 = PRODUCT ( '59772', '59772', '', ( #189 ) ) ;
#88 = DIRECTION ( 'NONE',  ( -0.000000000000000000, -1.000000000000000000, -0.000000000000000000 ) ) ;
#89 = EDGE_CURVE ( 'NONE', #274, #48, #273, .T. ) ;
#90 = FILL_AREA_STYLE_COLOUR ( '', #195 ) ;
#91 = EDGE_CURVE ( 'NONE', #214, #267, #78, .T. ) ;
#92 = VECTOR ( 'NONE', #227, 1000.000000000000000 ) ;
#93 = DIRECTION ( 'NONE',  ( 1.360718665719280903E-16, 1.000000000000000000, -0.000000000000000000 ) ) ;
#94 =( NAMED_UNIT ( * ) PLANE_ANGLE_UNIT ( ) SI_UNIT ( $, .RADIAN. ) );
#95 = DIRECTION ( 'NONE',  ( 0.000000000000000000, 1.000000000000000000, 0.000000000000000000 ) ) ;
#96 = UNCERTAINTY_MEASURE_WITH_UNIT (LENGTH_MEASURE( 1.000000000000000082E-05 ), #64, 'distance_accuracy_value', 'NONE');
#97 = SURFACE_STYLE_FILL_AREA ( #279 ) ;
#98 = DIRECTION ( 'NONE',  ( 0.000000000000000000, -0.000000000000000000, 1.000000000000000000 ) ) ;
#99 =( GEOMETRIC_REPRESENTATION_CONTEXT ( 3 ) GLOBAL_UNCERTAINTY_ASSIGNED_CONTEXT ( ( #101 ) ) GLOBAL_UNIT_ASSIGNED_CONTEXT ( ( #56, #5, #244 ) ) REPRESENTATION_CONTEXT ( 'NONE', 'WORKASPACE' ) );
#100 = EDGE_LOOP ( 'NONE', ( #34, #14 ) ) ;
#101 = UNCERTAINTY_MEASURE_WITH_UNIT (LENGTH_MEASURE( 1.000000000000000082E-05 ), #56, 'distance_accuracy_value', 'NONE');
#102 = CARTESIAN_POINT ( 'NONE',  ( 6.000000000000000000, 75.00000000000000000, 0.000000000000000000 ) ) ;
#103 = CARTESIAN_POINT ( 'NONE',  ( 6.000000000000000000, 75.00000000000000000, 7.347880794884117764E-16 ) ) ;
#104 = PRODUCT_DEFINITION ( 'UNKNOWN', '', #178, #61 ) ;
#105 = COLOUR_RGB ( '',1.000000000000000000, 0.000000000000000000, 0.000000000000000000 ) ;
#106 = APPLICATION_CONTEXT ( 'automotive_design' ) ;
#107 = DIRECTION ( 'NONE',  ( 1.360718665719280903E-16, 1.000000000000000000, -0.000000000000000000 ) ) ;
#108 = AXIS2_PLACEMENT_3D ( 'NONE', #155, #74, #32 ) ;
#109 = DIRECTION ( 'NONE',  ( -1.000000000000000000, 0.000000000000000000, 0.000000000000000000 ) ) ;
#110 = DIRECTION ( 'NONE',  ( -0.000000000000000000, -1.000000000000000000, -0.000000000000000000 ) ) ;
#111 = EDGE_CURVE ( 'NONE', #256, #252, #278, .T. ) ;
#112 = SURFACE_SIDE_STYLE ('',( #24 ) ) ;
#113 = AXIS2_PLACEMENT_3D ( 'NONE', #226, #95, #98 ) ;
#114 = CARTESIAN_POINT ( 'NONE',  ( 0.000000000000000000, 0.000000000000000000, 0.000000000000000000 ) ) ;
#115 = ORIENTED_EDGE ( 'NONE', *, *, #254, .F. ) ;
#116 = FILL_AREA_STYLE_COLOUR ( '', #152 ) ;
#117 =( NAMED_UNIT ( * ) SI_UNIT ( $, .STERADIAN. ) SOLID_ANGLE_UNIT ( ) );
#118 = SURFACE_STYLE_FILL_AREA ( #73 ) ;
#119 = PRESENTATION_LAYER_ASSIGNMENT (  '', '', ( #281 ) ) ;
#120 = CYLINDRICAL_SURFACE ( 'NONE', #263, 5.999999999999996447 ) ;
#121 =( LENGTH_UNIT ( ) NAMED_UNIT ( * ) SI_UNIT ( .MILLI., .METRE. ) );
#122 =( LENGTH_UNIT ( ) NAMED_UNIT ( * ) SI_UNIT ( .MILLI., .METRE. ) );
#123 = CARTESIAN_POINT ( 'NONE',  ( 7.347880794884119736E-16, 0.000000000000000000, 6.000000000000000000 ) ) ;
#124 = EDGE_CURVE ( 'NONE', #75, #252, #59, .T. ) ;
#125 = DIRECTION ( 'NONE',  ( 0.000000000000000000, 0.000000000000000000, -1.000000000000000000 ) ) ;
#126 = AXIS2_PLACEMENT_3D ( 'NONE', #102, #163, #63 ) ;
#127 = APPLICATION_PROTOCOL_DEFINITION ( 'draft international standard', 'automotive_design', 1998, #106 ) ;
#128 = PRESENTATION_STYLE_ASSIGNMENT (( #258 ) ) ;
#129 = CARTESIAN_POINT ( 'NONE',  ( 6.000000000000002665, 75.00000000000000000, 7.347880794884115792E-16 ) ) ;
#130 = ADVANCED_FACE ( 'NONE', ( #29 ), #120, .T. ) ;
#131 = PRESENTATION_LAYER_ASSIGNMENT (  '', '', ( #18 ) ) ;
#132 = PRODUCT_DEFINITION_SHAPE ( 'NONE', 'NONE',  #104 ) ;
#133 = ORIENTED_EDGE ( 'NONE', *, *, #177, .T. ) ;
#134 = CARTESIAN_POINT ( 'NONE',  ( 6.123233995736762930E-15, 75.00000000000000000, 0.000000000000000000 ) ) ;
#135 = ORIENTED_EDGE ( 'NONE', *, *, #7, .F. ) ;
#136 = CLOSED_SHELL ( 'NONE', ( #130, #53, #43, #266 ) ) ;
#137 = PRESENTATION_LAYER_ASSIGNMENT (  '', '', ( #197 ) ) ;
#138 = CARTESIAN_POINT ( 'NONE',  ( -7.703719777548943412E-31, 30.00000000000000000, 0.000000000000000000 ) ) ;
#139 = PLANE ( 'NONE',  #113 ) ;
#140 = SURFACE_SIDE_STYLE ('',( #26 ) ) ;
#141 = FACE_OUTER_BOUND ( 'NONE', #70, .T. ) ;
#142 = CIRCLE ( 'NONE', #66, 6.000000000000000000 ) ;
#143 = DIRECTION ( 'NONE',  ( 1.360718665719280903E-16, 1.000000000000000000, -0.000000000000000000 ) ) ;
#144 = EDGE_LOOP ( 'NONE', ( #15, #133 ) ) ;
#145 = DIRECTION ( 'NONE',  ( -1.000000000000000000, 0.000000000000000000, 0.000000000000000000 ) ) ;
#146 = ORIENTED_EDGE ( 'NONE', *, *, #45, .T. ) ;
#147 = CARTESIAN_POINT ( 'NONE',  ( 0.000000000000000000, 30.00000000000000000, 0.000000000000000000 ) ) ;
#148 =( NAMED_UNIT ( * ) SI_UNIT ( $, .STERADIAN. ) SOLID_ANGLE_UNIT ( ) );
#149 = AXIS2_PLACEMENT_3D ( 'NONE', #167, #282, #192 ) ;
#150 = APPLICATION_PROTOCOL_DEFINITION ( 'draft international standard', 'automotive_design', 1998, #51 ) ;
#151 = SURFACE_SIDE_STYLE ('',( #193 ) ) ;
#152 = COLOUR_RGB ( '',0.7921568627450980005, 0.8196078431372548767, 0.9333333333333333481 ) ;
#153 = DIRECTION ( 'NONE',  ( 1.360718665719280903E-16, 1.000000000000000000, -0.000000000000000000 ) ) ;
#154 = CIRCLE ( 'NONE', #38, 5.999999999999993783 ) ;
#155 = CARTESIAN_POINT ( 'NONE',  ( 0.000000000000000000, 0.000000000000000000, 0.000000000000000000 ) ) ;
#156 = CARTESIAN_POINT ( 'NONE',  ( 0.000000000000000000, 0.000000000000000000, -6.000000000000000000 ) ) ;
#157 = EDGE_LOOP ( 'NONE', ( #265, #211 ) ) ;
#158 =( NAMED_UNIT ( * ) SI_UNIT ( $, .STERADIAN. ) SOLID_ANGLE_UNIT ( ) );
#159 = FACE_OUTER_BOUND ( 'NONE', #200, .T. ) ;
#160 = ADVANCED_FACE ( 'NONE', ( #159 ), #209, .T. ) ;
#161 = FILL_AREA_STYLE ('',( #116 ) ) ;
#162 = DIRECTION ( 'NONE',  ( 0.000000000000000000, 0.000000000000000000, -1.000000000000000000 ) ) ;
#163 = DIRECTION ( 'NONE',  ( -1.360718665719280903E-16, -1.000000000000000000, 0.000000000000000000 ) ) ;
#164 = CARTESIAN_POINT ( 'NONE',  ( 6.123233995736762930E-15, 75.00000000000000000, 0.000000000000000000 ) ) ;
#165 = ORIENTED_EDGE ( 'NONE', *, *, #124, .F. ) ;
#166 = FILL_AREA_STYLE ('',( #251 ) ) ;
#167 = CARTESIAN_POINT ( 'NONE',  ( 0.000000000000000000, 0.000000000000000000, 0.000000000000000000 ) ) ;
#168 = AXIS2_PLACEMENT_3D ( 'NONE', #230, #2, #162 ) ;
#169 = MECHANICAL_DESIGN_GEOMETRIC_PRESENTATION_REPRESENTATION (  '', ( #18 ), #99 ) ;
#170 = DIRECTION ( 'NONE',  ( 1.360718665719280903E-16, 1.000000000000000000, -0.000000000000000000 ) ) ;
#171 = PRESENTATION_LAYER_ASSIGNMENT (  '', '', ( #72 ) ) ;
#172 = SURFACE_STYLE_USAGE ( .BOTH. , #112 ) ;
#173 = MECHANICAL_DESIGN_GEOMETRIC_PRESENTATION_REPRESENTATION (  '', ( #269 ), #21 ) ;
#174 = ORIENTED_EDGE ( 'NONE', *, *, #89, .F. ) ;
#175 = DIRECTION ( 'NONE',  ( -1.000000000000000000, 0.000000000000000000, 0.000000000000000000 ) ) ;
#176 =( NAMED_UNIT ( * ) PLANE_ANGLE_UNIT ( ) SI_UNIT ( $, .RADIAN. ) );
#177 = EDGE_CURVE ( 'NONE', #48, #267, #86, .T. ) ;
#178 = PRODUCT_DEFINITION_FORMATION_WITH_SPECIFIED_SOURCE ( 'ANY', '', #87, .NOT_KNOWN. ) ;
#179 = SURFACE_SIDE_STYLE ('',( #182 ) ) ;
#180 = CARTESIAN_POINT ( 'NONE',  ( 5.554665861710580935E-32, 30.00000000000000000, 0.000000000000000000 ) ) ;
#181 = ORIENTED_EDGE ( 'NONE', *, *, #91, .T. ) ;
#182 = SURFACE_STYLE_FILL_AREA ( #161 ) ;
#183 = CARTESIAN_POINT ( 'NONE',  ( -6.000000000000000000, 30.00000000000000000, 0.000000000000000000 ) ) ;
#184 = ORIENTED_EDGE ( 'NONE', *, *, #111, .F. ) ;
#185 = COLOUR_RGB ( '',0.7921568627450980005, 0.8196078431372548767, 0.9333333333333333481 ) ;
#186 = PLANE ( 'NONE',  #62 ) ;
#187 = CARTESIAN_POINT ( 'NONE',  ( 0.000000000000000000, 0.000000000000000000, 0.000000000000000000 ) ) ;
#188 = UNCERTAINTY_MEASURE_WITH_UNIT (LENGTH_MEASURE( 1.000000000000000082E-05 ), #23, 'distance_accuracy_value', 'NONE');
#189 = PRODUCT_CONTEXT ( 'NONE', #106, 'mechanical' ) ;
#190 = EDGE_CURVE ( 'NONE', #75, #270, #142, .T. ) ;
#191 = VECTOR ( 'NONE', #80, 1000.000000000000000 ) ;
#192 = DIRECTION ( 'NONE',  ( 1.000000000000000000, 0.000000000000000000, 0.000000000000000000 ) ) ;
#193 = SURFACE_STYLE_FILL_AREA ( #166 ) ;
#194 = PRESENTATION_LAYER_ASSIGNMENT (  '', '', ( #37 ) ) ;
#195 = COLOUR_RGB ( '',1.000000000000000000, 0.000000000000000000, 0.000000000000000000 ) ;
#196 = DIRECTION ( 'NONE',  ( -1.000000000000000000, 0.000000000000000000, 0.000000000000000000 ) ) ;
#197 = STYLED_ITEM ( 'NONE', ( #250 ), #206 ) ;
#198 = MANIFOLD_SOLID_BREP ( 'Revolve - Cutting Edge', #68 ) ;
#199 = FACE_OUTER_BOUND ( 'NONE', #144, .T. ) ;
#200 = EDGE_LOOP ( 'NONE', ( #174, #33, #181, #60 ) ) ;
#201 =( GEOMETRIC_REPRESENTATION_CONTEXT ( 3 ) GLOBAL_UNCERTAINTY_ASSIGNED_CONTEXT ( ( #207 ) ) GLOBAL_UNIT_ASSIGNED_CONTEXT ( ( #122, #176, #158 ) ) REPRESENTATION_CONTEXT ( 'NONE', 'WORKASPACE' ) );
#202 = SURFACE_STYLE_USAGE ( .BOTH. , #255 ) ;
#203 = PRESENTATION_STYLE_ASSIGNMENT (( #202 ) ) ;
#204 = AXIS2_PLACEMENT_3D ( 'NONE', #164, #10, #276 ) ;
#205 =( NAMED_UNIT ( * ) SI_UNIT ( $, .STERADIAN. ) SOLID_ANGLE_UNIT ( ) );
#206 = MANIFOLD_SOLID_BREP ( 'Revolve - Tool Body (Straight Shanked)', #136 ) ;
#207 = UNCERTAINTY_MEASURE_WITH_UNIT (LENGTH_MEASURE( 1.000000000000000082E-05 ), #122, 'distance_accuracy_value', 'NONE');
#208 = DIRECTION ( 'NONE',  ( -1.000000000000000000, 0.000000000000000000, 0.000000000000000000 ) ) ;
#209 = CYLINDRICAL_SURFACE ( 'NONE', #4, 6.000000000000000000 ) ;
#210 = DIRECTION ( 'NONE',  ( -0.000000000000000000, -1.000000000000000000, -0.000000000000000000 ) ) ;
#211 = ORIENTED_EDGE ( 'NONE', *, *, #45, .F. ) ;
#212 = DIRECTION ( 'NONE',  ( 0.000000000000000000, 0.000000000000000000, -1.000000000000000000 ) ) ;
#213 = COLOUR_RGB ( '',1.000000000000000000, 0.000000000000000000, 0.000000000000000000 ) ;
#214 = VERTEX_POINT ( 'NONE', #268 ) ;
#215 = SURFACE_STYLE_USAGE ( .BOTH. , #77 ) ;
#216 = DIRECTION ( 'NONE',  ( -0.000000000000000000, -1.000000000000000000, -0.000000000000000000 ) ) ;
#217 = MECHANICAL_DESIGN_GEOMETRIC_PRESENTATION_REPRESENTATION (  '', ( #37 ), #234 ) ;
#218 = DIRECTION ( 'NONE',  ( 0.000000000000000000, 0.000000000000000000, -1.000000000000000000 ) ) ;
#219 = CIRCLE ( 'NONE', #168, 6.000000000000000000 ) ;
#220 = AXIS2_PLACEMENT_3D ( 'NONE', #187, #216, #261 ) ;
#221 = CYLINDRICAL_SURFACE ( 'NONE', #17, 5.999999999999996447 ) ;
#222 = FACE_OUTER_BOUND ( 'NONE', #83, .T. ) ;
#223 = ADVANCED_BREP_SHAPE_REPRESENTATION ( '59772', ( #198, #206, #149 ), #84 ) ;
#224 = FACE_OUTER_BOUND ( 'NONE', #71, .T. ) ;
#225 = PLANE ( 'NONE',  #108 ) ;
#226 = CARTESIAN_POINT ( 'NONE',  ( 0.000000000000000000, 30.00000000000000000, 0.000000000000000000 ) ) ;
#227 = DIRECTION ( 'NONE',  ( 1.360718665719280903E-16, 1.000000000000000000, -0.000000000000000000 ) ) ;
#228 = PRODUCT_RELATED_PRODUCT_CATEGORY ( 'part', '', ( #87 ) ) ;
#229 = FILL_AREA_STYLE ('',( #79 ) ) ;
#230 = CARTESIAN_POINT ( 'NONE',  ( 0.000000000000000000, 30.00000000000000000, 0.000000000000000000 ) ) ;
#231 = DIRECTION ( 'NONE',  ( 1.360718665719280903E-16, 1.000000000000000000, -0.000000000000000000 ) ) ;
#232 = ORIENTED_EDGE ( 'NONE', *, *, #89, .T. ) ;
#233 = CARTESIAN_POINT ( 'NONE',  ( 6.000000000000000000, 30.00000000000000000, 7.347880794884117764E-16 ) ) ;
#234 =( GEOMETRIC_REPRESENTATION_CONTEXT ( 3 ) GLOBAL_UNCERTAINTY_ASSIGNED_CONTEXT ( ( #262 ) ) GLOBAL_UNIT_ASSIGNED_CONTEXT ( ( #241, #94, #117 ) ) REPRESENTATION_CONTEXT ( 'NONE', 'WORKASPACE' ) );
#235 =( GEOMETRIC_REPRESENTATION_CONTEXT ( 3 ) GLOBAL_UNCERTAINTY_ASSIGNED_CONTEXT ( ( #35 ) ) GLOBAL_UNIT_ASSIGNED_CONTEXT ( ( #121, #245, #205 ) ) REPRESENTATION_CONTEXT ( 'NONE', 'WORKASPACE' ) );
#236 = SHAPE_DEFINITION_REPRESENTATION ( #132, #223 ) ;
#237 = DIRECTION ( 'NONE',  ( -0.000000000000000000, -1.000000000000000000, -0.000000000000000000 ) ) ;
#238 = CIRCLE ( 'NONE', #243, 6.000000000000000000 ) ;
#239 = COLOUR_RGB ( '',1.000000000000000000, 0.000000000000000000, 0.000000000000000000 ) ;
#240 = VECTOR ( 'NONE', #210, 1000.000000000000000 ) ;
#241 =( LENGTH_UNIT ( ) NAMED_UNIT ( * ) SI_UNIT ( .MILLI., .METRE. ) );
#242 = CARTESIAN_POINT ( 'NONE',  ( 7.347880794884119736E-16, 0.000000000000000000, 6.000000000000000000 ) ) ;
#243 = AXIS2_PLACEMENT_3D ( 'NONE', #147, #19, #212 ) ;
#244 =( NAMED_UNIT ( * ) SI_UNIT ( $, .STERADIAN. ) SOLID_ANGLE_UNIT ( ) );
#245 =( NAMED_UNIT ( * ) PLANE_ANGLE_UNIT ( ) SI_UNIT ( $, .RADIAN. ) );
#246 = CARTESIAN_POINT ( 'NONE',  ( -5.999999999999990230, 75.00000000000000000, 0.000000000000000000 ) ) ;
#247 = ORIENTED_EDGE ( 'NONE', *, *, #272, .F. ) ;
#248 = ADVANCED_FACE ( 'NONE', ( #224 ), #28, .T. ) ;
#249 = AXIS2_PLACEMENT_3D ( 'NONE', #114, #110, #218 ) ;
#250 = PRESENTATION_STYLE_ASSIGNMENT (( #3 ) ) ;
#251 = FILL_AREA_STYLE_COLOUR ( '', #213 ) ;
#252 = VERTEX_POINT ( 'NONE', #40 ) ;
#253 = CARTESIAN_POINT ( 'NONE',  ( 7.347880794884119736E-16, 30.00000000000000000, 6.000000000000000000 ) ) ;
#254 = EDGE_CURVE ( 'NONE', #214, #274, #238, .T. ) ;
#255 = SURFACE_SIDE_STYLE ('',( #97 ) ) ;
#256 = VERTEX_POINT ( 'NONE', #103 ) ;
#257 =( LENGTH_UNIT ( ) NAMED_UNIT ( * ) SI_UNIT ( .MILLI., .METRE. ) );
#258 = SURFACE_STYLE_USAGE ( .BOTH. , #151 ) ;
#259 = CARTESIAN_POINT ( 'NONE',  ( 0.000000000000000000, 0.000000000000000000, -6.000000000000000000 ) ) ;
#260 = LINE ( 'NONE', #129, #286 ) ;
#261 = DIRECTION ( 'NONE',  ( 0.000000000000000000, 0.000000000000000000, -1.000000000000000000 ) ) ;
#262 = UNCERTAINTY_MEASURE_WITH_UNIT (LENGTH_MEASURE( 1.000000000000000082E-05 ), #241, 'distance_accuracy_value', 'NONE');
#263 = AXIS2_PLACEMENT_3D ( 'NONE', #275, #143, #145 ) ;
#264 = PRESENTATION_STYLE_ASSIGNMENT (( #172 ) ) ;
#265 = ORIENTED_EDGE ( 'NONE', *, *, #190, .F. ) ;
#266 = ADVANCED_FACE ( 'NONE', ( #16 ), #13, .F. ) ;
#267 = VERTEX_POINT ( 'NONE', #259 ) ;
#268 = CARTESIAN_POINT ( 'NONE',  ( 0.000000000000000000, 30.00000000000000000, -6.000000000000000000 ) ) ;
#269 = STYLED_ITEM ( 'NONE', ( #128 ), #160 ) ;
#270 = VERTEX_POINT ( 'NONE', #233 ) ;
#271 = FILL_AREA_STYLE_COLOUR ( '', #105 ) ;
#272 = EDGE_CURVE ( 'NONE', #270, #256, #260, .T. ) ;
#273 = LINE ( 'NONE', #123, #240 ) ;
#274 = VERTEX_POINT ( 'NONE', #253 ) ;
#275 = CARTESIAN_POINT ( 'NONE',  ( 6.123233995736762930E-15, 75.00000000000000000, 0.000000000000000000 ) ) ;
#276 = DIRECTION ( 'NONE',  ( -1.000000000000000000, 0.000000000000000000, 0.000000000000000000 ) ) ;
#277 = ORIENTED_EDGE ( 'NONE', *, *, #254, .T. ) ;
#278 = CIRCLE ( 'NONE', #204, 5.999999999999993783 ) ;
#279 = FILL_AREA_STYLE ('',( #6 ) ) ;
#280 = ORIENTED_EDGE ( 'NONE', *, *, #283, .F. ) ;
#281 = STYLED_ITEM ( 'NONE', ( #203 ), #67 ) ;
#282 = DIRECTION ( 'NONE',  ( 0.000000000000000000, 0.000000000000000000, 1.000000000000000000 ) ) ;
#283 = EDGE_CURVE ( 'NONE', #267, #48, #39, .T. ) ;
#284 = ORIENTED_EDGE ( 'NONE', *, *, #124, .T. ) ;
#285 = PRESENTATION_STYLE_ASSIGNMENT (( #215 ) ) ;
#286 = VECTOR ( 'NONE', #170, 1000.000000000000000 ) ;
#287 = CARTESIAN_POINT ( 'NONE',  ( 0.000000000000000000, 0.000000000000000000, 0.000000000000000000 ) ) ;
#288 = FILL_AREA_STYLE ('',( #90 ) ) ;
ENDSEC;
END-ISO-10303-21;
