ISO-10303-21;
HEADER;
FILE_DESCRIPTION (( 'STEP AP214' ),
    '1' );
FILE_NAME ('Micro_AEMM-160-4X.STEP',
    '2022-03-15T14:33:18',
    ( '' ),
    ( '' ),
    'SwSTEP 2.0',
    'SolidWorks 2022',
    '' );
FILE_SCHEMA (( 'AUTOMOTIVE_DESIGN' ));
ENDSEC;

DATA;
#1 = ORIENTED_EDGE ( 'NONE', *, *, #208, .F. ) ;
#2 = SURFACE_STYLE_USAGE ( .BOTH. , #228 ) ;
#3 = DIRECTION ( 'NONE',  ( 1.000000000000000000, 0.000000000000000000, 0.000000000000000000 ) ) ;
#4 = ORIENTED_EDGE ( 'NONE', *, *, #239, .T. ) ;
#5 =( CONVERSION_BASED_UNIT ( 'INCH', #262 ) LENGTH_UNIT ( ) NAMED_UNIT ( #42 ) );
#6 =( LENGTH_UNIT ( ) NAMED_UNIT ( * ) SI_UNIT ( $, .METRE. ) );
#7 = CARTESIAN_POINT ( 'NONE',  ( 0.000000000000000000, 0.000000000000000000, 3.622047000000000239 ) ) ;
#8 = ORIENTED_EDGE ( 'NONE', *, *, #248, .T. ) ;
#9 = CARTESIAN_POINT ( 'NONE',  ( -0.3149604999999998656, 0.000000000000000000, 1.379739229757547481 ) ) ;
#10 = AXIS2_PLACEMENT_3D ( 'NONE', #218, #16, #197 ) ;
#11 = CARTESIAN_POINT ( 'NONE',  ( -0.2999604999999996857, 0.000000000000000000, 3.622047000000000239 ) ) ;
#12 = EDGE_CURVE ( 'NONE', #165, #156, #286, .T. ) ;
#13 = EDGE_LOOP ( 'NONE', ( #180, #202 ) ) ;
#14 = DIRECTION ( 'NONE',  ( 1.000000000000000000, 0.000000000000000000, 0.000000000000000000 ) ) ;
#15 = CONICAL_SURFACE ( 'NONE', #214, 0.2999604999999996857, 0.7853981633974324028 ) ;
#16 = DIRECTION ( 'NONE',  ( -1.224646799147353207E-16, -0.000000000000000000, -1.000000000000000000 ) ) ;
#17 = DIRECTION ( 'NONE',  ( 0.1736481776669313859, 0.000000000000000000, 0.9848077530122077983 ) ) ;
#18 = DIRECTION ( 'NONE',  ( 1.224646799147353207E-16, 0.000000000000000000, 1.000000000000000000 ) ) ;
#19 = DIRECTION ( 'NONE',  ( 1.000000000000000000, 0.000000000000000000, 0.000000000000000000 ) ) ;
#20 = CARTESIAN_POINT ( 'NONE',  ( 1.689693231380615506E-16, 0.000000000000000000, 1.379739229757547481 ) ) ;
#21 = AXIS2_PLACEMENT_3D ( 'NONE', #237, #54, #146 ) ;
#22 = CARTESIAN_POINT ( 'NONE',  ( 0.3149604999999999766, 3.857153681828499730E-17, 3.607046999999999226 ) ) ;
#23 = ORIENTED_EDGE ( 'NONE', *, *, #187, .F. ) ;
#24 = ORIENTED_EDGE ( 'NONE', *, *, #173, .T. ) ;
#25 = AXIS2_PLACEMENT_3D ( 'NONE', #60, #35, #91 ) ;
#26 = DIRECTION ( 'NONE',  ( 0.000000000000000000, 0.000000000000000000, -1.000000000000000000 ) ) ;
#27 = CIRCLE ( 'NONE', #94, 0.3149604999999999766 ) ;
#28 = FACE_OUTER_BOUND ( 'NONE', #33, .T. ) ;
#29 = COLOUR_RGB ( '',0.7921568627450980005, 0.8196078431372548767, 0.9333333333333333481 ) ;
#30 = FACE_OUTER_BOUND ( 'NONE', #294, .T. ) ;
#31 = SHAPE_DEFINITION_REPRESENTATION ( #251, #164 ) ;
#32 = PLANE ( 'NONE',  #106 ) ;
#33 = EDGE_LOOP ( 'NONE', ( #272, #45, #192, #205 ) ) ;
#34 =( LENGTH_UNIT ( ) NAMED_UNIT ( * ) SI_UNIT ( $, .METRE. ) );
#35 = DIRECTION ( 'NONE',  ( 0.000000000000000000, 0.000000000000000000, 1.000000000000000000 ) ) ;
#36 = CARTESIAN_POINT ( 'NONE',  ( 0.000000000000000000, 0.000000000000000000, 3.622047000000000239 ) ) ;
#37 = FACE_OUTER_BOUND ( 'NONE', #191, .T. ) ;
#38 = CARTESIAN_POINT ( 'NONE',  ( 0.000000000000000000, 0.000000000000000000, 3.607046999999999226 ) ) ;
#39 = ADVANCED_FACE ( 'NONE', ( #95 ), #264, .T. ) ;
#40 = FACE_OUTER_BOUND ( 'NONE', #298, .T. ) ;
#41 = CIRCLE ( 'NONE', #203, 0.3149604999999999766 ) ;
#42 = DIMENSIONAL_EXPONENTS ( 1.000000000000000000, 0.000000000000000000, 0.000000000000000000, 0.000000000000000000, 0.000000000000000000, 0.000000000000000000, 0.000000000000000000 ) ;
#43 = DIRECTION ( 'NONE',  ( 0.000000000000000000, 0.000000000000000000, 1.000000000000000000 ) ) ;
#44 = CARTESIAN_POINT ( 'NONE',  ( -0.3149604999999999766, 0.000000000000000000, 3.607046999999999226 ) ) ;
#45 = ORIENTED_EDGE ( 'NONE', *, *, #83, .T. ) ;
#46 = CONICAL_SURFACE ( 'NONE', #241, 0.3146455394999999600, 0.1745329251994338915 ) ;
#47 = ORIENTED_EDGE ( 'NONE', *, *, #103, .T. ) ;
#48 = EDGE_CURVE ( 'NONE', #184, #223, #276, .T. ) ;
#49 = VERTEX_POINT ( 'NONE', #58 ) ;
#50 = CARTESIAN_POINT ( 'NONE',  ( 0.000000000000000000, 0.000000000000000000, 3.622047000000000239 ) ) ;
#51 = AXIS2_PLACEMENT_3D ( 'NONE', #135, #231, #3 ) ;
#52 = AXIS2_PLACEMENT_3D ( 'NONE', #87, #84, #249 ) ;
#53 = STYLED_ITEM ( 'NONE', ( #185 ), #164 ) ;
#54 = DIRECTION ( 'NONE',  ( -1.224646799147353207E-16, -0.000000000000000000, -1.000000000000000000 ) ) ;
#55 = ORIENTED_EDGE ( 'NONE', *, *, #283, .F. ) ;
#56 = PRESENTATION_STYLE_ASSIGNMENT (( #213 ) ) ;
#57 = CIRCLE ( 'NONE', #52, 0.3146455394999999600 ) ;
#58 = CARTESIAN_POINT ( 'NONE',  ( 0.3149605000000001431, 3.857153681828500963E-17, 1.379739229757547481 ) ) ;
#59 = ORIENTED_EDGE ( 'NONE', *, *, #98, .F. ) ;
#60 = CARTESIAN_POINT ( 'NONE',  ( 0.000000000000000000, 0.000000000000000000, 3.622047000000000239 ) ) ;
#61 = CARTESIAN_POINT ( 'NONE',  ( -0.3146455394999999600, 0.000000000000000000, 3.853296528146670183E-17 ) ) ;
#62 = CIRCLE ( 'NONE', #161, 0.2999604999999996857 ) ;
#63 = DIMENSIONAL_EXPONENTS ( 1.000000000000000000, 0.000000000000000000, 0.000000000000000000, 0.000000000000000000, 0.000000000000000000, 0.000000000000000000, 0.000000000000000000 ) ;
#64 = DIRECTION ( 'NONE',  ( -1.224646799147353207E-16, -0.000000000000000000, -1.000000000000000000 ) ) ;
#65 = ORIENTED_EDGE ( 'NONE', *, *, #289, .T. ) ;
#66 = LENGTH_MEASURE_WITH_UNIT ( LENGTH_MEASURE( 0.02539999999999999897 ), #97 );
#67 = DIRECTION ( 'NONE',  ( -1.224646799147353207E-16, -0.000000000000000000, -1.000000000000000000 ) ) ;
#68 = CIRCLE ( 'NONE', #10, 0.3146455394999999600 ) ;
#69 = EDGE_CURVE ( 'NONE', #184, #274, #198, .T. ) ;
#70 = ORIENTED_EDGE ( 'NONE', *, *, #173, .F. ) ;
#71 = LENGTH_MEASURE_WITH_UNIT ( LENGTH_MEASURE( 0.02539999999999999897 ), #6 );
#72 = DIRECTION ( 'NONE',  ( -1.000000000000000000, 0.000000000000000000, 0.000000000000000000 ) ) ;
#73 = LINE ( 'NONE', #158, #169 ) ;
#74 = LINE ( 'NONE', #123, #186 ) ;
#75 = AXIS2_PLACEMENT_3D ( 'NONE', #216, #167, #143 ) ;
#76 = DIRECTION ( 'NONE',  ( -1.000000000000000000, 0.000000000000000000, 0.000000000000000000 ) ) ;
#77 = CARTESIAN_POINT ( 'NONE',  ( -0.3146455394999998489, 3.853296528146670183E-17, 1.377952999999999983 ) ) ;
#78 = DIRECTION ( 'NONE',  ( -0.7071067811865362485, 0.000000000000000000, -0.7071067811865587860 ) ) ;
#79 = DIRECTION ( 'NONE',  ( -1.224646799147353207E-16, -0.000000000000000000, -1.000000000000000000 ) ) ;
#80 = VECTOR ( 'NONE', #236, 39.37007874015748143 ) ;
#81 = ORIENTED_EDGE ( 'NONE', *, *, #208, .T. ) ;
#82 = ORIENTED_EDGE ( 'NONE', *, *, #224, .F. ) ;
#83 = EDGE_CURVE ( 'NONE', #151, #212, #145, .T. ) ;
#84 = DIRECTION ( 'NONE',  ( -1.224646799147353207E-16, -0.000000000000000000, -1.000000000000000000 ) ) ;
#85 =( NAMED_UNIT ( * ) SI_UNIT ( $, .STERADIAN. ) SOLID_ANGLE_UNIT ( ) );
#86 = ORIENTED_EDGE ( 'NONE', *, *, #224, .T. ) ;
#87 = CARTESIAN_POINT ( 'NONE',  ( 1.687505730825492758E-16, 0.000000000000000000, 1.377952999999999983 ) ) ;
#88 = ORIENTED_EDGE ( 'NONE', *, *, #283, .T. ) ;
#89 = VECTOR ( 'NONE', #265, 39.37007874015748143 ) ;
#90 = ORIENTED_EDGE ( 'NONE', *, *, #200, .T. ) ;
#91 = DIRECTION ( 'NONE',  ( 1.000000000000000000, 0.000000000000000000, 0.000000000000000000 ) ) ;
#92 = CIRCLE ( 'NONE', #227, 0.3149604999999999766 ) ;
#93 = ADVANCED_FACE ( 'NONE', ( #37 ), #260, .T. ) ;
#94 = AXIS2_PLACEMENT_3D ( 'NONE', #20, #64, #19 ) ;
#95 = FACE_OUTER_BOUND ( 'NONE', #285, .T. ) ;
#96 = FACE_OUTER_BOUND ( 'NONE', #270, .T. ) ;
#97 =( LENGTH_UNIT ( ) NAMED_UNIT ( * ) SI_UNIT ( $, .METRE. ) );
#98 = EDGE_CURVE ( 'NONE', #212, #226, #68, .T. ) ;
#99 = UNCERTAINTY_MEASURE_WITH_UNIT (LENGTH_MEASURE( 1.000000000000000082E-05 ), #250, 'distance_accuracy_value', 'NONE');
#100 =( CONVERSION_BASED_UNIT ( 'INCH', #66 ) LENGTH_UNIT ( ) NAMED_UNIT ( #63 ) );
#101 = CARTESIAN_POINT ( 'NONE',  ( 0.3146455395000001265, 0.000000000000000000, 1.377952999999999983 ) ) ;
#102 = ORIENTED_EDGE ( 'NONE', *, *, #83, .F. ) ;
#103 = EDGE_CURVE ( 'NONE', #165, #226, #287, .T. ) ;
#104 = ORIENTED_EDGE ( 'NONE', *, *, #204, .T. ) ;
#105 = VECTOR ( 'NONE', #17, 39.37007874015748143 ) ;
#106 = AXIS2_PLACEMENT_3D ( 'NONE', #117, #189, #215 ) ;
#107 =( NAMED_UNIT ( * ) SI_UNIT ( $, .STERADIAN. ) SOLID_ANGLE_UNIT ( ) );
#108 = ORIENTED_EDGE ( 'NONE', *, *, #248, .F. ) ;
#109 = PRODUCT_CONTEXT ( 'NONE', #120, 'mechanical' ) ;
#110 = ADVANCED_FACE ( 'NONE', ( #96 ), #177, .T. ) ;
#111 = APPLICATION_PROTOCOL_DEFINITION ( 'draft international standard', 'automotive_design', 1998, #140 ) ;
#112 = CONICAL_SURFACE ( 'NONE', #126, 0.2999604999999996857, 0.7853981633974324028 ) ;
#113 = CYLINDRICAL_SURFACE ( 'NONE', #281, 0.3146455394999999600 ) ;
#114 = CARTESIAN_POINT ( 'NONE',  ( 0.000000000000000000, 0.000000000000000000, 3.622047000000000239 ) ) ;
#115 = DIRECTION ( 'NONE',  ( -1.224646799147353207E-16, -0.000000000000000000, -1.000000000000000000 ) ) ;
#116 = ADVANCED_FACE ( 'NONE', ( #28 ), #113, .T. ) ;
#117 = CARTESIAN_POINT ( 'NONE',  ( 0.000000000000000000, 0.000000000000000000, 0.000000000000000000 ) ) ;
#118 = FACE_OUTER_BOUND ( 'NONE', #296, .T. ) ;
#119 = VECTOR ( 'NONE', #209, 39.37007874015747433 ) ;
#120 = APPLICATION_CONTEXT ( 'automotive_design' ) ;
#121 = ORIENTED_EDGE ( 'NONE', *, *, #48, .T. ) ;
#122 = DIRECTION ( 'NONE',  ( 0.000000000000000000, 0.000000000000000000, -1.000000000000000000 ) ) ;
#123 = CARTESIAN_POINT ( 'NONE',  ( -0.3149604999999999766, 0.000000000000000000, 3.622047000000000239 ) ) ;
#124 = DIRECTION ( 'NONE',  ( 1.000000000000000000, 0.000000000000000000, 0.000000000000000000 ) ) ;
#125 = CARTESIAN_POINT ( 'NONE',  ( 1.687505730825492758E-16, 0.000000000000000000, 1.377952999999999983 ) ) ;
#126 = AXIS2_PLACEMENT_3D ( 'NONE', #36, #122, #76 ) ;
#127 = DIRECTION ( 'NONE',  ( -1.000000000000000000, 0.000000000000000000, 0.000000000000000000 ) ) ;
#128 = CARTESIAN_POINT ( 'NONE',  ( 0.2999604999999996857, 3.765305171892445978E-17, 3.622047000000000239 ) ) ;
#129 = CARTESIAN_POINT ( 'NONE',  ( 1.687505730825492758E-16, 0.000000000000000000, 1.377952999999999983 ) ) ;
#130 = EDGE_LOOP ( 'NONE', ( #144, #178, #277, #23 ) ) ;
#131 = CARTESIAN_POINT ( 'NONE',  ( 0.000000000000000000, 0.000000000000000000, 3.622047000000000239 ) ) ;
#132 = ORIENTED_EDGE ( 'NONE', *, *, #289, .F. ) ;
#133 = FILL_AREA_STYLE_COLOUR ( '', #29 ) ;
#134 = ORIENTED_EDGE ( 'NONE', *, *, #69, .F. ) ;
#135 = CARTESIAN_POINT ( 'NONE',  ( 0.000000000000000000, 0.000000000000000000, 0.000000000000000000 ) ) ;
#136 = DIRECTION ( 'NONE',  ( -0.000000000000000000, -0.000000000000000000, -1.000000000000000000 ) ) ;
#137 =( GEOMETRIC_REPRESENTATION_CONTEXT ( 3 ) GLOBAL_UNCERTAINTY_ASSIGNED_CONTEXT ( ( #99 ) ) GLOBAL_UNIT_ASSIGNED_CONTEXT ( ( #250, #229, #107 ) ) REPRESENTATION_CONTEXT ( 'NONE', 'WORKASPACE' ) );
#138 = AXIS2_PLACEMENT_3D ( 'NONE', #50, #136, #233 ) ;
#139 = ADVANCED_FACE ( 'NONE', ( #30 ), #15, .T. ) ;
#140 = APPLICATION_CONTEXT ( 'automotive_design' ) ;
#141 = DIRECTION ( 'NONE',  ( 0.000000000000000000, 0.000000000000000000, -1.000000000000000000 ) ) ;
#142 = ORIENTED_EDGE ( 'NONE', *, *, #12, .F. ) ;
#143 = DIRECTION ( 'NONE',  ( -1.000000000000000000, 0.000000000000000000, 0.000000000000000000 ) ) ;
#144 = ORIENTED_EDGE ( 'NONE', *, *, #200, .F. ) ;
#145 = LINE ( 'NONE', #263, #80 ) ;
#146 = DIRECTION ( 'NONE',  ( -1.000000000000000000, 0.000000000000000000, 1.224646799147353207E-16 ) ) ;
#147 = EDGE_CURVE ( 'NONE', #165, #151, #57, .T. ) ;
#148 = CIRCLE ( 'NONE', #232, 0.3149604999999999766 ) ;
#149 = LINE ( 'NONE', #101, #105 ) ;
#150 = DIRECTION ( 'NONE',  ( -1.000000000000000000, 0.000000000000000000, 1.224646799147353207E-16 ) ) ;
#151 = VERTEX_POINT ( 'NONE', #162 ) ;
#152 = LINE ( 'NONE', #176, #89 ) ;
#153 = ADVANCED_FACE ( 'NONE', ( #118 ), #280, .T. ) ;
#154 = EDGE_LOOP ( 'NONE', ( #121, #104 ) ) ;
#155 = APPLICATION_PROTOCOL_DEFINITION ( 'draft international standard', 'automotive_design', 1998, #120 ) ;
#156 = VERTEX_POINT ( 'NONE', #9 ) ;
#157 = CARTESIAN_POINT ( 'NONE',  ( 0.000000000000000000, 0.000000000000000000, 0.000000000000000000 ) ) ;
#158 = CARTESIAN_POINT ( 'NONE',  ( 0.2999604999999996857, 3.673456661956392842E-17, 3.622047000000000239 ) ) ;
#159 = AXIS2_PLACEMENT_3D ( 'NONE', #220, #242, #150 ) ;
#160 = VECTOR ( 'NONE', #78, 39.37007874015748143 ) ;
#161 = AXIS2_PLACEMENT_3D ( 'NONE', #7, #43, #288 ) ;
#162 = CARTESIAN_POINT ( 'NONE',  ( 0.3146455395000001265, 0.000000000000000000, 1.377952999999999983 ) ) ;
#163 = DIRECTION ( 'NONE',  ( 1.000000000000000000, 0.000000000000000000, 0.000000000000000000 ) ) ;
#164 = ADVANCED_BREP_SHAPE_REPRESENTATION ( 'Micro_AEMM-160-4X', ( #199, #51 ), #261 ) ;
#165 = VERTEX_POINT ( 'NONE', #259 ) ;
#166 = FACE_OUTER_BOUND ( 'NONE', #130, .T. ) ;
#167 = DIRECTION ( 'NONE',  ( -0.000000000000000000, -0.000000000000000000, -1.000000000000000000 ) ) ;
#168 = CLOSED_SHELL ( 'NONE', ( #116, #256, #139, #110, #39, #243, #190, #93, #153, #195 ) ) ;
#169 = VECTOR ( 'NONE', #254, 39.37007874015748143 ) ;
#170 = ORIENTED_EDGE ( 'NONE', *, *, #12, .T. ) ;
#171 = FACE_OUTER_BOUND ( 'NONE', #13, .T. ) ;
#172 = FACE_OUTER_BOUND ( 'NONE', #154, .T. ) ;
#173 = EDGE_CURVE ( 'NONE', #274, #156, #74, .T. ) ;
#174 = DIRECTION ( 'NONE',  ( 1.000000000000000000, 0.000000000000000000, 0.000000000000000000 ) ) ;
#175 = UNCERTAINTY_MEASURE_WITH_UNIT (LENGTH_MEASURE( 1.000000000000000082E-05 ), #100, 'distance_accuracy_value', 'NONE');
#176 = CARTESIAN_POINT ( 'NONE',  ( 0.3149604999999999766, 3.857153681828499730E-17, 3.622047000000000239 ) ) ;
#177 = CYLINDRICAL_SURFACE ( 'NONE', #138, 0.3149604999999999766 ) ;
#178 = ORIENTED_EDGE ( 'NONE', *, *, #48, .F. ) ;
#179 = CARTESIAN_POINT ( 'NONE',  ( 0.3146455394999999600, 3.853296528146670183E-17, 0.000000000000000000 ) ) ;
#180 = ORIENTED_EDGE ( 'NONE', *, *, #278, .T. ) ;
#181 = AXIS2_PLACEMENT_3D ( 'NONE', #131, #271, #269 ) ;
#182 = CIRCLE ( 'NONE', #219, 0.3146455394999999600 ) ;
#183 = PRODUCT_DEFINITION ( 'UNKNOWN', '', #255, #244 ) ;
#184 = VERTEX_POINT ( 'NONE', #11 ) ;
#185 = PRESENTATION_STYLE_ASSIGNMENT (( #2 ) ) ;
#186 = VECTOR ( 'NONE', #210, 39.37007874015748143 ) ;
#187 = EDGE_CURVE ( 'NONE', #245, #274, #41, .T. ) ;
#188 = PRESENTATION_LAYER_ASSIGNMENT (  '', '', ( #234 ) ) ;
#189 = DIRECTION ( 'NONE',  ( 0.000000000000000000, 0.000000000000000000, 1.000000000000000000 ) ) ;
#190 = ADVANCED_FACE ( 'NONE', ( #166 ), #112, .T. ) ;
#191 = EDGE_LOOP ( 'NONE', ( #142, #82, #8, #88 ) ) ;
#192 = ORIENTED_EDGE ( 'NONE', *, *, #278, .F. ) ;
#193 =( NAMED_UNIT ( * ) SI_UNIT ( $, .STERADIAN. ) SOLID_ANGLE_UNIT ( ) );
#194 = COLOUR_RGB ( '',0.7921568627450980005, 0.8196078431372548767, 0.9333333333333333481 ) ;
#195 = ADVANCED_FACE ( 'NONE', ( #171 ), #32, .F. ) ;
#196 =( NAMED_UNIT ( * ) PLANE_ANGLE_UNIT ( ) SI_UNIT ( $, .RADIAN. ) );
#197 = DIRECTION ( 'NONE',  ( -1.000000000000000000, 0.000000000000000000, 1.224646799147353207E-16 ) ) ;
#198 = LINE ( 'NONE', #290, #160 ) ;
#199 = MANIFOLD_SOLID_BREP ( 'Cut-Revolve1', #168 ) ;
#200 = EDGE_CURVE ( 'NONE', #223, #245, #73, .T. ) ;
#201 = ORIENTED_EDGE ( 'NONE', *, *, #187, .T. ) ;
#202 = ORIENTED_EDGE ( 'NONE', *, *, #98, .T. ) ;
#203 = AXIS2_PLACEMENT_3D ( 'NONE', #38, #141, #124 ) ;
#204 = EDGE_CURVE ( 'NONE', #223, #184, #62, .T. ) ;
#205 = ORIENTED_EDGE ( 'NONE', *, *, #103, .F. ) ;
#206 = SURFACE_STYLE_FILL_AREA ( #225 ) ;
#207 = MECHANICAL_DESIGN_GEOMETRIC_PRESENTATION_REPRESENTATION (  '', ( #234 ), #297 ) ;
#208 = EDGE_CURVE ( 'NONE', #274, #245, #148, .T. ) ;
#209 = DIRECTION ( 'NONE',  ( -0.1736481776669311916, 2.126576849575783316E-17, 0.9848077530122080203 ) ) ;
#210 = DIRECTION ( 'NONE',  ( -0.000000000000000000, -0.000000000000000000, -1.000000000000000000 ) ) ;
#211 = PRODUCT ( 'Micro_AEMM-160-4X', 'Micro_AEMM-160-4X', '', ( #109 ) ) ;
#212 = VERTEX_POINT ( 'NONE', #179 ) ;
#213 = SURFACE_STYLE_USAGE ( .BOTH. , #217 ) ;
#214 = AXIS2_PLACEMENT_3D ( 'NONE', #114, #26, #72 ) ;
#215 = DIRECTION ( 'NONE',  ( 1.000000000000000000, 0.000000000000000000, -0.000000000000000000 ) ) ;
#216 = CARTESIAN_POINT ( 'NONE',  ( 0.000000000000000000, 0.000000000000000000, 3.622047000000000239 ) ) ;
#217 = SURFACE_SIDE_STYLE ('',( #258 ) ) ;
#218 = CARTESIAN_POINT ( 'NONE',  ( 4.718927259360429440E-33, 0.000000000000000000, 3.853296528146670183E-17 ) ) ;
#219 = AXIS2_PLACEMENT_3D ( 'NONE', #293, #79, #127 ) ;
#220 = CARTESIAN_POINT ( 'NONE',  ( 4.718927259360429440E-33, 0.000000000000000000, 3.853296528146670183E-17 ) ) ;
#221 = DIRECTION ( 'NONE',  ( -1.224646799147353207E-16, -0.000000000000000000, -1.000000000000000000 ) ) ;
#222 = DIRECTION ( 'NONE',  ( 1.000000000000000000, 0.000000000000000000, 0.000000000000000000 ) ) ;
#223 = VERTEX_POINT ( 'NONE', #128 ) ;
#224 = EDGE_CURVE ( 'NONE', #151, #165, #182, .T. ) ;
#225 = FILL_AREA_STYLE ('',( #133 ) ) ;
#226 = VERTEX_POINT ( 'NONE', #246 ) ;
#227 = AXIS2_PLACEMENT_3D ( 'NONE', #295, #67, #222 ) ;
#228 = SURFACE_SIDE_STYLE ('',( #206 ) ) ;
#229 =( NAMED_UNIT ( * ) PLANE_ANGLE_UNIT ( ) SI_UNIT ( $, .RADIAN. ) );
#230 = DIRECTION ( 'NONE',  ( -1.000000000000000000, 0.000000000000000000, 1.224646799147353207E-16 ) ) ;
#231 = DIRECTION ( 'NONE',  ( 0.000000000000000000, 0.000000000000000000, 1.000000000000000000 ) ) ;
#232 = AXIS2_PLACEMENT_3D ( 'NONE', #291, #299, #163 ) ;
#233 = DIRECTION ( 'NONE',  ( -1.000000000000000000, 0.000000000000000000, 0.000000000000000000 ) ) ;
#234 = STYLED_ITEM ( 'NONE', ( #56 ), #199 ) ;
#235 =( NAMED_UNIT ( * ) PLANE_ANGLE_UNIT ( ) SI_UNIT ( $, .RADIAN. ) );
#236 = DIRECTION ( 'NONE',  ( -1.224646799147353207E-16, -0.000000000000000000, -1.000000000000000000 ) ) ;
#237 = CARTESIAN_POINT ( 'NONE',  ( 0.000000000000000000, 0.000000000000000000, 0.000000000000000000 ) ) ;
#238 = DIMENSIONAL_EXPONENTS ( 1.000000000000000000, 0.000000000000000000, 0.000000000000000000, 0.000000000000000000, 0.000000000000000000, 0.000000000000000000, 0.000000000000000000 ) ;
#239 = EDGE_CURVE ( 'NONE', #245, #49, #152, .T. ) ;
#240 = PLANE ( 'NONE',  #181 ) ;
#241 = AXIS2_PLACEMENT_3D ( 'NONE', #129, #292, #14 ) ;
#242 = DIRECTION ( 'NONE',  ( -1.224646799147353207E-16, -0.000000000000000000, -1.000000000000000000 ) ) ;
#243 = ADVANCED_FACE ( 'NONE', ( #172 ), #240, .T. ) ;
#244 = PRODUCT_DEFINITION_CONTEXT ( 'detailed design', #140, 'design' ) ;
#245 = VERTEX_POINT ( 'NONE', #22 ) ;
#246 = CARTESIAN_POINT ( 'NONE',  ( -0.3146455394999999600, 0.000000000000000000, 7.706593056293340367E-17 ) ) ;
#247 = MECHANICAL_DESIGN_GEOMETRIC_PRESENTATION_REPRESENTATION (  '', ( #53 ), #137 ) ;
#248 = EDGE_CURVE ( 'NONE', #151, #49, #149, .T. ) ;
#249 = DIRECTION ( 'NONE',  ( -1.000000000000000000, 0.000000000000000000, 0.000000000000000000 ) ) ;
#250 =( CONVERSION_BASED_UNIT ( 'INCH', #71 ) LENGTH_UNIT ( ) NAMED_UNIT ( #238 ) );
#251 = PRODUCT_DEFINITION_SHAPE ( 'NONE', 'NONE',  #183 ) ;
#252 = ORIENTED_EDGE ( 'NONE', *, *, #239, .F. ) ;
#253 = VECTOR ( 'NONE', #221, 39.37007874015748143 ) ;
#254 = DIRECTION ( 'NONE',  ( 0.7071067811865362485, 8.659560562354796040E-17, -0.7071067811865587860 ) ) ;
#255 = PRODUCT_DEFINITION_FORMATION_WITH_SPECIFIED_SOURCE ( 'ANY', '', #211, .NOT_KNOWN. ) ;
#256 = ADVANCED_FACE ( 'NONE', ( #40 ), #46, .T. ) ;
#257 = FILL_AREA_STYLE ('',( #282 ) ) ;
#258 = SURFACE_STYLE_FILL_AREA ( #257 ) ;
#259 = CARTESIAN_POINT ( 'NONE',  ( -0.3146455394999998489, 3.855225104987584957E-17, 1.377952999999999983 ) ) ;
#260 = CONICAL_SURFACE ( 'NONE', #266, 0.3146455394999999600, 0.1745329251994338915 ) ;
#261 =( GEOMETRIC_REPRESENTATION_CONTEXT ( 3 ) GLOBAL_UNCERTAINTY_ASSIGNED_CONTEXT ( ( #175 ) ) GLOBAL_UNIT_ASSIGNED_CONTEXT ( ( #100, #196, #85 ) ) REPRESENTATION_CONTEXT ( 'NONE', 'WORKASPACE' ) );
#262 = LENGTH_MEASURE_WITH_UNIT ( LENGTH_MEASURE( 0.02539999999999999897 ), #34 );
#263 = CARTESIAN_POINT ( 'NONE',  ( 0.3146455394999999600, 3.853296528146670183E-17, -3.853296528146670183E-17 ) ) ;
#264 = CYLINDRICAL_SURFACE ( 'NONE', #75, 0.3149604999999999766 ) ;
#265 = DIRECTION ( 'NONE',  ( -0.000000000000000000, -0.000000000000000000, -1.000000000000000000 ) ) ;
#266 = AXIS2_PLACEMENT_3D ( 'NONE', #125, #18, #174 ) ;
#267 = UNCERTAINTY_MEASURE_WITH_UNIT (LENGTH_MEASURE( 1.000000000000000082E-05 ), #5, 'distance_accuracy_value', 'NONE');
#268 = ORIENTED_EDGE ( 'NONE', *, *, #204, .F. ) ;
#269 = DIRECTION ( 'NONE',  ( 1.000000000000000000, 0.000000000000000000, -0.000000000000000000 ) ) ;
#270 = EDGE_LOOP ( 'NONE', ( #81, #4, #132, #70 ) ) ;
#271 = DIRECTION ( 'NONE',  ( 0.000000000000000000, 0.000000000000000000, 1.000000000000000000 ) ) ;
#272 = ORIENTED_EDGE ( 'NONE', *, *, #147, .T. ) ;
#273 = ORIENTED_EDGE ( 'NONE', *, *, #147, .F. ) ;
#274 = VERTEX_POINT ( 'NONE', #44 ) ;
#275 = PRODUCT_RELATED_PRODUCT_CATEGORY ( 'part', '', ( #211 ) ) ;
#276 = CIRCLE ( 'NONE', #25, 0.2999604999999996857 ) ;
#277 = ORIENTED_EDGE ( 'NONE', *, *, #69, .T. ) ;
#278 = EDGE_CURVE ( 'NONE', #226, #212, #284, .T. ) ;
#279 = PRESENTATION_LAYER_ASSIGNMENT (  '', '', ( #53 ) ) ;
#280 = CYLINDRICAL_SURFACE ( 'NONE', #21, 0.3146455394999999600 ) ;
#281 = AXIS2_PLACEMENT_3D ( 'NONE', #157, #115, #230 ) ;
#282 = FILL_AREA_STYLE_COLOUR ( '', #194 ) ;
#283 = EDGE_CURVE ( 'NONE', #49, #156, #92, .T. ) ;
#284 = CIRCLE ( 'NONE', #159, 0.3146455394999999600 ) ;
#285 = EDGE_LOOP ( 'NONE', ( #252, #201, #24, #55 ) ) ;
#286 = LINE ( 'NONE', #77, #119 ) ;
#287 = LINE ( 'NONE', #61, #253 ) ;
#288 = DIRECTION ( 'NONE',  ( 1.000000000000000000, 0.000000000000000000, 0.000000000000000000 ) ) ;
#289 = EDGE_CURVE ( 'NONE', #156, #49, #27, .T. ) ;
#290 = CARTESIAN_POINT ( 'NONE',  ( -0.2999604999999996857, 0.000000000000000000, 3.622047000000000239 ) ) ;
#291 = CARTESIAN_POINT ( 'NONE',  ( 0.000000000000000000, 0.000000000000000000, 3.607046999999999226 ) ) ;
#292 = DIRECTION ( 'NONE',  ( 1.224646799147353207E-16, 0.000000000000000000, 1.000000000000000000 ) ) ;
#293 = CARTESIAN_POINT ( 'NONE',  ( 1.687505730825492758E-16, 0.000000000000000000, 1.377952999999999983 ) ) ;
#294 = EDGE_LOOP ( 'NONE', ( #268, #90, #1, #134 ) ) ;
#295 = CARTESIAN_POINT ( 'NONE',  ( 1.689693231380615506E-16, 0.000000000000000000, 1.379739229757547481 ) ) ;
#296 = EDGE_LOOP ( 'NONE', ( #102, #86, #47, #59 ) ) ;
#297 =( GEOMETRIC_REPRESENTATION_CONTEXT ( 3 ) GLOBAL_UNCERTAINTY_ASSIGNED_CONTEXT ( ( #267 ) ) GLOBAL_UNIT_ASSIGNED_CONTEXT ( ( #5, #235, #193 ) ) REPRESENTATION_CONTEXT ( 'NONE', 'WORKASPACE' ) );
#298 = EDGE_LOOP ( 'NONE', ( #273, #170, #65, #108 ) ) ;
#299 = DIRECTION ( 'NONE',  ( 0.000000000000000000, 0.000000000000000000, -1.000000000000000000 ) ) ;
ENDSEC;
END-ISO-10303-21;
