ISO-10303-21;
HEADER;
FILE_DESCRIPTION (( 'STEP AP214' ),
    '1' );
FILE_NAME ('30047.STEP',
    '2023-06-22T17:52:04',
    ( '' ),
    ( '' ),
    'SwSTEP 2.0',
    'SolidWorks 2023',
    '' );
FILE_SCHEMA (( 'AUTOMOTIVE_DESIGN' ));
ENDSEC;

DATA;
#1 = DIRECTION ( 'NONE',  ( 3.378335997647870959E-17, 1.000000000000000000, -0.000000000000000000 ) ) ;
#2 = ORIENTED_EDGE ( 'NONE', *, *, #73, .F. ) ;
#3 = AXIS2_PLACEMENT_3D ( 'NONE', #209, #203, #210 ) ;
#4 = APPLICATION_PROTOCOL_DEFINITION ( 'draft international standard', 'automotive_design', 1998, #35 ) ;
#5 = CIRCLE ( 'NONE', #200, 0.07810000000000000275 ) ;
#6 = FILL_AREA_STYLE ('',( #118 ) ) ;
#7 = EDGE_CURVE ( 'NONE', #190, #302, #116, .T. ) ;
#8 = LINE ( 'NONE', #49, #313 ) ;
#9 =( GEOMETRIC_REPRESENTATION_CONTEXT ( 3 ) GLOBAL_UNCERTAINTY_ASSIGNED_CONTEXT ( ( #105 ) ) GLOBAL_UNIT_ASSIGNED_CONTEXT ( ( #327, #204, #303 ) ) REPRESENTATION_CONTEXT ( 'NONE', 'WORKASPACE' ) );
#10 = ADVANCED_FACE ( 'NONE', ( #279 ), #66, .T. ) ;
#11 = ORIENTED_EDGE ( 'NONE', *, *, #315, .F. ) ;
#12 = DIRECTION ( 'NONE',  ( 3.378335997647870959E-17, 1.000000000000000000, -0.000000000000000000 ) ) ;
#13 = LINE ( 'NONE', #233, #314 ) ;
#14 = SHAPE_DEFINITION_REPRESENTATION ( #77, #232 ) ;
#15 = DIRECTION ( 'NONE',  ( 3.378335997647870959E-17, 1.000000000000000000, -0.000000000000000000 ) ) ;
#16 = MECHANICAL_DESIGN_GEOMETRIC_PRESENTATION_REPRESENTATION (  '', ( #320 ), #166 ) ;
#17 = AXIS2_PLACEMENT_3D ( 'NONE', #54, #299, #215 ) ;
#18 =( NAMED_UNIT ( * ) PLANE_ANGLE_UNIT ( ) SI_UNIT ( $, .RADIAN. ) );
#19 = DIRECTION ( 'NONE',  ( -1.000000000000000000, 3.378335997647870959E-17, 0.000000000000000000 ) ) ;
#20 = ORIENTED_EDGE ( 'NONE', *, *, #78, .T. ) ;
#21 = FILL_AREA_STYLE ('',( #156 ) ) ;
#22 = ORIENTED_EDGE ( 'NONE', *, *, #265, .T. ) ;
#23 = FILL_AREA_STYLE_COLOUR ( '', #330 ) ;
#24 = AXIS2_PLACEMENT_3D ( 'NONE', #145, #195, #119 ) ;
#25 =( CONVERSION_BASED_UNIT ( 'INCH', #324 ) LENGTH_UNIT ( ) NAMED_UNIT ( #338 ) );
#26 = EDGE_LOOP ( 'NONE', ( #301, #298 ) ) ;
#27 = EDGE_LOOP ( 'NONE', ( #110, #92, #171, #290 ) ) ;
#28 = CARTESIAN_POINT ( 'NONE',  ( 0.000000000000000000, 0.000000000000000000, 0.000000000000000000 ) ) ;
#29 = DIRECTION ( 'NONE',  ( -1.000000000000000000, 0.000000000000000000, 0.000000000000000000 ) ) ;
#30 =( GEOMETRIC_REPRESENTATION_CONTEXT ( 3 ) GLOBAL_UNCERTAINTY_ASSIGNED_CONTEXT ( ( #333 ) ) GLOBAL_UNIT_ASSIGNED_CONTEXT ( ( #71, #251, #246 ) ) REPRESENTATION_CONTEXT ( 'NONE', 'WORKASPACE' ) );
#31 = PRODUCT_RELATED_PRODUCT_CATEGORY ( 'part', '', ( #130 ) ) ;
#32 = DIRECTION ( 'NONE',  ( -0.000000000000000000, -1.000000000000000000, -0.000000000000000000 ) ) ;
#33 =( NAMED_UNIT ( * ) PLANE_ANGLE_UNIT ( ) SI_UNIT ( $, .RADIAN. ) );
#34 = DIRECTION ( 'NONE',  ( 0.000000000000000000, 1.000000000000000000, 0.000000000000000000 ) ) ;
#35 = APPLICATION_CONTEXT ( 'automotive_design' ) ;
#36 = LENGTH_MEASURE_WITH_UNIT ( LENGTH_MEASURE( 0.02539999999999999897 ), #329 );
#37 = ADVANCED_FACE ( 'NONE', ( #221 ), #328, .T. ) ;
#38 = CARTESIAN_POINT ( 'NONE',  ( 0.000000000000000000, 0.1875000000000001110, 0.000000000000000000 ) ) ;
#39 =( NAMED_UNIT ( * ) SI_UNIT ( $, .STERADIAN. ) SOLID_ANGLE_UNIT ( ) );
#40 = PRESENTATION_LAYER_ASSIGNMENT (  '', '', ( #63 ) ) ;
#41 = CIRCLE ( 'NONE', #80, 0.07809999999999997500 ) ;
#42 = LINE ( 'NONE', #68, #111 ) ;
#43 =( NAMED_UNIT ( * ) SI_UNIT ( $, .STERADIAN. ) SOLID_ANGLE_UNIT ( ) );
#44 = DIMENSIONAL_EXPONENTS ( 1.000000000000000000, 0.000000000000000000, 0.000000000000000000, 0.000000000000000000, 0.000000000000000000, 0.000000000000000000, 0.000000000000000000 ) ;
#45 = SURFACE_STYLE_USAGE ( .BOTH. , #340 ) ;
#46 = PRESENTATION_LAYER_ASSIGNMENT (  '', '', ( #320 ) ) ;
#47 = VECTOR ( 'NONE', #79, 39.37007874015748854 ) ;
#48 = DIRECTION ( 'NONE',  ( 0.000000000000000000, 0.000000000000000000, -1.000000000000000000 ) ) ;
#49 = CARTESIAN_POINT ( 'NONE',  ( -0.07809999999999997500, 0.1875000000000001110, 0.000000000000000000 ) ) ;
#50 = SURFACE_STYLE_FILL_AREA ( #141 ) ;
#51 = MECHANICAL_DESIGN_GEOMETRIC_PRESENTATION_REPRESENTATION (  '', ( #235 ), #122 ) ;
#52 = PRESENTATION_LAYER_ASSIGNMENT (  '', '', ( #70 ) ) ;
#53 = ORIENTED_EDGE ( 'NONE', *, *, #134, .F. ) ;
#54 = CARTESIAN_POINT ( 'NONE',  ( 6.123233995736766036E-17, 2.000000000000000000, 0.000000000000000000 ) ) ;
#55 = EDGE_CURVE ( 'NONE', #302, #352, #42, .T. ) ;
#56 =( NAMED_UNIT ( * ) SI_UNIT ( $, .STERADIAN. ) SOLID_ANGLE_UNIT ( ) );
#57 = AXIS2_PLACEMENT_3D ( 'NONE', #128, #229, #227 ) ;
#58 =( GEOMETRIC_REPRESENTATION_CONTEXT ( 3 ) GLOBAL_UNCERTAINTY_ASSIGNED_CONTEXT ( ( #230 ) ) GLOBAL_UNIT_ASSIGNED_CONTEXT ( ( #25, #65, #168 ) ) REPRESENTATION_CONTEXT ( 'NONE', 'WORKASPACE' ) );
#59 = ORIENTED_EDGE ( 'NONE', *, *, #107, .T. ) ;
#60 = FILL_AREA_STYLE ('',( #96 ) ) ;
#61 = PLANE ( 'NONE',  #300 ) ;
#62 = SURFACE_STYLE_FILL_AREA ( #6 ) ;
#63 = STYLED_ITEM ( 'NONE', ( #202 ), #37 ) ;
#64 = AXIS2_PLACEMENT_3D ( 'NONE', #336, #97, #311 ) ;
#65 =( NAMED_UNIT ( * ) PLANE_ANGLE_UNIT ( ) SI_UNIT ( $, .RADIAN. ) );
#66 = PLANE ( 'NONE',  #69 ) ;
#67 =( LENGTH_UNIT ( ) NAMED_UNIT ( * ) SI_UNIT ( $, .METRE. ) );
#68 = CARTESIAN_POINT ( 'NONE',  ( 0.09375000000000011102, 2.000000000000000000, 1.148106374200644171E-17 ) ) ;
#69 = AXIS2_PLACEMENT_3D ( 'NONE', #332, #201, #199 ) ;
#70 = STYLED_ITEM ( 'NONE', ( #217 ), #281 ) ;
#71 =( CONVERSION_BASED_UNIT ( 'INCH', #334 ) LENGTH_UNIT ( ) NAMED_UNIT ( #341 ) );
#72 = ADVANCED_FACE ( 'NONE', ( #148 ), #127, .T. ) ;
#73 = EDGE_CURVE ( 'NONE', #114, #190, #8, .T. ) ;
#74 = DIRECTION ( 'NONE',  ( -0.000000000000000000, -1.000000000000000000, -0.000000000000000000 ) ) ;
#75 = STYLED_ITEM ( 'NONE', ( #198 ), #318 ) ;
#76 = CYLINDRICAL_SURFACE ( 'NONE', #112, 0.09375000000000004163 ) ;
#77 = PRODUCT_DEFINITION_SHAPE ( 'NONE', 'NONE',  #192 ) ;
#78 = EDGE_CURVE ( 'NONE', #302, #190, #212, .T. ) ;
#79 = DIRECTION ( 'NONE',  ( 0.3420201433256709889, 0.9396926207859074287, 4.188538737677018882E-17 ) ) ;
#80 = AXIS2_PLACEMENT_3D ( 'NONE', #339, #74, #151 ) ;
#81 = DIRECTION ( 'NONE',  ( -1.000000000000000000, 0.000000000000000000, 0.000000000000000000 ) ) ;
#82 = ADVANCED_FACE ( 'NONE', ( #206 ), #76, .T. ) ;
#83 = PLANE ( 'NONE',  #321 ) ;
#84 = EDGE_LOOP ( 'NONE', ( #297, #317, #240, #144 ) ) ;
#85 = DIRECTION ( 'NONE',  ( 3.378335997647870959E-17, 1.000000000000000000, -0.000000000000000000 ) ) ;
#86 = ORIENTED_EDGE ( 'NONE', *, *, #100, .F. ) ;
#87 = AXIS2_PLACEMENT_3D ( 'NONE', #38, #1, #282 ) ;
#88 = PRESENTATION_STYLE_ASSIGNMENT (( #358 ) ) ;
#89 = DIRECTION ( 'NONE',  ( 0.000000000000000000, -0.000000000000000000, 1.000000000000000000 ) ) ;
#90 = CARTESIAN_POINT ( 'NONE',  ( 1.452617642477878901E-18, 0.2304980216144648930, 0.000000000000000000 ) ) ;
#91 = SURFACE_STYLE_USAGE ( .BOTH. , #325 ) ;
#92 = ORIENTED_EDGE ( 'NONE', *, *, #55, .T. ) ;
#93 = AXIS2_PLACEMENT_3D ( 'NONE', #98, #173, #48 ) ;
#94 =( NAMED_UNIT ( * ) PLANE_ANGLE_UNIT ( ) SI_UNIT ( $, .RADIAN. ) );
#95 = SURFACE_STYLE_FILL_AREA ( #243 ) ;
#96 = FILL_AREA_STYLE_COLOUR ( '', #273 ) ;
#97 = DIRECTION ( 'NONE',  ( 0.000000000000000000, 0.000000000000000000, 1.000000000000000000 ) ) ;
#98 = CARTESIAN_POINT ( 'NONE',  ( 0.000000000000000000, 0.000000000000000000, 0.000000000000000000 ) ) ;
#99 = CIRCLE ( 'NONE', #24, 0.07809999999999997500 ) ;
#100 = EDGE_CURVE ( 'NONE', #189, #262, #5, .T. ) ;
#101 = CARTESIAN_POINT ( 'NONE',  ( 0.000000000000000000, 0.000000000000000000, 0.000000000000000000 ) ) ;
#102 = SURFACE_STYLE_FILL_AREA ( #309 ) ;
#103 =( NAMED_UNIT ( * ) PLANE_ANGLE_UNIT ( ) SI_UNIT ( $, .RADIAN. ) );
#104 = CONICAL_SURFACE ( 'NONE', #87, 0.07809999999999997500, 0.3490658503988683381 ) ;
#105 = UNCERTAINTY_MEASURE_WITH_UNIT (LENGTH_MEASURE( 1.000000000000000082E-05 ), #327, 'distance_accuracy_value', 'NONE');
#106 = LINE ( 'NONE', #182, #47 ) ;
#107 = EDGE_CURVE ( 'NONE', #352, #259, #172, .T. ) ;
#108 = PRESENTATION_STYLE_ASSIGNMENT (( #109 ) ) ;
#109 = SURFACE_STYLE_USAGE ( .BOTH. , #234 ) ;
#110 = ORIENTED_EDGE ( 'NONE', *, *, #7, .T. ) ;
#111 = VECTOR ( 'NONE', #15, 39.37007874015748143 ) ;
#112 = AXIS2_PLACEMENT_3D ( 'NONE', #174, #310, #337 ) ;
#113 = DIRECTION ( 'NONE',  ( 0.000000000000000000, 0.000000000000000000, -1.000000000000000000 ) ) ;
#114 = VERTEX_POINT ( 'NONE', #312 ) ;
#115 = SURFACE_STYLE_USAGE ( .BOTH. , #351 ) ;
#116 = CIRCLE ( 'NONE', #157, 0.09375000000000006939 ) ;
#117 = PRESENTATION_LAYER_ASSIGNMENT (  '', '', ( #183 ) ) ;
#118 = FILL_AREA_STYLE_COLOUR ( '', #307 ) ;
#119 = DIRECTION ( 'NONE',  ( -1.000000000000000000, 0.000000000000000000, 0.000000000000000000 ) ) ;
#120 = PRODUCT_CONTEXT ( 'NONE', #129, 'mechanical' ) ;
#121 = DIRECTION ( 'NONE',  ( 0.000000000000000000, 0.000000000000000000, -1.000000000000000000 ) ) ;
#122 =( GEOMETRIC_REPRESENTATION_CONTEXT ( 3 ) GLOBAL_UNCERTAINTY_ASSIGNED_CONTEXT ( ( #184 ) ) GLOBAL_UNIT_ASSIGNED_CONTEXT ( ( #177, #103, #253 ) ) REPRESENTATION_CONTEXT ( 'NONE', 'WORKASPACE' ) );
#123 = EDGE_LOOP ( 'NONE', ( #133, #186, #86, #176 ) ) ;
#124 = LINE ( 'NONE', #276, #158 ) ;
#125 = DIRECTION ( 'NONE',  ( -0.3420201433256709334, 0.9396926207859076507, 0.000000000000000000 ) ) ;
#126 = FILL_AREA_STYLE_COLOUR ( '', #285 ) ;
#127 = CYLINDRICAL_SURFACE ( 'NONE', #3, 0.07809999999999997500 ) ;
#128 = CARTESIAN_POINT ( 'NONE',  ( 1.452617642477878901E-18, 0.2304980216144648930, 0.000000000000000000 ) ) ;
#129 = APPLICATION_CONTEXT ( 'automotive_design' ) ;
#130 = PRODUCT ( '30047', '30047', '', ( #120 ) ) ;
#131 =( LENGTH_UNIT ( ) NAMED_UNIT ( * ) SI_UNIT ( $, .METRE. ) );
#132 = AXIS2_PLACEMENT_3D ( 'NONE', #257, #12, #288 ) ;
#133 = ORIENTED_EDGE ( 'NONE', *, *, #272, .T. ) ;
#134 = EDGE_CURVE ( 'NONE', #197, #150, #41, .T. ) ;
#135 = DIMENSIONAL_EXPONENTS ( 1.000000000000000000, 0.000000000000000000, 0.000000000000000000, 0.000000000000000000, 0.000000000000000000, 0.000000000000000000, 0.000000000000000000 ) ;
#136 = CARTESIAN_POINT ( 'NONE',  ( -0.09375000000000006939, 0.2304980216144648930, 0.000000000000000000 ) ) ;
#137 = ORIENTED_EDGE ( 'NONE', *, *, #272, .F. ) ;
#138 = DIRECTION ( 'NONE',  ( -0.000000000000000000, -1.000000000000000000, -0.000000000000000000 ) ) ;
#139 = EDGE_LOOP ( 'NONE', ( #161, #59 ) ) ;
#140 = CIRCLE ( 'NONE', #224, 0.07809999999999997500 ) ;
#141 = FILL_AREA_STYLE ('',( #23 ) ) ;
#142 = DIRECTION ( 'NONE',  ( 3.378335997647870959E-17, 1.000000000000000000, -0.000000000000000000 ) ) ;
#143 = COLOUR_RGB ( '',0.7921568627450980005, 0.8196078431372548767, 0.9333333333333333481 ) ;
#144 = ORIENTED_EDGE ( 'NONE', *, *, #78, .F. ) ;
#145 = CARTESIAN_POINT ( 'NONE',  ( 0.000000000000000000, 0.1875000000000001110, 0.000000000000000000 ) ) ;
#146 = ORIENTED_EDGE ( 'NONE', *, *, #162, .T. ) ;
#147 = MECHANICAL_DESIGN_GEOMETRIC_PRESENTATION_REPRESENTATION (  '', ( #70 ), #58 ) ;
#148 = FACE_OUTER_BOUND ( 'NONE', #123, .T. ) ;
#149 = LENGTH_MEASURE_WITH_UNIT ( LENGTH_MEASURE( 0.02539999999999999897 ), #231 );
#150 = VERTEX_POINT ( 'NONE', #258 ) ;
#151 = DIRECTION ( 'NONE',  ( 0.000000000000000000, 0.000000000000000000, -1.000000000000000000 ) ) ;
#152 = CLOSED_SHELL ( 'NONE', ( #196, #254, #159, #344, #82, #287 ) ) ;
#153 = EDGE_LOOP ( 'NONE', ( #238, #247 ) ) ;
#154 = EDGE_CURVE ( 'NONE', #150, #189, #13, .T. ) ;
#155 = CARTESIAN_POINT ( 'NONE',  ( 0.000000000000000000, 0.000000000000000000, -0.07810000000000000275 ) ) ;
#156 = FILL_AREA_STYLE_COLOUR ( '', #236 ) ;
#157 = AXIS2_PLACEMENT_3D ( 'NONE', #90, #142, #29 ) ;
#158 = VECTOR ( 'NONE', #32, 39.37007874015748143 ) ;
#159 = ADVANCED_FACE ( 'NONE', ( #267 ), #83, .F. ) ;
#160 = CARTESIAN_POINT ( 'NONE',  ( -0.09374999999999994449, 2.000000000000000000, 0.000000000000000000 ) ) ;
#161 = ORIENTED_EDGE ( 'NONE', *, *, #218, .T. ) ;
#162 = EDGE_CURVE ( 'NONE', #114, #180, #274, .T. ) ;
#163 = SURFACE_SIDE_STYLE ('',( #165 ) ) ;
#164 = DIRECTION ( 'NONE',  ( -3.378335997647870959E-17, -1.000000000000000000, 0.000000000000000000 ) ) ;
#165 = SURFACE_STYLE_FILL_AREA ( #60 ) ;
#166 =( GEOMETRIC_REPRESENTATION_CONTEXT ( 3 ) GLOBAL_UNCERTAINTY_ASSIGNED_CONTEXT ( ( #170 ) ) GLOBAL_UNIT_ASSIGNED_CONTEXT ( ( #194, #94, #39 ) ) REPRESENTATION_CONTEXT ( 'NONE', 'WORKASPACE' ) );
#167 = LENGTH_MEASURE_WITH_UNIT ( LENGTH_MEASURE( 0.02539999999999999897 ), #304 );
#168 =( NAMED_UNIT ( * ) SI_UNIT ( $, .STERADIAN. ) SOLID_ANGLE_UNIT ( ) );
#169 = SURFACE_SIDE_STYLE ('',( #62 ) ) ;
#170 = UNCERTAINTY_MEASURE_WITH_UNIT (LENGTH_MEASURE( 1.000000000000000082E-05 ), #194, 'distance_accuracy_value', 'NONE');
#171 = ORIENTED_EDGE ( 'NONE', *, *, #218, .F. ) ;
#172 = CIRCLE ( 'NONE', #132, 0.09375000000000001388 ) ;
#173 = DIRECTION ( 'NONE',  ( -0.000000000000000000, -1.000000000000000000, -0.000000000000000000 ) ) ;
#174 = CARTESIAN_POINT ( 'NONE',  ( 6.123233995736766036E-17, 2.000000000000000000, 0.000000000000000000 ) ) ;
#175 = DIRECTION ( 'NONE',  ( -0.000000000000000000, -1.000000000000000000, -0.000000000000000000 ) ) ;
#176 = ORIENTED_EDGE ( 'NONE', *, *, #154, .F. ) ;
#177 =( CONVERSION_BASED_UNIT ( 'INCH', #149 ) LENGTH_UNIT ( ) NAMED_UNIT ( #292 ) );
#178 = PRESENTATION_LAYER_ASSIGNMENT (  '', '', ( #235 ) ) ;
#179 = DIRECTION ( 'NONE',  ( -0.000000000000000000, -1.000000000000000000, -0.000000000000000000 ) ) ;
#180 = VERTEX_POINT ( 'NONE', #214 ) ;
#181 = PLANE ( 'NONE',  #342 ) ;
#182 = CARTESIAN_POINT ( 'NONE',  ( 0.07809999999999997500, 0.1875000000000001110, 9.564491501340826783E-18 ) ) ;
#183 = STYLED_ITEM ( 'NONE', ( #108 ), #207 ) ;
#184 = UNCERTAINTY_MEASURE_WITH_UNIT (LENGTH_MEASURE( 1.000000000000000082E-05 ), #177, 'distance_accuracy_value', 'NONE');
#185 = CARTESIAN_POINT ( 'NONE',  ( 9.564491501340826783E-18, 0.1874999999999999722, 0.07809999999999997500 ) ) ;
#186 = ORIENTED_EDGE ( 'NONE', *, *, #326, .T. ) ;
#187 = LENGTH_MEASURE_WITH_UNIT ( LENGTH_MEASURE( 0.02539999999999999897 ), #131 );
#188 =( CONVERSION_BASED_UNIT ( 'INCH', #187 ) LENGTH_UNIT ( ) NAMED_UNIT ( #211 ) );
#189 = VERTEX_POINT ( 'NONE', #155 ) ;
#190 = VERTEX_POINT ( 'NONE', #136 ) ;
#191 = CLOSED_SHELL ( 'NONE', ( #72, #281, #37, #10 ) ) ;
#192 = PRODUCT_DEFINITION ( 'UNKNOWN', '', #256, #263 ) ;
#193 = CIRCLE ( 'NONE', #335, 0.09375000000000001388 ) ;
#194 =( CONVERSION_BASED_UNIT ( 'INCH', #36 ) LENGTH_UNIT ( ) NAMED_UNIT ( #44 ) );
#195 = DIRECTION ( 'NONE',  ( 3.378335997647870959E-17, 1.000000000000000000, -0.000000000000000000 ) ) ;
#196 = ADVANCED_FACE ( 'NONE', ( #293 ), #239, .T. ) ;
#197 = VERTEX_POINT ( 'NONE', #185 ) ;
#198 = PRESENTATION_STYLE_ASSIGNMENT (( #91 ) ) ;
#199 = DIRECTION ( 'NONE',  ( 0.000000000000000000, 0.000000000000000000, -1.000000000000000000 ) ) ;
#200 = AXIS2_PLACEMENT_3D ( 'NONE', #101, #175, #284 ) ;
#201 = DIRECTION ( 'NONE',  ( 0.000000000000000000, -1.000000000000000000, -0.000000000000000000 ) ) ;
#202 = PRESENTATION_STYLE_ASSIGNMENT (( #355 ) ) ;
#203 = DIRECTION ( 'NONE',  ( -0.000000000000000000, -1.000000000000000000, -0.000000000000000000 ) ) ;
#204 =( NAMED_UNIT ( * ) PLANE_ANGLE_UNIT ( ) SI_UNIT ( $, .RADIAN. ) );
#205 = CONICAL_SURFACE ( 'NONE', #286, 0.07809999999999997500, 0.3490658503988683381 ) ;
#206 = FACE_OUTER_BOUND ( 'NONE', #295, .T. ) ;
#207 = MANIFOLD_SOLID_BREP ( 'Revolve - Tool Body (Reduced Cut Diameter)', #152 ) ;
#208 = ORIENTED_EDGE ( 'NONE', *, *, #7, .F. ) ;
#209 = CARTESIAN_POINT ( 'NONE',  ( 0.000000000000000000, 0.000000000000000000, 0.000000000000000000 ) ) ;
#210 = DIRECTION ( 'NONE',  ( 0.000000000000000000, 0.000000000000000000, -1.000000000000000000 ) ) ;
#211 = DIMENSIONAL_EXPONENTS ( 1.000000000000000000, 0.000000000000000000, 0.000000000000000000, 0.000000000000000000, 0.000000000000000000, 0.000000000000000000, 0.000000000000000000 ) ;
#212 = CIRCLE ( 'NONE', #57, 0.09375000000000006939 ) ;
#213 =( GEOMETRIC_REPRESENTATION_CONTEXT ( 3 ) GLOBAL_UNCERTAINTY_ASSIGNED_CONTEXT ( ( #278 ) ) GLOBAL_UNIT_ASSIGNED_CONTEXT ( ( #188, #18, #56 ) ) REPRESENTATION_CONTEXT ( 'NONE', 'WORKASPACE' ) );
#214 = CARTESIAN_POINT ( 'NONE',  ( 0.07809999999999997500, 0.1875000000000001110, 1.052277762167363656E-17 ) ) ;
#215 = DIRECTION ( 'NONE',  ( -1.000000000000000000, 0.000000000000000000, 0.000000000000000000 ) ) ;
#216 = DIRECTION ( 'NONE',  ( 3.378335997647870959E-17, 1.000000000000000000, -0.000000000000000000 ) ) ;
#217 = PRESENTATION_STYLE_ASSIGNMENT (( #115 ) ) ;
#218 = EDGE_CURVE ( 'NONE', #259, #352, #193, .T. ) ;
#219 =( LENGTH_UNIT ( ) NAMED_UNIT ( * ) SI_UNIT ( $, .METRE. ) );
#220 = CARTESIAN_POINT ( 'NONE',  ( 0.09375000000000006939, 0.2304980216144648930, 1.148106374200644633E-17 ) ) ;
#221 = FACE_OUTER_BOUND ( 'NONE', #322, .T. ) ;
#222 = CARTESIAN_POINT ( 'NONE',  ( 0.09375000000000006939, 2.000000000000000000, 1.148106374200644325E-17 ) ) ;
#223 = FILL_AREA_STYLE_COLOUR ( '', #143 ) ;
#224 = AXIS2_PLACEMENT_3D ( 'NONE', #264, #138, #113 ) ;
#225 = UNCERTAINTY_MEASURE_WITH_UNIT (LENGTH_MEASURE( 1.000000000000000082E-05 ), #277, 'distance_accuracy_value', 'NONE');
#226 = LENGTH_MEASURE_WITH_UNIT ( LENGTH_MEASURE( 0.02539999999999999897 ), #67 );
#227 = DIRECTION ( 'NONE',  ( -1.000000000000000000, 0.000000000000000000, 0.000000000000000000 ) ) ;
#228 = APPLICATION_PROTOCOL_DEFINITION ( 'draft international standard', 'automotive_design', 1998, #129 ) ;
#229 = DIRECTION ( 'NONE',  ( 3.378335997647870959E-17, 1.000000000000000000, -0.000000000000000000 ) ) ;
#230 = UNCERTAINTY_MEASURE_WITH_UNIT (LENGTH_MEASURE( 1.000000000000000082E-05 ), #25, 'distance_accuracy_value', 'NONE');
#231 =( LENGTH_UNIT ( ) NAMED_UNIT ( * ) SI_UNIT ( $, .METRE. ) );
#232 = ADVANCED_BREP_SHAPE_REPRESENTATION ( '30047', ( #318, #207, #64 ), #9 ) ;
#233 = CARTESIAN_POINT ( 'NONE',  ( 0.000000000000000000, 0.000000000000000000, -0.07809999999999997500 ) ) ;
#234 = SURFACE_SIDE_STYLE ('',( #349 ) ) ;
#235 = STYLED_ITEM ( 'NONE', ( #250 ), #72 ) ;
#236 = COLOUR_RGB ( '',0.7921568627450980005, 0.8196078431372548767, 0.9333333333333333481 ) ;
#237 = CARTESIAN_POINT ( 'NONE',  ( 6.123233995736766036E-17, 2.000000000000000000, 0.000000000000000000 ) ) ;
#238 = ORIENTED_EDGE ( 'NONE', *, *, #162, .F. ) ;
#239 = CYLINDRICAL_SURFACE ( 'NONE', #17, 0.09375000000000004163 ) ;
#240 = ORIENTED_EDGE ( 'NONE', *, *, #73, .T. ) ;
#241 = MECHANICAL_DESIGN_GEOMETRIC_PRESENTATION_REPRESENTATION (  '', ( #63 ), #255 ) ;
#242 = CARTESIAN_POINT ( 'NONE',  ( 0.000000000000000000, 0.1875000000000001110, 0.000000000000000000 ) ) ;
#243 = FILL_AREA_STYLE ('',( #223 ) ) ;
#244 = ORIENTED_EDGE ( 'NONE', *, *, #326, .F. ) ;
#245 = CARTESIAN_POINT ( 'NONE',  ( 0.09375000000000006939, 2.000000000000000000, 0.000000000000000000 ) ) ;
#246 =( NAMED_UNIT ( * ) SI_UNIT ( $, .STERADIAN. ) SOLID_ANGLE_UNIT ( ) );
#247 = ORIENTED_EDGE ( 'NONE', *, *, #283, .F. ) ;
#248 = PRESENTATION_LAYER_ASSIGNMENT (  '', '', ( #75 ) ) ;
#249 = LINE ( 'NONE', #306, #308 ) ;
#250 = PRESENTATION_STYLE_ASSIGNMENT (( #45 ) ) ;
#251 =( NAMED_UNIT ( * ) PLANE_ANGLE_UNIT ( ) SI_UNIT ( $, .RADIAN. ) );
#252 = DIRECTION ( 'NONE',  ( 3.378335997647870959E-17, 1.000000000000000000, -0.000000000000000000 ) ) ;
#253 =( NAMED_UNIT ( * ) SI_UNIT ( $, .STERADIAN. ) SOLID_ANGLE_UNIT ( ) );
#254 = ADVANCED_FACE ( 'NONE', ( #319 ), #205, .T. ) ;
#255 =( GEOMETRIC_REPRESENTATION_CONTEXT ( 3 ) GLOBAL_UNCERTAINTY_ASSIGNED_CONTEXT ( ( #225 ) ) GLOBAL_UNIT_ASSIGNED_CONTEXT ( ( #277, #33, #43 ) ) REPRESENTATION_CONTEXT ( 'NONE', 'WORKASPACE' ) );
#256 = PRODUCT_DEFINITION_FORMATION_WITH_SPECIFIED_SOURCE ( 'ANY', '', #130, .NOT_KNOWN. ) ;
#257 = CARTESIAN_POINT ( 'NONE',  ( 6.123233995736766036E-17, 2.000000000000000000, 0.000000000000000000 ) ) ;
#258 = CARTESIAN_POINT ( 'NONE',  ( 0.000000000000000000, 0.1874999999999999722, -0.07809999999999997500 ) ) ;
#259 = VERTEX_POINT ( 'NONE', #160 ) ;
#260 = DIRECTION ( 'NONE',  ( -1.000000000000000000, 0.000000000000000000, 0.000000000000000000 ) ) ;
#261 = DIRECTION ( 'NONE',  ( -1.000000000000000000, 0.000000000000000000, 0.000000000000000000 ) ) ;
#262 = VERTEX_POINT ( 'NONE', #343 ) ;
#263 = PRODUCT_DEFINITION_CONTEXT ( 'detailed design', #35, 'design' ) ;
#264 = CARTESIAN_POINT ( 'NONE',  ( 0.000000000000000000, 0.1874999999999999722, 0.000000000000000000 ) ) ;
#265 = EDGE_CURVE ( 'NONE', #180, #302, #106, .T. ) ;
#266 = MECHANICAL_DESIGN_GEOMETRIC_PRESENTATION_REPRESENTATION (  '', ( #75 ), #30 ) ;
#267 = FACE_OUTER_BOUND ( 'NONE', #153, .T. ) ;
#268 = ORIENTED_EDGE ( 'NONE', *, *, #154, .T. ) ;
#269 = ORIENTED_EDGE ( 'NONE', *, *, #55, .F. ) ;
#270 = DIRECTION ( 'NONE',  ( 1.000000000000000000, -3.378335997647870959E-17, 0.000000000000000000 ) ) ;
#271 = EDGE_LOOP ( 'NONE', ( #146, #22, #208, #2 ) ) ;
#272 = EDGE_CURVE ( 'NONE', #150, #197, #140, .T. ) ;
#273 = COLOUR_RGB ( '',1.000000000000000000, 0.000000000000000000, 0.000000000000000000 ) ;
#274 = CIRCLE ( 'NONE', #353, 0.07809999999999997500 ) ;
#275 =( LENGTH_UNIT ( ) NAMED_UNIT ( * ) SI_UNIT ( $, .METRE. ) );
#276 = CARTESIAN_POINT ( 'NONE',  ( 9.564491501340826783E-18, 0.000000000000000000, 0.07809999999999997500 ) ) ;
#277 =( CONVERSION_BASED_UNIT ( 'INCH', #167 ) LENGTH_UNIT ( ) NAMED_UNIT ( #289 ) );
#278 = UNCERTAINTY_MEASURE_WITH_UNIT (LENGTH_MEASURE( 1.000000000000000082E-05 ), #188, 'distance_accuracy_value', 'NONE');
#279 = FACE_OUTER_BOUND ( 'NONE', #26, .T. ) ;
#280 = CIRCLE ( 'NONE', #294, 0.07810000000000000275 ) ;
#281 = ADVANCED_FACE ( 'NONE', ( #291 ), #181, .T. ) ;
#282 = DIRECTION ( 'NONE',  ( -1.000000000000000000, 0.000000000000000000, 0.000000000000000000 ) ) ;
#283 = EDGE_CURVE ( 'NONE', #180, #114, #99, .T. ) ;
#284 = DIRECTION ( 'NONE',  ( 0.000000000000000000, 0.000000000000000000, -1.000000000000000000 ) ) ;
#285 = COLOUR_RGB ( '',1.000000000000000000, 0.000000000000000000, 0.000000000000000000 ) ;
#286 = AXIS2_PLACEMENT_3D ( 'NONE', #242, #316, #81 ) ;
#287 = ADVANCED_FACE ( 'NONE', ( #331 ), #61, .F. ) ;
#288 = DIRECTION ( 'NONE',  ( -1.000000000000000000, 0.000000000000000000, 0.000000000000000000 ) ) ;
#289 = DIMENSIONAL_EXPONENTS ( 1.000000000000000000, 0.000000000000000000, 0.000000000000000000, 0.000000000000000000, 0.000000000000000000, 0.000000000000000000, 0.000000000000000000 ) ;
#290 = ORIENTED_EDGE ( 'NONE', *, *, #356, .F. ) ;
#291 = FACE_OUTER_BOUND ( 'NONE', #350, .T. ) ;
#292 = DIMENSIONAL_EXPONENTS ( 1.000000000000000000, 0.000000000000000000, 0.000000000000000000, 0.000000000000000000, 0.000000000000000000, 0.000000000000000000, 0.000000000000000000 ) ;
#293 = FACE_OUTER_BOUND ( 'NONE', #27, .T. ) ;
#294 = AXIS2_PLACEMENT_3D ( 'NONE', #28, #359, #121 ) ;
#295 = EDGE_LOOP ( 'NONE', ( #269, #20, #323, #345 ) ) ;
#296 = CARTESIAN_POINT ( 'NONE',  ( 0.000000000000000000, 0.1875000000000001110, 0.000000000000000000 ) ) ;
#297 = ORIENTED_EDGE ( 'NONE', *, *, #265, .F. ) ;
#298 = ORIENTED_EDGE ( 'NONE', *, *, #315, .T. ) ;
#299 = DIRECTION ( 'NONE',  ( 3.378335997647870959E-17, 1.000000000000000000, -0.000000000000000000 ) ) ;
#300 = AXIS2_PLACEMENT_3D ( 'NONE', #245, #164, #270 ) ;
#301 = ORIENTED_EDGE ( 'NONE', *, *, #100, .T. ) ;
#302 = VERTEX_POINT ( 'NONE', #220 ) ;
#303 =( NAMED_UNIT ( * ) SI_UNIT ( $, .STERADIAN. ) SOLID_ANGLE_UNIT ( ) );
#304 =( LENGTH_UNIT ( ) NAMED_UNIT ( * ) SI_UNIT ( $, .METRE. ) );
#305 = MECHANICAL_DESIGN_GEOMETRIC_PRESENTATION_REPRESENTATION (  '', ( #183 ), #213 ) ;
#306 = CARTESIAN_POINT ( 'NONE',  ( -0.09374999999999997224, 2.000000000000000000, 0.000000000000000000 ) ) ;
#307 = COLOUR_RGB ( '',1.000000000000000000, 0.000000000000000000, 0.000000000000000000 ) ;
#308 = VECTOR ( 'NONE', #252, 39.37007874015748143 ) ;
#309 = FILL_AREA_STYLE ('',( #126 ) ) ;
#310 = DIRECTION ( 'NONE',  ( 3.378335997647870959E-17, 1.000000000000000000, -0.000000000000000000 ) ) ;
#311 = DIRECTION ( 'NONE',  ( 1.000000000000000000, 0.000000000000000000, 0.000000000000000000 ) ) ;
#312 = CARTESIAN_POINT ( 'NONE',  ( -0.07809999999999997500, 0.1875000000000001110, 0.000000000000000000 ) ) ;
#313 = VECTOR ( 'NONE', #125, 39.37007874015748854 ) ;
#314 = VECTOR ( 'NONE', #179, 39.37007874015748143 ) ;
#315 = EDGE_CURVE ( 'NONE', #262, #189, #280, .T. ) ;
#316 = DIRECTION ( 'NONE',  ( 3.378335997647870959E-17, 1.000000000000000000, -0.000000000000000000 ) ) ;
#317 = ORIENTED_EDGE ( 'NONE', *, *, #283, .T. ) ;
#318 = MANIFOLD_SOLID_BREP ( 'Revolve - Cutting Edge', #191 ) ;
#319 = FACE_OUTER_BOUND ( 'NONE', #271, .T. ) ;
#320 = STYLED_ITEM ( 'NONE', ( #88 ), #10 ) ;
#321 = AXIS2_PLACEMENT_3D ( 'NONE', #346, #85, #19 ) ;
#322 = EDGE_LOOP ( 'NONE', ( #244, #348, #268, #11 ) ) ;
#323 = ORIENTED_EDGE ( 'NONE', *, *, #356, .T. ) ;
#324 = LENGTH_MEASURE_WITH_UNIT ( LENGTH_MEASURE( 0.02539999999999999897 ), #219 );
#325 = SURFACE_SIDE_STYLE ('',( #95 ) ) ;
#326 = EDGE_CURVE ( 'NONE', #197, #262, #124, .T. ) ;
#327 =( CONVERSION_BASED_UNIT ( 'INCH', #226 ) LENGTH_UNIT ( ) NAMED_UNIT ( #135 ) );
#328 = CYLINDRICAL_SURFACE ( 'NONE', #93, 0.07809999999999997500 ) ;
#329 =( LENGTH_UNIT ( ) NAMED_UNIT ( * ) SI_UNIT ( $, .METRE. ) );
#330 = COLOUR_RGB ( '',1.000000000000000000, 0.000000000000000000, 0.000000000000000000 ) ;
#331 = FACE_OUTER_BOUND ( 'NONE', #139, .T. ) ;
#332 = CARTESIAN_POINT ( 'NONE',  ( 0.000000000000000000, 0.000000000000000000, 0.000000000000000000 ) ) ;
#333 = UNCERTAINTY_MEASURE_WITH_UNIT (LENGTH_MEASURE( 1.000000000000000082E-05 ), #71, 'distance_accuracy_value', 'NONE');
#334 = LENGTH_MEASURE_WITH_UNIT ( LENGTH_MEASURE( 0.02539999999999999897 ), #275 );
#335 = AXIS2_PLACEMENT_3D ( 'NONE', #237, #347, #261 ) ;
#336 = CARTESIAN_POINT ( 'NONE',  ( 0.000000000000000000, 0.000000000000000000, 0.000000000000000000 ) ) ;
#337 = DIRECTION ( 'NONE',  ( -1.000000000000000000, 0.000000000000000000, 0.000000000000000000 ) ) ;
#338 = DIMENSIONAL_EXPONENTS ( 1.000000000000000000, 0.000000000000000000, 0.000000000000000000, 0.000000000000000000, 0.000000000000000000, 0.000000000000000000, 0.000000000000000000 ) ;
#339 = CARTESIAN_POINT ( 'NONE',  ( 0.000000000000000000, 0.1874999999999999722, 0.000000000000000000 ) ) ;
#340 = SURFACE_SIDE_STYLE ('',( #102 ) ) ;
#341 = DIMENSIONAL_EXPONENTS ( 1.000000000000000000, 0.000000000000000000, 0.000000000000000000, 0.000000000000000000, 0.000000000000000000, 0.000000000000000000, 0.000000000000000000 ) ;
#342 = AXIS2_PLACEMENT_3D ( 'NONE', #354, #34, #89 ) ;
#343 = CARTESIAN_POINT ( 'NONE',  ( 9.564491501340828324E-18, 0.000000000000000000, 0.07810000000000000275 ) ) ;
#344 = ADVANCED_FACE ( 'NONE', ( #357 ), #104, .T. ) ;
#345 = ORIENTED_EDGE ( 'NONE', *, *, #107, .F. ) ;
#346 = CARTESIAN_POINT ( 'NONE',  ( 4.456836681127840668E-35, 0.1874999999999999722, 0.000000000000000000 ) ) ;
#347 = DIRECTION ( 'NONE',  ( 3.378335997647870959E-17, 1.000000000000000000, -0.000000000000000000 ) ) ;
#348 = ORIENTED_EDGE ( 'NONE', *, *, #134, .T. ) ;
#349 = SURFACE_STYLE_FILL_AREA ( #21 ) ;
#350 = EDGE_LOOP ( 'NONE', ( #137, #53 ) ) ;
#351 = SURFACE_SIDE_STYLE ('',( #50 ) ) ;
#352 = VERTEX_POINT ( 'NONE', #222 ) ;
#353 = AXIS2_PLACEMENT_3D ( 'NONE', #296, #216, #260 ) ;
#354 = CARTESIAN_POINT ( 'NONE',  ( 0.000000000000000000, 0.1874999999999999722, 0.000000000000000000 ) ) ;
#355 = SURFACE_STYLE_USAGE ( .BOTH. , #163 ) ;
#356 = EDGE_CURVE ( 'NONE', #190, #259, #249, .T. ) ;
#357 = FACE_OUTER_BOUND ( 'NONE', #84, .T. ) ;
#358 = SURFACE_STYLE_USAGE ( .BOTH. , #169 ) ;
#359 = DIRECTION ( 'NONE',  ( -0.000000000000000000, -1.000000000000000000, -0.000000000000000000 ) ) ;
ENDSEC;
END-ISO-10303-21;
