ISO-10303-21;
HEADER;
FILE_DESCRIPTION (( 'STEP AP214' ),
    '1' );
FILE_NAME ('82852.STEP',
    '2023-06-23T06:53:06',
    ( '' ),
    ( '' ),
    'SwSTEP 2.0',
    'SolidWorks 2023',
    '' );
FILE_SCHEMA (( 'AUTOMOTIVE_DESIGN' ));
ENDSEC;

DATA;
#1 = AXIS2_PLACEMENT_3D ( 'NONE', #152, #86, #203 ) ;
#2 = EDGE_LOOP ( 'NONE', ( #286, #215 ) ) ;
#3 =( NAMED_UNIT ( * ) SI_UNIT ( $, .STERADIAN. ) SOLID_ANGLE_UNIT ( ) );
#4 = FILL_AREA_STYLE ('',( #199 ) ) ;
#5 = AXIS2_PLACEMENT_3D ( 'NONE', #115, #209, #161 ) ;
#6 = EDGE_CURVE ( 'NONE', #117, #241, #11, .T. ) ;
#7 =( NAMED_UNIT ( * ) PLANE_ANGLE_UNIT ( ) SI_UNIT ( $, .RADIAN. ) );
#8 =( LENGTH_UNIT ( ) NAMED_UNIT ( * ) SI_UNIT ( $, .METRE. ) );
#9 = SURFACE_STYLE_USAGE ( .BOTH. , #276 ) ;
#10 = DIRECTION ( 'NONE',  ( 0.000000000000000000, 0.000000000000000000, -1.000000000000000000 ) ) ;
#11 = CIRCLE ( 'NONE', #298, 0.09375000000000001388 ) ;
#12 =( GEOMETRIC_REPRESENTATION_CONTEXT ( 3 ) GLOBAL_UNCERTAINTY_ASSIGNED_CONTEXT ( ( #87 ) ) GLOBAL_UNIT_ASSIGNED_CONTEXT ( ( #278, #20, #211 ) ) REPRESENTATION_CONTEXT ( 'NONE', 'WORKASPACE' ) );
#13 =( NAMED_UNIT ( * ) SI_UNIT ( $, .STERADIAN. ) SOLID_ANGLE_UNIT ( ) );
#14 = DIRECTION ( 'NONE',  ( -0.000000000000000000, -1.000000000000000000, -0.000000000000000000 ) ) ;
#15 = DIRECTION ( 'NONE',  ( -3.378335997647874040E-17, 1.000000000000000000, -0.000000000000000000 ) ) ;
#16 = COLOUR_RGB ( '',1.000000000000000000, 0.000000000000000000, 0.000000000000000000 ) ;
#17 = CARTESIAN_POINT ( 'NONE',  ( 7.582401355855259480E-33, 1.187499999999999778, 0.000000000000000000 ) ) ;
#18 = CARTESIAN_POINT ( 'NONE',  ( -6.123233995736772199E-17, 3.000000000000000444, 0.000000000000000000 ) ) ;
#19 = ORIENTED_EDGE ( 'NONE', *, *, #6, .T. ) ;
#20 =( NAMED_UNIT ( * ) PLANE_ANGLE_UNIT ( ) SI_UNIT ( $, .RADIAN. ) );
#21 = ADVANCED_FACE ( 'NONE', ( #61 ), #231, .T. ) ;
#22 = VERTEX_POINT ( 'NONE', #107 ) ;
#23 = CARTESIAN_POINT ( 'NONE',  ( 0.000000000000000000, 0.000000000000000000, -0.09375000000000001388 ) ) ;
#24 = AXIS2_PLACEMENT_3D ( 'NONE', #17, #156, #141 ) ;
#25 = APPLICATION_CONTEXT ( 'automotive_design' ) ;
#26 = LINE ( 'NONE', #309, #183 ) ;
#27 = EDGE_LOOP ( 'NONE', ( #217, #53 ) ) ;
#28 = EDGE_CURVE ( 'NONE', #22, #135, #70, .T. ) ;
#29 = SURFACE_SIDE_STYLE ('',( #172 ) ) ;
#30 = VERTEX_POINT ( 'NONE', #130 ) ;
#31 = SURFACE_STYLE_USAGE ( .BOTH. , #146 ) ;
#32 = SURFACE_STYLE_FILL_AREA ( #224 ) ;
#33 =( GEOMETRIC_REPRESENTATION_CONTEXT ( 3 ) GLOBAL_UNCERTAINTY_ASSIGNED_CONTEXT ( ( #270 ) ) GLOBAL_UNIT_ASSIGNED_CONTEXT ( ( #232, #7, #175 ) ) REPRESENTATION_CONTEXT ( 'NONE', 'WORKASPACE' ) );
#34 = CIRCLE ( 'NONE', #176, 0.09375000000000006939 ) ;
#35 = APPLICATION_PROTOCOL_DEFINITION ( 'draft international standard', 'automotive_design', 1998, #264 ) ;
#36 = CARTESIAN_POINT ( 'NONE',  ( 0.000000000000000000, 0.000000000000000000, 0.000000000000000000 ) ) ;
#37 =( CONVERSION_BASED_UNIT ( 'INCH', #153 ) LENGTH_UNIT ( ) NAMED_UNIT ( #97 ) );
#38 = CARTESIAN_POINT ( 'NONE',  ( 0.000000000000000000, 1.187500000000000000, 0.000000000000000000 ) ) ;
#39 =( NAMED_UNIT ( * ) PLANE_ANGLE_UNIT ( ) SI_UNIT ( $, .RADIAN. ) );
#40 =( NAMED_UNIT ( * ) PLANE_ANGLE_UNIT ( ) SI_UNIT ( $, .RADIAN. ) );
#41 = VECTOR ( 'NONE', #259, 39.37007874015748143 ) ;
#42 =( LENGTH_UNIT ( ) NAMED_UNIT ( * ) SI_UNIT ( $, .METRE. ) );
#43 = CARTESIAN_POINT ( 'NONE',  ( 0.09374999999999997224, 3.000000000000000444, 1.148106374200644171E-17 ) ) ;
#44 = UNCERTAINTY_MEASURE_WITH_UNIT (LENGTH_MEASURE( 1.000000000000000082E-05 ), #71, 'distance_accuracy_value', 'NONE');
#45 = DIRECTION ( 'NONE',  ( -1.000000000000000000, -3.378335997647874040E-17, 0.000000000000000000 ) ) ;
#46 = CIRCLE ( 'NONE', #5, 0.09375000000000006939 ) ;
#47 = DIRECTION ( 'NONE',  ( -3.378335997647874040E-17, 1.000000000000000000, -0.000000000000000000 ) ) ;
#48 =( LENGTH_UNIT ( ) NAMED_UNIT ( * ) SI_UNIT ( $, .METRE. ) );
#49 = EDGE_LOOP ( 'NONE', ( #116, #73, #261, #163 ) ) ;
#50 = DIRECTION ( 'NONE',  ( -3.378335997647874040E-17, 1.000000000000000000, 0.000000000000000000 ) ) ;
#51 = CLOSED_SHELL ( 'NONE', ( #55, #246, #263, #21 ) ) ;
#52 = COLOUR_RGB ( '',0.7921568627450980005, 0.8196078431372548767, 0.9333333333333333481 ) ;
#53 = ORIENTED_EDGE ( 'NONE', *, *, #200, .F. ) ;
#54 = FILL_AREA_STYLE ('',( #243 ) ) ;
#55 = ADVANCED_FACE ( 'NONE', ( #59 ), #301, .T. ) ;
#56 = UNCERTAINTY_MEASURE_WITH_UNIT (LENGTH_MEASURE( 1.000000000000000082E-05 ), #295, 'distance_accuracy_value', 'NONE');
#57 =( CONVERSION_BASED_UNIT ( 'INCH', #177 ) LENGTH_UNIT ( ) NAMED_UNIT ( #74 ) );
#58 = EDGE_CURVE ( 'NONE', #241, #117, #292, .T. ) ;
#59 = FACE_OUTER_BOUND ( 'NONE', #140, .T. ) ;
#60 = CARTESIAN_POINT ( 'NONE',  ( -6.123233995736772199E-17, 3.000000000000000444, 0.000000000000000000 ) ) ;
#61 = FACE_OUTER_BOUND ( 'NONE', #78, .T. ) ;
#62 = AXIS2_PLACEMENT_3D ( 'NONE', #36, #82, #275 ) ;
#63 = CARTESIAN_POINT ( 'NONE',  ( 1.148106374200643863E-17, 0.000000000000000000, 0.09375000000000001388 ) ) ;
#64 = CARTESIAN_POINT ( 'NONE',  ( 5.349915990470371091E-35, 1.187500000000000000, 0.000000000000000000 ) ) ;
#65 = LINE ( 'NONE', #43, #109 ) ;
#66 = LINE ( 'NONE', #63, #41 ) ;
#67 = EDGE_LOOP ( 'NONE', ( #244, #142, #189, #213 ) ) ;
#68 = DIRECTION ( 'NONE',  ( 0.000000000000000000, 0.000000000000000000, -1.000000000000000000 ) ) ;
#69 = ORIENTED_EDGE ( 'NONE', *, *, #105, .T. ) ;
#70 = CIRCLE ( 'NONE', #137, 0.09375000000000001388 ) ;
#71 =( CONVERSION_BASED_UNIT ( 'INCH', #245 ) LENGTH_UNIT ( ) NAMED_UNIT ( #269 ) );
#72 = AXIS2_PLACEMENT_3D ( 'NONE', #64, #50, #45 ) ;
#73 = ORIENTED_EDGE ( 'NONE', *, *, #167, .T. ) ;
#74 = DIMENSIONAL_EXPONENTS ( 1.000000000000000000, 0.000000000000000000, 0.000000000000000000, 0.000000000000000000, 0.000000000000000000, 0.000000000000000000, 0.000000000000000000 ) ;
#75 = EDGE_CURVE ( 'NONE', #135, #22, #89, .T. ) ;
#76 =( CONVERSION_BASED_UNIT ( 'INCH', #289 ) LENGTH_UNIT ( ) NAMED_UNIT ( #169 ) );
#77 =( GEOMETRIC_REPRESENTATION_CONTEXT ( 3 ) GLOBAL_UNCERTAINTY_ASSIGNED_CONTEXT ( ( #56 ) ) GLOBAL_UNIT_ASSIGNED_CONTEXT ( ( #295, #39, #174 ) ) REPRESENTATION_CONTEXT ( 'NONE', 'WORKASPACE' ) );
#78 = EDGE_LOOP ( 'NONE', ( #19, #216 ) ) ;
#79 =( LENGTH_UNIT ( ) NAMED_UNIT ( * ) SI_UNIT ( $, .METRE. ) );
#80 = PRESENTATION_STYLE_ASSIGNMENT (( #84 ) ) ;
#81 = EDGE_CURVE ( 'NONE', #197, #160, #34, .T. ) ;
#82 = DIRECTION ( 'NONE',  ( -0.000000000000000000, -1.000000000000000000, -0.000000000000000000 ) ) ;
#83 = PRODUCT_RELATED_PRODUCT_CATEGORY ( 'part', '', ( #220 ) ) ;
#84 = SURFACE_STYLE_USAGE ( .BOTH. , #181 ) ;
#85 = EDGE_CURVE ( 'NONE', #30, #160, #308, .T. ) ;
#86 = DIRECTION ( 'NONE',  ( -0.000000000000000000, -1.000000000000000000, -0.000000000000000000 ) ) ;
#87 = UNCERTAINTY_MEASURE_WITH_UNIT (LENGTH_MEASURE( 1.000000000000000082E-05 ), #278, 'distance_accuracy_value', 'NONE');
#88 = STYLED_ITEM ( 'NONE', ( #80 ), #21 ) ;
#89 = CIRCLE ( 'NONE', #230, 0.09375000000000001388 ) ;
#90 = SURFACE_SIDE_STYLE ('',( #233 ) ) ;
#91 = ADVANCED_FACE ( 'NONE', ( #305 ), #186, .T. ) ;
#92 = CARTESIAN_POINT ( 'NONE',  ( 7.582401355855259480E-33, 1.187499999999999778, 0.000000000000000000 ) ) ;
#93 = EDGE_LOOP ( 'NONE', ( #69, #288 ) ) ;
#94 = STYLED_ITEM ( 'NONE', ( #121 ), #256 ) ;
#95 = DIRECTION ( 'NONE',  ( -3.378335997647874040E-17, 1.000000000000000000, -0.000000000000000000 ) ) ;
#96 = ORIENTED_EDGE ( 'NONE', *, *, #28, .T. ) ;
#97 = DIMENSIONAL_EXPONENTS ( 1.000000000000000000, 0.000000000000000000, 0.000000000000000000, 0.000000000000000000, 0.000000000000000000, 0.000000000000000000, 0.000000000000000000 ) ;
#98 = CARTESIAN_POINT ( 'NONE',  ( 1.148106374200643863E-17, 1.187500000000000000, 0.09375000000000001388 ) ) ;
#99 = FACE_OUTER_BOUND ( 'NONE', #283, .T. ) ;
#100 = ORIENTED_EDGE ( 'NONE', *, *, #58, .F. ) ;
#101 =( NAMED_UNIT ( * ) SI_UNIT ( $, .STERADIAN. ) SOLID_ANGLE_UNIT ( ) );
#102 = AXIS2_PLACEMENT_3D ( 'NONE', #145, #291, #221 ) ;
#103 =( NAMED_UNIT ( * ) PLANE_ANGLE_UNIT ( ) SI_UNIT ( $, .RADIAN. ) );
#104 = SURFACE_STYLE_USAGE ( .BOTH. , #166 ) ;
#105 = EDGE_CURVE ( 'NONE', #160, #197, #46, .T. ) ;
#106 = DIRECTION ( 'NONE',  ( -3.378335997647874040E-17, 1.000000000000000000, -0.000000000000000000 ) ) ;
#107 = CARTESIAN_POINT ( 'NONE',  ( 0.000000000000000000, 1.187500000000000000, -0.09375000000000001388 ) ) ;
#108 = COLOUR_RGB ( '',1.000000000000000000, 0.000000000000000000, 0.000000000000000000 ) ;
#109 = VECTOR ( 'NONE', #191, 39.37007874015748143 ) ;
#110 = CARTESIAN_POINT ( 'NONE',  ( 0.09375000000000001388, 1.187499999999999778, 1.148106374200644325E-17 ) ) ;
#111 = SURFACE_STYLE_FILL_AREA ( #225 ) ;
#112 = LENGTH_MEASURE_WITH_UNIT ( LENGTH_MEASURE( 0.02539999999999999897 ), #48 );
#113 = STYLED_ITEM ( 'NONE', ( #285 ), #246 ) ;
#114 = EDGE_CURVE ( 'NONE', #30, #265, #212, .T. ) ;
#115 = CARTESIAN_POINT ( 'NONE',  ( -6.123233995736772199E-17, 3.000000000000000444, 0.000000000000000000 ) ) ;
#116 = ORIENTED_EDGE ( 'NONE', *, *, #114, .T. ) ;
#117 = VERTEX_POINT ( 'NONE', #23 ) ;
#118 = VECTOR ( 'NONE', #210, 39.37007874015748143 ) ;
#119 = FACE_OUTER_BOUND ( 'NONE', #27, .T. ) ;
#120 = CARTESIAN_POINT ( 'NONE',  ( 0.000000000000000000, 0.000000000000000000, 0.000000000000000000 ) ) ;
#121 = PRESENTATION_STYLE_ASSIGNMENT (( #139 ) ) ;
#122 = PRESENTATION_LAYER_ASSIGNMENT (  '', '', ( #94 ) ) ;
#123 = FILL_AREA_STYLE ('',( #290 ) ) ;
#124 = PRESENTATION_STYLE_ASSIGNMENT (( #31 ) ) ;
#125 = CYLINDRICAL_SURFACE ( 'NONE', #202, 0.09375000000000004163 ) ;
#126 = PRESENTATION_LAYER_ASSIGNMENT (  '', '', ( #113 ) ) ;
#127 = APPLICATION_PROTOCOL_DEFINITION ( 'draft international standard', 'automotive_design', 1998, #25 ) ;
#128 =( NAMED_UNIT ( * ) SI_UNIT ( $, .STERADIAN. ) SOLID_ANGLE_UNIT ( ) );
#129 = FILL_AREA_STYLE_COLOUR ( '', #150 ) ;
#130 = CARTESIAN_POINT ( 'NONE',  ( -0.09375000000000001388, 1.187499999999999778, 0.000000000000000000 ) ) ;
#131 = PLANE ( 'NONE',  #72 ) ;
#132 = PLANE ( 'NONE',  #218 ) ;
#133 = CARTESIAN_POINT ( 'NONE',  ( 0.000000000000000000, 1.187500000000000000, 0.000000000000000000 ) ) ;
#134 = ORIENTED_EDGE ( 'NONE', *, *, #143, .T. ) ;
#135 = VERTEX_POINT ( 'NONE', #98 ) ;
#136 = DIRECTION ( 'NONE',  ( 3.378335997647874040E-17, -1.000000000000000000, 0.000000000000000000 ) ) ;
#137 = AXIS2_PLACEMENT_3D ( 'NONE', #38, #14, #180 ) ;
#138 = COLOUR_RGB ( '',1.000000000000000000, 0.000000000000000000, 0.000000000000000000 ) ;
#139 = SURFACE_STYLE_USAGE ( .BOTH. , #29 ) ;
#140 = EDGE_LOOP ( 'NONE', ( #96, #134, #173, #192 ) ) ;
#141 = DIRECTION ( 'NONE',  ( -1.000000000000000000, 0.000000000000000000, 0.000000000000000000 ) ) ;
#142 = ORIENTED_EDGE ( 'NONE', *, *, #200, .T. ) ;
#143 = EDGE_CURVE ( 'NONE', #135, #241, #66, .T. ) ;
#144 = PLANE ( 'NONE',  #102 ) ;
#145 = CARTESIAN_POINT ( 'NONE',  ( 0.000000000000000000, 1.187500000000000000, 0.000000000000000000 ) ) ;
#146 = SURFACE_SIDE_STYLE ('',( #193 ) ) ;
#147 = MANIFOLD_SOLID_BREP ( 'Revolve - Tool Body (Straight Shanked)', #228 ) ;
#148 = FILL_AREA_STYLE_COLOUR ( '', #108 ) ;
#149 = LENGTH_MEASURE_WITH_UNIT ( LENGTH_MEASURE( 0.02539999999999999897 ), #8 );
#150 = COLOUR_RGB ( '',1.000000000000000000, 0.000000000000000000, 0.000000000000000000 ) ;
#151 = UNCERTAINTY_MEASURE_WITH_UNIT (LENGTH_MEASURE( 1.000000000000000082E-05 ), #76, 'distance_accuracy_value', 'NONE');
#152 = CARTESIAN_POINT ( 'NONE',  ( 0.000000000000000000, 0.000000000000000000, 0.000000000000000000 ) ) ;
#153 = LENGTH_MEASURE_WITH_UNIT ( LENGTH_MEASURE( 0.02539999999999999897 ), #79 );
#154 =( LENGTH_UNIT ( ) NAMED_UNIT ( * ) SI_UNIT ( $, .METRE. ) );
#155 = AXIS2_PLACEMENT_3D ( 'NONE', #204, #274, #253 ) ;
#156 = DIRECTION ( 'NONE',  ( -3.378335997647874040E-17, 1.000000000000000000, -0.000000000000000000 ) ) ;
#157 = MECHANICAL_DESIGN_GEOMETRIC_PRESENTATION_REPRESENTATION (  '', ( #207 ), #187 ) ;
#158 = STYLED_ITEM ( 'NONE', ( #236 ), #147 ) ;
#159 = SURFACE_STYLE_USAGE ( .BOTH. , #90 ) ;
#160 = VERTEX_POINT ( 'NONE', #306 ) ;
#161 = DIRECTION ( 'NONE',  ( -1.000000000000000000, 0.000000000000000000, 0.000000000000000000 ) ) ;
#162 = ORIENTED_EDGE ( 'NONE', *, *, #201, .T. ) ;
#163 = ORIENTED_EDGE ( 'NONE', *, *, #85, .F. ) ;
#164 = PRESENTATION_LAYER_ASSIGNMENT (  '', '', ( #88 ) ) ;
#165 = AXIS2_PLACEMENT_3D ( 'NONE', #227, #229, #10 ) ;
#166 = SURFACE_SIDE_STYLE ('',( #195 ) ) ;
#167 = EDGE_CURVE ( 'NONE', #265, #197, #65, .T. ) ;
#168 = FACE_OUTER_BOUND ( 'NONE', #2, .T. ) ;
#169 = DIMENSIONAL_EXPONENTS ( 1.000000000000000000, 0.000000000000000000, 0.000000000000000000, 0.000000000000000000, 0.000000000000000000, 0.000000000000000000, 0.000000000000000000 ) ;
#170 = DIRECTION ( 'NONE',  ( -0.000000000000000000, -1.000000000000000000, -0.000000000000000000 ) ) ;
#171 = PRODUCT_DEFINITION_SHAPE ( 'NONE', 'NONE',  #296 ) ;
#172 = SURFACE_STYLE_FILL_AREA ( #4 ) ;
#173 = ORIENTED_EDGE ( 'NONE', *, *, #6, .F. ) ;
#174 =( NAMED_UNIT ( * ) SI_UNIT ( $, .STERADIAN. ) SOLID_ANGLE_UNIT ( ) );
#175 =( NAMED_UNIT ( * ) SI_UNIT ( $, .STERADIAN. ) SOLID_ANGLE_UNIT ( ) );
#176 = AXIS2_PLACEMENT_3D ( 'NONE', #304, #15, #258 ) ;
#177 = LENGTH_MEASURE_WITH_UNIT ( LENGTH_MEASURE( 0.02539999999999999897 ), #42 );
#178 = PRODUCT_CONTEXT ( 'NONE', #264, 'mechanical' ) ;
#179 = LENGTH_MEASURE_WITH_UNIT ( LENGTH_MEASURE( 0.02539999999999999897 ), #154 );
#180 = DIRECTION ( 'NONE',  ( 0.000000000000000000, 0.000000000000000000, -1.000000000000000000 ) ) ;
#181 = SURFACE_SIDE_STYLE ('',( #111 ) ) ;
#182 = PRESENTATION_LAYER_ASSIGNMENT (  '', '', ( #207 ) ) ;
#183 = VECTOR ( 'NONE', #170, 39.37007874015748143 ) ;
#184 = CARTESIAN_POINT ( 'NONE',  ( -0.09375000000000011102, 3.000000000000000444, 0.000000000000000000 ) ) ;
#185 = UNCERTAINTY_MEASURE_WITH_UNIT (LENGTH_MEASURE( 1.000000000000000082E-05 ), #57, 'distance_accuracy_value', 'NONE');
#186 = CYLINDRICAL_SURFACE ( 'NONE', #223, 0.09375000000000004163 ) ;
#187 =( GEOMETRIC_REPRESENTATION_CONTEXT ( 3 ) GLOBAL_UNCERTAINTY_ASSIGNED_CONTEXT ( ( #185 ) ) GLOBAL_UNIT_ASSIGNED_CONTEXT ( ( #57, #40, #128 ) ) REPRESENTATION_CONTEXT ( 'NONE', 'WORKASPACE' ) );
#188 =( GEOMETRIC_REPRESENTATION_CONTEXT ( 3 ) GLOBAL_UNCERTAINTY_ASSIGNED_CONTEXT ( ( #151 ) ) GLOBAL_UNIT_ASSIGNED_CONTEXT ( ( #76, #268, #101 ) ) REPRESENTATION_CONTEXT ( 'NONE', 'WORKASPACE' ) );
#189 = ORIENTED_EDGE ( 'NONE', *, *, #85, .T. ) ;
#190 = ADVANCED_FACE ( 'NONE', ( #119 ), #131, .F. ) ;
#191 = DIRECTION ( 'NONE',  ( -3.378335997647874040E-17, 1.000000000000000000, -0.000000000000000000 ) ) ;
#192 = ORIENTED_EDGE ( 'NONE', *, *, #201, .F. ) ;
#193 = SURFACE_STYLE_FILL_AREA ( #123 ) ;
#194 = DIMENSIONAL_EXPONENTS ( 1.000000000000000000, 0.000000000000000000, 0.000000000000000000, 0.000000000000000000, 0.000000000000000000, 0.000000000000000000, 0.000000000000000000 ) ;
#195 = SURFACE_STYLE_FILL_AREA ( #54 ) ;
#196 = ADVANCED_FACE ( 'NONE', ( #257 ), #132, .F. ) ;
#197 = VERTEX_POINT ( 'NONE', #214 ) ;
#198 = PRESENTATION_LAYER_ASSIGNMENT (  '', '', ( #240 ) ) ;
#199 = FILL_AREA_STYLE_COLOUR ( '', #52 ) ;
#200 = EDGE_CURVE ( 'NONE', #265, #30, #249, .T. ) ;
#201 = EDGE_CURVE ( 'NONE', #22, #117, #26, .T. ) ;
#202 = AXIS2_PLACEMENT_3D ( 'NONE', #60, #106, #271 ) ;
#203 = DIRECTION ( 'NONE',  ( 0.000000000000000000, 0.000000000000000000, -1.000000000000000000 ) ) ;
#204 = CARTESIAN_POINT ( 'NONE',  ( 0.000000000000000000, 0.000000000000000000, 0.000000000000000000 ) ) ;
#205 = DIRECTION ( 'NONE',  ( -0.000000000000000000, -1.000000000000000000, -0.000000000000000000 ) ) ;
#206 = FILL_AREA_STYLE ('',( #284 ) ) ;
#207 = STYLED_ITEM ( 'NONE', ( #251 ), #55 ) ;
#208 = MECHANICAL_DESIGN_GEOMETRIC_PRESENTATION_REPRESENTATION (  '', ( #158 ), #12 ) ;
#209 = DIRECTION ( 'NONE',  ( -3.378335997647874040E-17, 1.000000000000000000, -0.000000000000000000 ) ) ;
#210 = DIRECTION ( 'NONE',  ( -3.378335997647874040E-17, 1.000000000000000000, -0.000000000000000000 ) ) ;
#211 =( NAMED_UNIT ( * ) SI_UNIT ( $, .STERADIAN. ) SOLID_ANGLE_UNIT ( ) );
#212 = CIRCLE ( 'NONE', #302, 0.09375000000000001388 ) ;
#213 = ORIENTED_EDGE ( 'NONE', *, *, #81, .F. ) ;
#214 = CARTESIAN_POINT ( 'NONE',  ( 0.09375000000000001388, 3.000000000000000444, 1.148106374200644325E-17 ) ) ;
#215 = ORIENTED_EDGE ( 'NONE', *, *, #75, .F. ) ;
#216 = ORIENTED_EDGE ( 'NONE', *, *, #58, .T. ) ;
#217 = ORIENTED_EDGE ( 'NONE', *, *, #114, .F. ) ;
#218 = AXIS2_PLACEMENT_3D ( 'NONE', #280, #136, #239 ) ;
#219 =( LENGTH_UNIT ( ) NAMED_UNIT ( * ) SI_UNIT ( $, .METRE. ) );
#220 = PRODUCT ( '82852', '82852', '', ( #178 ) ) ;
#221 = DIRECTION ( 'NONE',  ( 0.000000000000000000, -0.000000000000000000, 1.000000000000000000 ) ) ;
#222 = MECHANICAL_DESIGN_GEOMETRIC_PRESENTATION_REPRESENTATION (  '', ( #88 ), #33 ) ;
#223 = AXIS2_PLACEMENT_3D ( 'NONE', #18, #47, #303 ) ;
#224 = FILL_AREA_STYLE ('',( #129 ) ) ;
#225 = FILL_AREA_STYLE ('',( #148 ) ) ;
#226 = UNCERTAINTY_MEASURE_WITH_UNIT (LENGTH_MEASURE( 1.000000000000000082E-05 ), #37, 'distance_accuracy_value', 'NONE');
#227 = CARTESIAN_POINT ( 'NONE',  ( 0.000000000000000000, 0.000000000000000000, 0.000000000000000000 ) ) ;
#228 = CLOSED_SHELL ( 'NONE', ( #279, #190, #91, #196 ) ) ;
#229 = DIRECTION ( 'NONE',  ( -0.000000000000000000, -1.000000000000000000, -0.000000000000000000 ) ) ;
#230 = AXIS2_PLACEMENT_3D ( 'NONE', #133, #237, #68 ) ;
#231 = PLANE ( 'NONE',  #252 ) ;
#232 =( CONVERSION_BASED_UNIT ( 'INCH', #179 ) LENGTH_UNIT ( ) NAMED_UNIT ( #194 ) );
#233 = SURFACE_STYLE_FILL_AREA ( #206 ) ;
#234 = PRODUCT_DEFINITION_CONTEXT ( 'detailed design', #25, 'design' ) ;
#235 =( GEOMETRIC_REPRESENTATION_CONTEXT ( 3 ) GLOBAL_UNCERTAINTY_ASSIGNED_CONTEXT ( ( #44 ) ) GLOBAL_UNIT_ASSIGNED_CONTEXT ( ( #71, #103, #3 ) ) REPRESENTATION_CONTEXT ( 'NONE', 'WORKASPACE' ) );
#236 = PRESENTATION_STYLE_ASSIGNMENT (( #159 ) ) ;
#237 = DIRECTION ( 'NONE',  ( -0.000000000000000000, -1.000000000000000000, -0.000000000000000000 ) ) ;
#238 = ORIENTED_EDGE ( 'NONE', *, *, #75, .T. ) ;
#239 = DIRECTION ( 'NONE',  ( 1.000000000000000000, 3.378335997647874040E-17, 0.000000000000000000 ) ) ;
#240 = STYLED_ITEM ( 'NONE', ( #124 ), #263 ) ;
#241 = VERTEX_POINT ( 'NONE', #262 ) ;
#242 = DIMENSIONAL_EXPONENTS ( 1.000000000000000000, 0.000000000000000000, 0.000000000000000000, 0.000000000000000000, 0.000000000000000000, 0.000000000000000000, 0.000000000000000000 ) ;
#243 = FILL_AREA_STYLE_COLOUR ( '', #138 ) ;
#244 = ORIENTED_EDGE ( 'NONE', *, *, #167, .F. ) ;
#245 = LENGTH_MEASURE_WITH_UNIT ( LENGTH_MEASURE( 0.02539999999999999897 ), #287 );
#246 = ADVANCED_FACE ( 'NONE', ( #168 ), #144, .T. ) ;
#247 = DIMENSIONAL_EXPONENTS ( 1.000000000000000000, 0.000000000000000000, 0.000000000000000000, 0.000000000000000000, 0.000000000000000000, 0.000000000000000000, 0.000000000000000000 ) ;
#248 = DIRECTION ( 'NONE',  ( 0.000000000000000000, 0.000000000000000000, -1.000000000000000000 ) ) ;
#249 = CIRCLE ( 'NONE', #24, 0.09375000000000001388 ) ;
#250 = FACE_OUTER_BOUND ( 'NONE', #49, .T. ) ;
#251 = PRESENTATION_STYLE_ASSIGNMENT (( #9 ) ) ;
#252 = AXIS2_PLACEMENT_3D ( 'NONE', #272, #255, #248 ) ;
#253 = DIRECTION ( 'NONE',  ( 1.000000000000000000, 0.000000000000000000, 0.000000000000000000 ) ) ;
#254 = PRESENTATION_LAYER_ASSIGNMENT (  '', '', ( #158 ) ) ;
#255 = DIRECTION ( 'NONE',  ( 0.000000000000000000, -1.000000000000000000, -0.000000000000000000 ) ) ;
#256 = MANIFOLD_SOLID_BREP ( 'Revolve - Cutting Edge', #51 ) ;
#257 = FACE_OUTER_BOUND ( 'NONE', #93, .T. ) ;
#258 = DIRECTION ( 'NONE',  ( -1.000000000000000000, 0.000000000000000000, 0.000000000000000000 ) ) ;
#259 = DIRECTION ( 'NONE',  ( -0.000000000000000000, -1.000000000000000000, -0.000000000000000000 ) ) ;
#260 = ORIENTED_EDGE ( 'NONE', *, *, #143, .F. ) ;
#261 = ORIENTED_EDGE ( 'NONE', *, *, #105, .F. ) ;
#262 = CARTESIAN_POINT ( 'NONE',  ( 1.148106374200643863E-17, 0.000000000000000000, 0.09375000000000001388 ) ) ;
#263 = ADVANCED_FACE ( 'NONE', ( #99 ), #266, .T. ) ;
#264 = APPLICATION_CONTEXT ( 'automotive_design' ) ;
#265 = VERTEX_POINT ( 'NONE', #110 ) ;
#266 = CYLINDRICAL_SURFACE ( 'NONE', #165, 0.09375000000000001388 ) ;
#267 = MECHANICAL_DESIGN_GEOMETRIC_PRESENTATION_REPRESENTATION (  '', ( #94 ), #188 ) ;
#268 =( NAMED_UNIT ( * ) PLANE_ANGLE_UNIT ( ) SI_UNIT ( $, .RADIAN. ) );
#269 = DIMENSIONAL_EXPONENTS ( 1.000000000000000000, 0.000000000000000000, 0.000000000000000000, 0.000000000000000000, 0.000000000000000000, 0.000000000000000000, 0.000000000000000000 ) ;
#270 = UNCERTAINTY_MEASURE_WITH_UNIT (LENGTH_MEASURE( 1.000000000000000082E-05 ), #232, 'distance_accuracy_value', 'NONE');
#271 = DIRECTION ( 'NONE',  ( -1.000000000000000000, 0.000000000000000000, 0.000000000000000000 ) ) ;
#272 = CARTESIAN_POINT ( 'NONE',  ( 0.000000000000000000, 0.000000000000000000, 0.000000000000000000 ) ) ;
#273 =( GEOMETRIC_REPRESENTATION_CONTEXT ( 3 ) GLOBAL_UNCERTAINTY_ASSIGNED_CONTEXT ( ( #226 ) ) GLOBAL_UNIT_ASSIGNED_CONTEXT ( ( #37, #297, #13 ) ) REPRESENTATION_CONTEXT ( 'NONE', 'WORKASPACE' ) );
#274 = DIRECTION ( 'NONE',  ( 0.000000000000000000, 0.000000000000000000, 1.000000000000000000 ) ) ;
#275 = DIRECTION ( 'NONE',  ( 0.000000000000000000, 0.000000000000000000, -1.000000000000000000 ) ) ;
#276 = SURFACE_SIDE_STYLE ('',( #32 ) ) ;
#277 = MECHANICAL_DESIGN_GEOMETRIC_PRESENTATION_REPRESENTATION (  '', ( #240 ), #273 ) ;
#278 =( CONVERSION_BASED_UNIT ( 'INCH', #112 ) LENGTH_UNIT ( ) NAMED_UNIT ( #247 ) );
#279 = ADVANCED_FACE ( 'NONE', ( #250 ), #125, .T. ) ;
#280 = CARTESIAN_POINT ( 'NONE',  ( 0.09375000000000001388, 3.000000000000000444, 0.000000000000000000 ) ) ;
#281 = DIRECTION ( 'NONE',  ( -1.000000000000000000, 0.000000000000000000, 0.000000000000000000 ) ) ;
#282 = MECHANICAL_DESIGN_GEOMETRIC_PRESENTATION_REPRESENTATION (  '', ( #113 ), #235 ) ;
#283 = EDGE_LOOP ( 'NONE', ( #260, #238, #162, #100 ) ) ;
#284 = FILL_AREA_STYLE_COLOUR ( '', #307 ) ;
#285 = PRESENTATION_STYLE_ASSIGNMENT (( #104 ) ) ;
#286 = ORIENTED_EDGE ( 'NONE', *, *, #28, .F. ) ;
#287 =( LENGTH_UNIT ( ) NAMED_UNIT ( * ) SI_UNIT ( $, .METRE. ) );
#288 = ORIENTED_EDGE ( 'NONE', *, *, #81, .T. ) ;
#289 = LENGTH_MEASURE_WITH_UNIT ( LENGTH_MEASURE( 0.02539999999999999897 ), #219 );
#290 = FILL_AREA_STYLE_COLOUR ( '', #16 ) ;
#291 = DIRECTION ( 'NONE',  ( 0.000000000000000000, 1.000000000000000000, 0.000000000000000000 ) ) ;
#292 = CIRCLE ( 'NONE', #1, 0.09375000000000001388 ) ;
#293 = PRODUCT_DEFINITION_FORMATION_WITH_SPECIFIED_SOURCE ( 'ANY', '', #220, .NOT_KNOWN. ) ;
#294 = ADVANCED_BREP_SHAPE_REPRESENTATION ( '82852', ( #256, #147, #155 ), #77 ) ;
#295 =( CONVERSION_BASED_UNIT ( 'INCH', #149 ) LENGTH_UNIT ( ) NAMED_UNIT ( #242 ) );
#296 = PRODUCT_DEFINITION ( 'UNKNOWN', '', #293, #234 ) ;
#297 =( NAMED_UNIT ( * ) PLANE_ANGLE_UNIT ( ) SI_UNIT ( $, .RADIAN. ) );
#298 = AXIS2_PLACEMENT_3D ( 'NONE', #120, #205, #299 ) ;
#299 = DIRECTION ( 'NONE',  ( 0.000000000000000000, 0.000000000000000000, -1.000000000000000000 ) ) ;
#300 = SHAPE_DEFINITION_REPRESENTATION ( #171, #294 ) ;
#301 = CYLINDRICAL_SURFACE ( 'NONE', #62, 0.09375000000000001388 ) ;
#302 = AXIS2_PLACEMENT_3D ( 'NONE', #92, #95, #281 ) ;
#303 = DIRECTION ( 'NONE',  ( -1.000000000000000000, 0.000000000000000000, 0.000000000000000000 ) ) ;
#304 = CARTESIAN_POINT ( 'NONE',  ( -6.123233995736772199E-17, 3.000000000000000444, 0.000000000000000000 ) ) ;
#305 = FACE_OUTER_BOUND ( 'NONE', #67, .T. ) ;
#306 = CARTESIAN_POINT ( 'NONE',  ( -0.09375000000000013878, 3.000000000000000444, 0.000000000000000000 ) ) ;
#307 = COLOUR_RGB ( '',0.7921568627450980005, 0.8196078431372548767, 0.9333333333333333481 ) ;
#308 = LINE ( 'NONE', #184, #118 ) ;
#309 = CARTESIAN_POINT ( 'NONE',  ( 0.000000000000000000, 0.000000000000000000, -0.09375000000000001388 ) ) ;
ENDSEC;
END-ISO-10303-21;
