ISO-10303-21;
HEADER;
FILE_DESCRIPTION (( 'STEP AP214' ),
    '1' );
FILE_NAME ('Micro_MRT-250-062.STEP',
    '2021-09-02T21:11:54',
    ( '' ),
    ( '' ),
    'SwSTEP 2.0',
    'SolidWorks 2020',
    '' );
FILE_SCHEMA (( 'AUTOMOTIVE_DESIGN' ));
ENDSEC;

DATA;
#1 = EDGE_LOOP ( 'NONE', ( #63, #64, #20, #10 ) ) ;
#2 = SURFACE_STYLE_FILL_AREA ( #4 ) ;
#3 = SURFACE_SIDE_STYLE ('',( #2 ) ) ;
#4 = FILL_AREA_STYLE ('',( #198 ) ) ;
#5 = DIRECTION ( 'NONE',  ( -0.7071067811865499042, 0.0000000000000000000, -0.7071067811865451302 ) ) ;
#6 =( GEOMETRIC_REPRESENTATION_CONTEXT ( 3 ) GLOBAL_UNCERTAINTY_ASSIGNED_CONTEXT ( ( #155 ) ) GLOBAL_UNIT_ASSIGNED_CONTEXT ( ( #157, #117, #259 ) ) REPRESENTATION_CONTEXT ( 'NONE', 'WORKASPACE' ) );
#7 = DIRECTION ( 'NONE',  ( -1.000000000000000000, 0.0000000000000000000, 0.0000000000000000000 ) ) ;
#8 = DIRECTION ( 'NONE',  ( 0.1736481776669235311, 0.0000000000000000000, 0.9848077530122092416 ) ) ;
#9 = DIRECTION ( 'NONE',  ( -0.0000000000000000000, -1.000000000000000000, 0.0000000000000000000 ) ) ;
#10 = ORIENTED_EDGE ( 'NONE', *, *, #186, .F. ) ;
#11 = ADVANCED_FACE ( 'NONE', ( #151 ), #173, .T. ) ;
#12 = LINE ( 'NONE', #104, #200 ) ;
#13 = ORIENTED_EDGE ( 'NONE', *, *, #81, .F. ) ;
#14 = DIRECTION ( 'NONE',  ( -1.000000000000000000, 0.0000000000000000000, 0.0000000000000000000 ) ) ;
#15 = CARTESIAN_POINT ( 'NONE',  ( 0.0000000000000000000, 0.0000000000000000000, 2.500000000000000000 ) ) ;
#16 = APPLICATION_PROTOCOL_DEFINITION ( 'draft international standard', 'automotive_design', 1998, #71 ) ;
#17 = PRESENTATION_STYLE_ASSIGNMENT (( #40 ) ) ;
#18 =( CONVERSION_BASED_UNIT ( 'INCH', #62 ) LENGTH_UNIT ( ) NAMED_UNIT ( #50 ) );
#19 = VECTOR ( 'NONE', #5, 39.37007874015748143 ) ;
#20 = ORIENTED_EDGE ( 'NONE', *, *, #27, .T. ) ;
#21 = CARTESIAN_POINT ( 'NONE',  ( 0.0000000000000000000, 0.0000000000000000000, 2.500000000000000000 ) ) ;
#22 = PRODUCT_DEFINITION_SHAPE ( 'NONE', 'NONE',  #255 ) ;
#23 = EDGE_CURVE ( 'NONE', #206, #231, #61, .T. ) ;
#24 = DIRECTION ( 'NONE',  ( 1.000000000000000000, 0.0000000000000000000, 0.0000000000000000000 ) ) ;
#25 = DIRECTION ( 'NONE',  ( 1.000000000000000000, 0.0000000000000000000, 0.0000000000000000000 ) ) ;
#26 = CARTESIAN_POINT ( 'NONE',  ( 0.0000000000000000000, 0.0000000000000000000, 2.500000000000000000 ) ) ;
#27 = EDGE_CURVE ( 'NONE', #231, #271, #196, .T. ) ;
#28 = CARTESIAN_POINT ( 'NONE',  ( 0.0000000000000000000, 0.0000000000000000000, 2.500000000000000000 ) ) ;
#29 = AXIS2_PLACEMENT_3D ( 'NONE', #73, #142, #25 ) ;
#30 = DIRECTION ( 'NONE',  ( 1.000000000000000000, 0.0000000000000000000, 0.0000000000000000000 ) ) ;
#31 = CYLINDRICAL_SURFACE ( 'NONE', #78, 0.1250000000000000000 ) ;
#32 = ORIENTED_EDGE ( 'NONE', *, *, #229, .T. ) ;
#33 = DIRECTION ( 'NONE',  ( -0.1736481776669235311, 2.126576849575688098E-17, 0.9848077530122092416 ) ) ;
#34 = ORIENTED_EDGE ( 'NONE', *, *, #244, .F. ) ;
#35 = DIRECTION ( 'NONE',  ( -0.0000000000000000000, -0.0000000000000000000, 1.000000000000000000 ) ) ;
#36 = CIRCLE ( 'NONE', #232, 0.06155048456326307760 ) ;
#37 = ORIENTED_EDGE ( 'NONE', *, *, #204, .T. ) ;
#38 = FILL_AREA_STYLE_COLOUR ( '', #67 ) ;
#39 = DIRECTION ( 'NONE',  ( 1.000000000000000000, 0.0000000000000000000, 0.0000000000000000000 ) ) ;
#40 = SURFACE_STYLE_USAGE ( .BOTH. , #89 ) ;
#41 = AXIS2_PLACEMENT_3D ( 'NONE', #239, #238, #70 ) ;
#42 = CARTESIAN_POINT ( 'NONE',  ( 0.0000000000000000000, 0.0000000000000000000, 0.06250000000000002776 ) ) ;
#43 = FACE_OUTER_BOUND ( 'NONE', #132, .T. ) ;
#44 = DIRECTION ( 'NONE',  ( -1.000000000000000000, 0.0000000000000000000, 0.0000000000000000000 ) ) ;
#45 = DIMENSIONAL_EXPONENTS ( 1.000000000000000000, 0.0000000000000000000, 0.0000000000000000000, 0.0000000000000000000, 0.0000000000000000000, 0.0000000000000000000, 0.0000000000000000000 ) ;
#46 = AXIS2_PLACEMENT_3D ( 'NONE', #93, #121, #7 ) ;
#47 = DIRECTION ( 'NONE',  ( 0.0000000000000000000, 0.0000000000000000000, 1.000000000000000000 ) ) ;
#48 =( GEOMETRIC_REPRESENTATION_CONTEXT ( 3 ) GLOBAL_UNCERTAINTY_ASSIGNED_CONTEXT ( ( #116 ) ) GLOBAL_UNIT_ASSIGNED_CONTEXT ( ( #18, #111, #87 ) ) REPRESENTATION_CONTEXT ( 'NONE', 'WORKASPACE' ) );
#49 = CARTESIAN_POINT ( 'NONE',  ( 0.0000000000000000000, 0.0000000000000000000, 0.4114870722557512628 ) ) ;
#50 = DIMENSIONAL_EXPONENTS ( 1.000000000000000000, 0.0000000000000000000, 0.0000000000000000000, 0.0000000000000000000, 0.0000000000000000000, 0.0000000000000000000, 0.0000000000000000000 ) ;
#51 = FACE_OUTER_BOUND ( 'NONE', #270, .T. ) ;
#52 = DIRECTION ( 'NONE',  ( -0.0000000000000000000, -0.0000000000000000000, -1.000000000000000000 ) ) ;
#53 = ADVANCED_BREP_SHAPE_REPRESENTATION ( 'Micro_MRT-250-062', ( #166, #55 ), #258 ) ;
#54 = DIRECTION ( 'NONE',  ( 1.000000000000000000, 0.0000000000000000000, 0.0000000000000000000 ) ) ;
#55 = AXIS2_PLACEMENT_3D ( 'NONE', #82, #65, #39 ) ;
#56 = CARTESIAN_POINT ( 'NONE',  ( 0.0000000000000000000, 0.0000000000000000000, 0.4823780950009750046 ) ) ;
#57 = ORIENTED_EDGE ( 'NONE', *, *, #135, .T. ) ;
#58 = DIRECTION ( 'NONE',  ( -0.0000000000000000000, -0.0000000000000000000, 1.000000000000000000 ) ) ;
#59 = CONICAL_SURFACE ( 'NONE', #83, 0.1374999999999999278, 0.1745329251994260367 ) ;
#60 = ORIENTED_EDGE ( 'NONE', *, *, #245, .T. ) ;
#61 = CIRCLE ( 'NONE', #217, 0.1100000000000001948 ) ;
#62 = LENGTH_MEASURE_WITH_UNIT ( LENGTH_MEASURE( 0.02539999999999999897 ), #88 );
#63 = ORIENTED_EDGE ( 'NONE', *, *, #192, .F. ) ;
#64 = ORIENTED_EDGE ( 'NONE', *, *, #72, .F. ) ;
#65 = DIRECTION ( 'NONE',  ( 0.0000000000000000000, 0.0000000000000000000, 1.000000000000000000 ) ) ;
#66 = ADVANCED_FACE ( 'NONE', ( #98 ), #261, .T. ) ;
#67 = COLOUR_RGB ( '',0.7921568627450980005, 0.8196078431372548767, 0.9333333333333333481 ) ;
#68 = ORIENTED_EDGE ( 'NONE', *, *, #81, .T. ) ;
#69 = PRODUCT ( 'Micro_MRT-250-062', 'Micro_MRT-250-062', '', ( #152 ) ) ;
#70 = DIRECTION ( 'NONE',  ( -1.000000000000000000, 0.0000000000000000000, 0.0000000000000000000 ) ) ;
#71 = APPLICATION_CONTEXT ( 'automotive_design' ) ;
#72 = EDGE_CURVE ( 'NONE', #231, #206, #99, .T. ) ;
#73 = CARTESIAN_POINT ( 'NONE',  ( 0.0000000000000000000, 0.0000000000000000000, 0.4114870722557512628 ) ) ;
#74 = CARTESIAN_POINT ( 'NONE',  ( 0.0000000000000000000, 0.0000000000000000000, 2.485000000000000320 ) ) ;
#75 = CARTESIAN_POINT ( 'NONE',  ( 0.0000000000000000000, 0.0000000000000000000, 2.485000000000000320 ) ) ;
#76 = DIRECTION ( 'NONE',  ( -1.000000000000000000, 0.0000000000000000000, 0.0000000000000000000 ) ) ;
#77 =( LENGTH_UNIT ( ) NAMED_UNIT ( * ) SI_UNIT ( $, .METRE. ) );
#78 = AXIS2_PLACEMENT_3D ( 'NONE', #28, #123, #14 ) ;
#79 = EDGE_LOOP ( 'NONE', ( #233, #129 ) ) ;
#80 = DIRECTION ( 'NONE',  ( 0.0000000000000000000, 0.0000000000000000000, -1.000000000000000000 ) ) ;
#81 = EDGE_CURVE ( 'NONE', #216, #114, #251, .T. ) ;
#82 = CARTESIAN_POINT ( 'NONE',  ( 0.0000000000000000000, 0.0000000000000000000, 0.0000000000000000000 ) ) ;
#83 = AXIS2_PLACEMENT_3D ( 'NONE', #56, #183, #267 ) ;
#84 = ADVANCED_FACE ( 'NONE', ( #182 ), #262, .T. ) ;
#85 = ORIENTED_EDGE ( 'NONE', *, *, #107, .F. ) ;
#86 = AXIS2_PLACEMENT_3D ( 'NONE', #153, #80, #211 ) ;
#87 =( NAMED_UNIT ( * ) SI_UNIT ( $, .STERADIAN. ) SOLID_ANGLE_UNIT ( ) );
#88 =( LENGTH_UNIT ( ) NAMED_UNIT ( * ) SI_UNIT ( $, .METRE. ) );
#89 = SURFACE_SIDE_STYLE ('',( #214 ) ) ;
#90 = ORIENTED_EDGE ( 'NONE', *, *, #210, .F. ) ;
#91 = AXIS2_PLACEMENT_3D ( 'NONE', #21, #220, #195 ) ;
#92 = VECTOR ( 'NONE', #8, 39.37007874015748143 ) ;
#93 = CARTESIAN_POINT ( 'NONE',  ( 0.0000000000000000000, 0.0000000000000000000, 2.500000000000000000 ) ) ;
#94 = DIRECTION ( 'NONE',  ( 0.0000000000000000000, 0.0000000000000000000, 1.000000000000000000 ) ) ;
#95 = EDGE_CURVE ( 'NONE', #105, #175, #124, .T. ) ;
#96 = DIRECTION ( 'NONE',  ( 0.0000000000000000000, 1.000000000000000000, 0.0000000000000000000 ) ) ;
#97 = STYLED_ITEM ( 'NONE', ( #179 ), #166 ) ;
#98 = FACE_OUTER_BOUND ( 'NONE', #1, .T. ) ;
#99 = CIRCLE ( 'NONE', #150, 0.1100000000000001948 ) ;
#100 = CARTESIAN_POINT ( 'NONE',  ( 0.1100000000000001948, 1.347111479062090784E-17, 2.500000000000000000 ) ) ;
#101 = CARTESIAN_POINT ( 'NONE',  ( 0.1100000000000001948, 1.438959988998141146E-17, 2.500000000000000000 ) ) ;
#102 = CARTESIAN_POINT ( 'NONE',  ( 0.0000000000000000000, 0.0000000000000000000, 0.05164698889581738339 ) ) ;
#103 = ORIENTED_EDGE ( 'NONE', *, *, #136, .T. ) ;
#104 = CARTESIAN_POINT ( 'NONE',  ( 0.1250000000000000000, 1.530808498934191509E-17, 2.500000000000000000 ) ) ;
#105 = VERTEX_POINT ( 'NONE', #122 ) ;
#106 = DIRECTION ( 'NONE',  ( 0.7071067811865499042, 8.659560562354961208E-17, -0.7071067811865451302 ) ) ;
#107 = EDGE_CURVE ( 'NONE', #271, #226, #162, .T. ) ;
#108 = ORIENTED_EDGE ( 'NONE', *, *, #204, .F. ) ;
#109 = SHAPE_DEFINITION_REPRESENTATION ( #22, #53 ) ;
#110 = ORIENTED_EDGE ( 'NONE', *, *, #23, .F. ) ;
#111 =( NAMED_UNIT ( * ) PLANE_ANGLE_UNIT ( ) SI_UNIT ( $, .RADIAN. ) );
#112 = AXIS2_PLACEMENT_3D ( 'NONE', #257, #96, #47 ) ;
#113 = PRODUCT_DEFINITION_FORMATION_WITH_SPECIFIED_SOURCE ( 'ANY', '', #69, .NOT_KNOWN. ) ;
#114 = VERTEX_POINT ( 'NONE', #178 ) ;
#115 = UNCERTAINTY_MEASURE_WITH_UNIT (LENGTH_MEASURE( 1.000000000000000082E-05 ), #269, 'distance_accuracy_value', 'NONE');
#116 = UNCERTAINTY_MEASURE_WITH_UNIT (LENGTH_MEASURE( 1.000000000000000082E-05 ), #18, 'distance_accuracy_value', 'NONE');
#117 =( NAMED_UNIT ( * ) PLANE_ANGLE_UNIT ( ) SI_UNIT ( $, .RADIAN. ) );
#118 = CYLINDRICAL_SURFACE ( 'NONE', #46, 0.1250000000000000000 ) ;
#119 = VECTOR ( 'NONE', #106, 39.37007874015748143 ) ;
#120 = DIRECTION ( 'NONE',  ( 0.0000000000000000000, 0.0000000000000000000, -1.000000000000000000 ) ) ;
#121 = DIRECTION ( 'NONE',  ( -0.0000000000000000000, -0.0000000000000000000, -1.000000000000000000 ) ) ;
#122 = CARTESIAN_POINT ( 'NONE',  ( -3.827021247335479543E-18, 0.0000000000000000000, 1.707404996040164512E-17 ) ) ;
#123 = DIRECTION ( 'NONE',  ( -0.0000000000000000000, -0.0000000000000000000, -1.000000000000000000 ) ) ;
#124 = CIRCLE ( 'NONE', #158, 0.06250000000000001388 ) ;
#125 = CARTESIAN_POINT ( 'NONE',  ( -0.1250000000000000000, 0.0000000000000000000, 2.500000000000000000 ) ) ;
#126 = ORIENTED_EDGE ( 'NONE', *, *, #210, .T. ) ;
#127 = AXIS2_PLACEMENT_3D ( 'NONE', #167, #58, #243 ) ;
#128 = FACE_OUTER_BOUND ( 'NONE', #208, .T. ) ;
#129 = ORIENTED_EDGE ( 'NONE', *, *, #23, .T. ) ;
#130 = PRESENTATION_LAYER_ASSIGNMENT (  '', '', ( #197 ) ) ;
#131 = CARTESIAN_POINT ( 'NONE',  ( 0.0000000000000000000, 0.0000000000000000000, 0.06250000000000002776 ) ) ;
#132 = EDGE_LOOP ( 'NONE', ( #268, #248, #212, #13 ) ) ;
#133 = ORIENTED_EDGE ( 'NONE', *, *, #177, .F. ) ;
#134 = VECTOR ( 'NONE', #33, 39.37007874015748143 ) ;
#135 = EDGE_CURVE ( 'NONE', #105, #172, #272, .T. ) ;
#136 = EDGE_CURVE ( 'NONE', #114, #216, #146, .T. ) ;
#137 = APPLICATION_PROTOCOL_DEFINITION ( 'draft international standard', 'automotive_design', 1998, #164 ) ;
#138 = EDGE_LOOP ( 'NONE', ( #193, #126, #103, #108 ) ) ;
#139 = AXIS2_PLACEMENT_3D ( 'NONE', #75, #264, #184 ) ;
#140 = AXIS2_PLACEMENT_3D ( 'NONE', #42, #236, #44 ) ;
#141 = DIRECTION ( 'NONE',  ( -1.224646799147353207E-16, -1.000000000000000000, -0.0000000000000000000 ) ) ;
#142 = DIRECTION ( 'NONE',  ( 0.0000000000000000000, 0.0000000000000000000, -1.000000000000000000 ) ) ;
#143 = ADVANCED_FACE ( 'NONE', ( #144 ), #218, .T. ) ;
#144 = FACE_OUTER_BOUND ( 'NONE', #79, .T. ) ;
#145 = CARTESIAN_POINT ( 'NONE',  ( 0.1250000000000000000, 1.530808498934191509E-17, 2.485000000000000320 ) ) ;
#146 = CIRCLE ( 'NONE', #29, 0.1250000000000000000 ) ;
#147 = CARTESIAN_POINT ( 'NONE',  ( -0.1100000000000001948, 0.0000000000000000000, 2.500000000000000000 ) ) ;
#148 = CARTESIAN_POINT ( 'NONE',  ( -0.1374999999999999278, 1.683889348827609396E-17, 0.4823780950009750046 ) ) ;
#149 = ORIENTED_EDGE ( 'NONE', *, *, #107, .T. ) ;
#150 = AXIS2_PLACEMENT_3D ( 'NONE', #26, #94, #180 ) ;
#151 = FACE_OUTER_BOUND ( 'NONE', #187, .T. ) ;
#152 = PRODUCT_CONTEXT ( 'NONE', #164, 'mechanical' ) ;
#153 = CARTESIAN_POINT ( 'NONE',  ( 0.0000000000000000000, 0.0000000000000000000, 2.500000000000000000 ) ) ;
#154 = ORIENTED_EDGE ( 'NONE', *, *, #135, .F. ) ;
#155 = UNCERTAINTY_MEASURE_WITH_UNIT (LENGTH_MEASURE( 1.000000000000000082E-05 ), #157, 'distance_accuracy_value', 'NONE');
#156 = PRODUCT_DEFINITION_CONTEXT ( 'detailed design', #71, 'design' ) ;
#157 =( CONVERSION_BASED_UNIT ( 'INCH', #241 ) LENGTH_UNIT ( ) NAMED_UNIT ( #45 ) );
#158 = AXIS2_PLACEMENT_3D ( 'NONE', #159, #141, #237 ) ;
#159 = CARTESIAN_POINT ( 'NONE',  ( 0.0000000000000000000, 0.0000000000000000000, 0.06250000000000002776 ) ) ;
#160 = CARTESIAN_POINT ( 'NONE',  ( -0.1100000000000001948, 0.0000000000000000000, 2.500000000000000000 ) ) ;
#161 = VECTOR ( 'NONE', #169, 39.37007874015748143 ) ;
#162 = CIRCLE ( 'NONE', #194, 0.1250000000000000000 ) ;
#163 = SURFACE_STYLE_USAGE ( .BOTH. , #3 ) ;
#164 = APPLICATION_CONTEXT ( 'automotive_design' ) ;
#165 = CARTESIAN_POINT ( 'NONE',  ( 0.1250000000000000000, 1.530808498934191509E-17, 0.4114870722557512628 ) ) ;
#166 = MANIFOLD_SOLID_BREP ( 'Cut-Revolve1', #181 ) ;
#167 = CARTESIAN_POINT ( 'NONE',  ( 0.0000000000000000000, 0.0000000000000000000, 0.4823780950009750046 ) ) ;
#168 = CIRCLE ( 'NONE', #265, 0.06155048456326307760 ) ;
#169 = DIRECTION ( 'NONE',  ( -0.0000000000000000000, -0.0000000000000000000, -1.000000000000000000 ) ) ;
#170 = ADVANCED_FACE ( 'NONE', ( #43 ), #118, .T. ) ;
#171 = EDGE_LOOP ( 'NONE', ( #250, #57, #34 ) ) ;
#172 = VERTEX_POINT ( 'NONE', #227 ) ;
#173 = CONICAL_SURFACE ( 'NONE', #86, 0.1100000000000001948, 0.7853981633974517207 ) ;
#174 = DIRECTION ( 'NONE',  ( 0.0000000000000000000, 0.0000000000000000000, 1.000000000000000000 ) ) ;
#175 = VERTEX_POINT ( 'NONE', #223 ) ;
#176 = ADVANCED_FACE ( 'NONE', ( #51 ), #31, .T. ) ;
#177 = EDGE_CURVE ( 'NONE', #271, #114, #242, .T. ) ;
#178 = CARTESIAN_POINT ( 'NONE',  ( -0.1250000000000000000, 0.0000000000000000000, 0.4114870722557512628 ) ) ;
#179 = PRESENTATION_STYLE_ASSIGNMENT (( #163 ) ) ;
#180 = DIRECTION ( 'NONE',  ( 1.000000000000000000, 0.0000000000000000000, 0.0000000000000000000 ) ) ;
#181 = CLOSED_SHELL ( 'NONE', ( #84, #199, #11, #176, #170, #143, #66, #222, #215 ) ) ;
#182 = FACE_OUTER_BOUND ( 'NONE', #254, .T. ) ;
#183 = DIRECTION ( 'NONE',  ( -0.0000000000000000000, -0.0000000000000000000, 1.000000000000000000 ) ) ;
#184 = DIRECTION ( 'NONE',  ( 1.000000000000000000, 0.0000000000000000000, 0.0000000000000000000 ) ) ;
#185 = PRODUCT_RELATED_PRODUCT_CATEGORY ( 'part', '', ( #69 ) ) ;
#186 = EDGE_CURVE ( 'NONE', #226, #271, #275, .T. ) ;
#187 = EDGE_LOOP ( 'NONE', ( #110, #228, #85, #189 ) ) ;
#188 = LENGTH_MEASURE_WITH_UNIT ( LENGTH_MEASURE( 0.02539999999999999897 ), #77 );
#189 = ORIENTED_EDGE ( 'NONE', *, *, #27, .F. ) ;
#190 = CARTESIAN_POINT ( 'NONE',  ( 0.0000000000000000000, 0.0000000000000000000, 0.05164698889581738339 ) ) ;
#191 = ORIENTED_EDGE ( 'NONE', *, *, #245, .F. ) ;
#192 = EDGE_CURVE ( 'NONE', #206, #226, #246, .T. ) ;
#193 = ORIENTED_EDGE ( 'NONE', *, *, #244, .T. ) ;
#194 = AXIS2_PLACEMENT_3D ( 'NONE', #74, #219, #221 ) ;
#195 = DIRECTION ( 'NONE',  ( 1.000000000000000000, 0.0000000000000000000, -0.0000000000000000000 ) ) ;
#196 = LINE ( 'NONE', #160, #19 ) ;
#197 = STYLED_ITEM ( 'NONE', ( #17 ), #53 ) ;
#198 = FILL_AREA_STYLE_COLOUR ( '', #213 ) ;
#199 = ADVANCED_FACE ( 'NONE', ( #201 ), #59, .T. ) ;
#200 = VECTOR ( 'NONE', #52, 39.37007874015748143 ) ;
#201 = FACE_OUTER_BOUND ( 'NONE', #138, .T. ) ;
#202 = DIMENSIONAL_EXPONENTS ( 1.000000000000000000, 0.0000000000000000000, 0.0000000000000000000, 0.0000000000000000000, 0.0000000000000000000, 0.0000000000000000000, 0.0000000000000000000 ) ;
#203 = FACE_OUTER_BOUND ( 'NONE', #171, .T. ) ;
#204 = EDGE_CURVE ( 'NONE', #175, #216, #263, .T. ) ;
#205 = CARTESIAN_POINT ( 'NONE',  ( 0.1374999999999999278, 0.0000000000000000000, 0.4823780950009750046 ) ) ;
#206 = VERTEX_POINT ( 'NONE', #101 ) ;
#207 = SPHERICAL_SURFACE ( 'NONE', #240, 0.06250000000000001388 ) ;
#208 = EDGE_LOOP ( 'NONE', ( #90, #60, #37, #68 ) ) ;
#209 = CARTESIAN_POINT ( 'NONE',  ( -0.1250000000000000000, 0.0000000000000000000, 2.485000000000000320 ) ) ;
#210 = EDGE_CURVE ( 'NONE', #172, #114, #247, .T. ) ;
#211 = DIRECTION ( 'NONE',  ( -1.000000000000000000, 0.0000000000000000000, 0.0000000000000000000 ) ) ;
#212 = ORIENTED_EDGE ( 'NONE', *, *, #177, .T. ) ;
#213 = COLOUR_RGB ( '',0.7921568627450980005, 0.8196078431372548767, 0.9333333333333333481 ) ;
#214 = SURFACE_STYLE_FILL_AREA ( #252 ) ;
#215 = ADVANCED_FACE ( 'NONE', ( #203 ), #207, .T. ) ;
#216 = VERTEX_POINT ( 'NONE', #165 ) ;
#217 = AXIS2_PLACEMENT_3D ( 'NONE', #15, #174, #253 ) ;
#218 = PLANE ( 'NONE',  #91 ) ;
#219 = DIRECTION ( 'NONE',  ( 0.0000000000000000000, 0.0000000000000000000, -1.000000000000000000 ) ) ;
#220 = DIRECTION ( 'NONE',  ( 0.0000000000000000000, 0.0000000000000000000, 1.000000000000000000 ) ) ;
#221 = DIRECTION ( 'NONE',  ( 1.000000000000000000, 0.0000000000000000000, 0.0000000000000000000 ) ) ;
#222 = ADVANCED_FACE ( 'NONE', ( #128 ), #235, .T. ) ;
#223 = CARTESIAN_POINT ( 'NONE',  ( 0.06155048456326307760, 0.0000000000000000000, 0.05164698889581738339 ) ) ;
#224 = MECHANICAL_DESIGN_GEOMETRIC_PRESENTATION_REPRESENTATION (  '', ( #97 ), #6 ) ;
#225 = DIRECTION ( 'NONE',  ( -0.0000000000000000000, -0.0000000000000000000, 1.000000000000000000 ) ) ;
#226 = VERTEX_POINT ( 'NONE', #145 ) ;
#227 = CARTESIAN_POINT ( 'NONE',  ( -0.06155048456326307760, 1.142292268998939300E-17, 0.05164698889581738339 ) ) ;
#228 = ORIENTED_EDGE ( 'NONE', *, *, #192, .T. ) ;
#229 = EDGE_CURVE ( 'NONE', #226, #216, #12, .T. ) ;
#230 = AXIS2_PLACEMENT_3D ( 'NONE', #49, #120, #24 ) ;
#231 = VERTEX_POINT ( 'NONE', #147 ) ;
#232 = AXIS2_PLACEMENT_3D ( 'NONE', #102, #35, #30 ) ;
#233 = ORIENTED_EDGE ( 'NONE', *, *, #72, .T. ) ;
#234 = ORIENTED_EDGE ( 'NONE', *, *, #136, .F. ) ;
#235 = CONICAL_SURFACE ( 'NONE', #127, 0.1374999999999999278, 0.1745329251994260367 ) ;
#236 = DIRECTION ( 'NONE',  ( -0.0000000000000000000, -1.000000000000000000, 0.0000000000000000000 ) ) ;
#237 = DIRECTION ( 'NONE',  ( 1.000000000000000000, -1.224646799147353207E-16, 0.0000000000000000000 ) ) ;
#238 = DIRECTION ( 'NONE',  ( 0.0000000000000000000, 0.0000000000000000000, -1.000000000000000000 ) ) ;
#239 = CARTESIAN_POINT ( 'NONE',  ( 0.0000000000000000000, 0.0000000000000000000, 2.500000000000000000 ) ) ;
#240 = AXIS2_PLACEMENT_3D ( 'NONE', #131, #9, #76 ) ;
#241 = LENGTH_MEASURE_WITH_UNIT ( LENGTH_MEASURE( 0.02539999999999999897 ), #260 );
#242 = LINE ( 'NONE', #125, #161 ) ;
#243 = DIRECTION ( 'NONE',  ( 1.000000000000000000, 0.0000000000000000000, 0.0000000000000000000 ) ) ;
#244 = EDGE_CURVE ( 'NONE', #175, #172, #168, .T. ) ;
#245 = EDGE_CURVE ( 'NONE', #172, #175, #36, .T. ) ;
#246 = LINE ( 'NONE', #100, #119 ) ;
#247 = LINE ( 'NONE', #148, #134 ) ;
#248 = ORIENTED_EDGE ( 'NONE', *, *, #186, .T. ) ;
#249 =( NAMED_UNIT ( * ) PLANE_ANGLE_UNIT ( ) SI_UNIT ( $, .RADIAN. ) );
#250 = ORIENTED_EDGE ( 'NONE', *, *, #95, .F. ) ;
#251 = CIRCLE ( 'NONE', #230, 0.1250000000000000000 ) ;
#252 = FILL_AREA_STYLE ('',( #38 ) ) ;
#253 = DIRECTION ( 'NONE',  ( 1.000000000000000000, 0.0000000000000000000, 0.0000000000000000000 ) ) ;
#254 = EDGE_LOOP ( 'NONE', ( #154, #273, #191 ) ) ;
#255 = PRODUCT_DEFINITION ( 'UNKNOWN', '', #113, #156 ) ;
#256 = PRESENTATION_LAYER_ASSIGNMENT (  '', '', ( #97 ) ) ;
#257 = CARTESIAN_POINT ( 'NONE',  ( 0.0000000000000000000, 0.0000000000000000000, 0.06250000000000002776 ) ) ;
#258 =( GEOMETRIC_REPRESENTATION_CONTEXT ( 3 ) GLOBAL_UNCERTAINTY_ASSIGNED_CONTEXT ( ( #115 ) ) GLOBAL_UNIT_ASSIGNED_CONTEXT ( ( #269, #249, #274 ) ) REPRESENTATION_CONTEXT ( 'NONE', 'WORKASPACE' ) );
#259 =( NAMED_UNIT ( * ) SI_UNIT ( $, .STERADIAN. ) SOLID_ANGLE_UNIT ( ) );
#260 =( LENGTH_UNIT ( ) NAMED_UNIT ( * ) SI_UNIT ( $, .METRE. ) );
#261 = CONICAL_SURFACE ( 'NONE', #41, 0.1100000000000001948, 0.7853981633974517207 ) ;
#262 = SPHERICAL_SURFACE ( 'NONE', #140, 0.06250000000000001388 ) ;
#263 = LINE ( 'NONE', #205, #92 ) ;
#264 = DIRECTION ( 'NONE',  ( 0.0000000000000000000, 0.0000000000000000000, -1.000000000000000000 ) ) ;
#265 = AXIS2_PLACEMENT_3D ( 'NONE', #190, #225, #54 ) ;
#266 = MECHANICAL_DESIGN_GEOMETRIC_PRESENTATION_REPRESENTATION (  '', ( #197 ), #48 ) ;
#267 = DIRECTION ( 'NONE',  ( 1.000000000000000000, 0.0000000000000000000, 0.0000000000000000000 ) ) ;
#268 = ORIENTED_EDGE ( 'NONE', *, *, #229, .F. ) ;
#269 =( CONVERSION_BASED_UNIT ( 'INCH', #188 ) LENGTH_UNIT ( ) NAMED_UNIT ( #202 ) );
#270 = EDGE_LOOP ( 'NONE', ( #149, #32, #234, #133 ) ) ;
#271 = VERTEX_POINT ( 'NONE', #209 ) ;
#272 = CIRCLE ( 'NONE', #112, 0.06250000000000001388 ) ;
#273 = ORIENTED_EDGE ( 'NONE', *, *, #95, .T. ) ;
#274 =( NAMED_UNIT ( * ) SI_UNIT ( $, .STERADIAN. ) SOLID_ANGLE_UNIT ( ) );
#275 = CIRCLE ( 'NONE', #139, 0.1250000000000000000 ) ;
ENDSEC;
END-ISO-10303-21;
