ISO-10303-21;
HEADER;
FILE_DESCRIPTION (( 'STEP AP214' ),
    '1' );
FILE_NAME ('Micro_SFPM-010-10.STEP',
    '2021-09-02T06:32:18',
    ( '' ),
    ( '' ),
    'SwSTEP 2.0',
    'SolidWorks 2020',
    '' );
FILE_SCHEMA (( 'AUTOMOTIVE_DESIGN' ));
ENDSEC;

DATA;
#1 = EDGE_CURVE ( 'NONE', #92, #229, #33, .T. ) ;
#2 = VECTOR ( 'NONE', #261, 39.37007874015748143 ) ;
#3 = CARTESIAN_POINT ( 'NONE',  ( -0.04405499999999960142, 0.0000000000000000000, 2.244094000000000033 ) ) ;
#4 = DIRECTION ( 'NONE',  ( -0.0000000000000000000, -0.0000000000000000000, -1.000000000000000000 ) ) ;
#5 = ADVANCED_FACE ( 'NONE', ( #55 ), #132, .T. ) ;
#6 = AXIS2_PLACEMENT_3D ( 'NONE', #185, #212, #231 ) ;
#7 = CIRCLE ( 'NONE', #35, 0.01966531500000000959 ) ;
#8 = DIMENSIONAL_EXPONENTS ( 1.000000000000000000, 0.0000000000000000000, 0.0000000000000000000, 0.0000000000000000000, 0.0000000000000000000, 0.0000000000000000000, 0.0000000000000000000 ) ;
#9 = CARTESIAN_POINT ( 'NONE',  ( 0.05905500000000001720, 7.232151672364695422E-18, 2.244094000000000033 ) ) ;
#10 = SURFACE_STYLE_USAGE ( .BOTH. , #259 ) ;
#11 = DIRECTION ( 'NONE',  ( -0.7071067811865449082, 0.0000000000000000000, -0.7071067811865501263 ) ) ;
#12 = CIRCLE ( 'NONE', #220, 0.01966531500000000265 ) ;
#13 = CARTESIAN_POINT ( 'NONE',  ( 0.05905500000000001720, 7.232151672364695422E-18, 2.229093999999999465 ) ) ;
#14 = CARTESIAN_POINT ( 'NONE',  ( 0.0000000000000000000, 0.0000000000000000000, 2.244094000000000033 ) ) ;
#15 = FILL_AREA_STYLE ('',( #62 ) ) ;
#16 = ORIENTED_EDGE ( 'NONE', *, *, #293, .F. ) ;
#17 = VERTEX_POINT ( 'NONE', #291 ) ;
#18 = CIRCLE ( 'NONE', #6, 0.05905500000000001720 ) ;
#19 = LENGTH_MEASURE_WITH_UNIT ( LENGTH_MEASURE( 0.02539999999999999897 ), #128 );
#20 = EDGE_LOOP ( 'NONE', ( #103, #294, #126, #43 ) ) ;
#21 = ORIENTED_EDGE ( 'NONE', *, *, #36, .F. ) ;
#22 = ORIENTED_EDGE ( 'NONE', *, *, #293, .T. ) ;
#23 = STYLED_ITEM ( 'NONE', ( #189 ), #257 ) ;
#24 = EDGE_CURVE ( 'NONE', #56, #271, #269, .T. ) ;
#25 = AXIS2_PLACEMENT_3D ( 'NONE', #162, #187, #163 ) ;
#26 = AXIS2_PLACEMENT_3D ( 'NONE', #61, #4, #254 ) ;
#27 = DIRECTION ( 'NONE',  ( -1.224646799147353207E-16, -0.0000000000000000000, -1.000000000000000000 ) ) ;
#28 = ADVANCED_FACE ( 'NONE', ( #258 ), #112, .T. ) ;
#29 = FACE_OUTER_BOUND ( 'NONE', #106, .T. ) ;
#30 = DIRECTION ( 'NONE',  ( 1.000000000000000000, 0.0000000000000000000, 0.0000000000000000000 ) ) ;
#31 = ADVANCED_FACE ( 'NONE', ( #91 ), #241, .T. ) ;
#32 = LINE ( 'NONE', #262, #46 ) ;
#33 = CIRCLE ( 'NONE', #75, 0.05905500000000001720 ) ;
#34 = CARTESIAN_POINT ( 'NONE',  ( -0.01966531500000000265, 0.0000000000000000000, 4.816613013794886973E-18 ) ) ;
#35 = AXIS2_PLACEMENT_3D ( 'NONE', #219, #282, #53 ) ;
#36 = EDGE_CURVE ( 'NONE', #175, #229, #116, .T. ) ;
#37 = CYLINDRICAL_SURFACE ( 'NONE', #60, 0.01966531500000000612 ) ;
#38 =( NAMED_UNIT ( * ) PLANE_ANGLE_UNIT ( ) SI_UNIT ( $, .RADIAN. ) );
#39 = CARTESIAN_POINT ( 'NONE',  ( 5.146455762878069340E-17, 0.0000000000000000000, 0.4202400044209671504 ) ) ;
#40 = DIRECTION ( 'NONE',  ( -1.224646799147353207E-16, -0.0000000000000000000, -1.000000000000000000 ) ) ;
#41 = VERTEX_POINT ( 'NONE', #66 ) ;
#42 = ORIENTED_EDGE ( 'NONE', *, *, #216, .F. ) ;
#43 = ORIENTED_EDGE ( 'NONE', *, *, #250, .F. ) ;
#44 = CARTESIAN_POINT ( 'NONE',  ( 0.0000000000000000000, 0.0000000000000000000, 0.0000000000000000000 ) ) ;
#45 = CONICAL_SURFACE ( 'NONE', #25, 0.01966531500000000959, 0.1745329251994339470 ) ;
#46 = VECTOR ( 'NONE', #11, 39.37007874015748143 ) ;
#47 = CARTESIAN_POINT ( 'NONE',  ( 0.0000000000000000000, 0.0000000000000000000, 2.244094000000000033 ) ) ;
#48 =( NAMED_UNIT ( * ) SI_UNIT ( $, .STERADIAN. ) SOLID_ANGLE_UNIT ( ) );
#49 = DIRECTION ( 'NONE',  ( -1.224646799147353207E-16, -0.0000000000000000000, -1.000000000000000000 ) ) ;
#50 = FILL_AREA_STYLE ('',( #96 ) ) ;
#51 = DIRECTION ( 'NONE',  ( 1.224646799147353207E-16, 0.0000000000000000000, 1.000000000000000000 ) ) ;
#52 = AXIS2_PLACEMENT_3D ( 'NONE', #44, #197, #287 ) ;
#53 = DIRECTION ( 'NONE',  ( -1.000000000000000000, 0.0000000000000000000, 0.0000000000000000000 ) ) ;
#54 = APPLICATION_PROTOCOL_DEFINITION ( 'draft international standard', 'automotive_design', 1998, #206 ) ;
#55 = FACE_OUTER_BOUND ( 'NONE', #80, .T. ) ;
#56 = VERTEX_POINT ( 'NONE', #140 ) ;
#57 = EDGE_CURVE ( 'NONE', #271, #17, #18, .T. ) ;
#58 = EDGE_LOOP ( 'NONE', ( #275, #177, #292, #86 ) ) ;
#59 = CIRCLE ( 'NONE', #214, 0.05905500000000001720 ) ;
#60 = AXIS2_PLACEMENT_3D ( 'NONE', #234, #94, #70 ) ;
#61 = CARTESIAN_POINT ( 'NONE',  ( 0.0000000000000000000, 0.0000000000000000000, 2.244094000000000033 ) ) ;
#62 = FILL_AREA_STYLE_COLOUR ( '', #253 ) ;
#63 = EDGE_LOOP ( 'NONE', ( #83, #77 ) ) ;
#64 = EDGE_LOOP ( 'NONE', ( #276, #226, #298, #205 ) ) ;
#65 = AXIS2_PLACEMENT_3D ( 'NONE', #236, #166, #117 ) ;
#66 = CARTESIAN_POINT ( 'NONE',  ( 0.01966531500000003735, 0.0000000000000000000, 0.1968499999999999694 ) ) ;
#67 = ADVANCED_FACE ( 'NONE', ( #29 ), #45, .T. ) ;
#68 = VECTOR ( 'NONE', #27, 39.37007874015748143 ) ;
#69 = CYLINDRICAL_SURFACE ( 'NONE', #65, 0.05905500000000001720 ) ;
#70 = DIRECTION ( 'NONE',  ( -1.000000000000000000, 0.0000000000000000000, 1.224646799147353207E-16 ) ) ;
#71 = AXIS2_PLACEMENT_3D ( 'NONE', #232, #286, #122 ) ;
#72 = CARTESIAN_POINT ( 'NONE',  ( -0.05905499999999996169, 0.0000000000000000000, 0.4202400044209671504 ) ) ;
#73 =( CONVERSION_BASED_UNIT ( 'INCH', #285 ) LENGTH_UNIT ( ) NAMED_UNIT ( #146 ) );
#74 = FACE_OUTER_BOUND ( 'NONE', #129, .T. ) ;
#75 = AXIS2_PLACEMENT_3D ( 'NONE', #39, #159, #267 ) ;
#76 = ORIENTED_EDGE ( 'NONE', *, *, #57, .F. ) ;
#77 = ORIENTED_EDGE ( 'NONE', *, *, #169, .T. ) ;
#78 = ADVANCED_FACE ( 'NONE', ( #242 ), #184, .T. ) ;
#79 = CARTESIAN_POINT ( 'NONE',  ( 0.0000000000000000000, 0.0000000000000000000, 0.0000000000000000000 ) ) ;
#80 = EDGE_LOOP ( 'NONE', ( #123, #243, #131, #76 ) ) ;
#81 = PRODUCT ( 'Micro_SFPM-010-10', 'Micro_SFPM-010-10', '', ( #174 ) ) ;
#82 =( NAMED_UNIT ( * ) SI_UNIT ( $, .STERADIAN. ) SOLID_ANGLE_UNIT ( ) );
#83 = ORIENTED_EDGE ( 'NONE', *, *, #233, .T. ) ;
#84 = PRODUCT_DEFINITION_FORMATION_WITH_SPECIFIED_SOURCE ( 'ANY', '', #81, .NOT_KNOWN. ) ;
#85 = DIRECTION ( 'NONE',  ( 0.0000000000000000000, 0.0000000000000000000, 1.000000000000000000 ) ) ;
#86 = ORIENTED_EDGE ( 'NONE', *, *, #124, .F. ) ;
#87 = CARTESIAN_POINT ( 'NONE',  ( 0.0000000000000000000, 0.0000000000000000000, 2.244094000000000033 ) ) ;
#88 = AXIS2_PLACEMENT_3D ( 'NONE', #14, #256, #141 ) ;
#89 = CARTESIAN_POINT ( 'NONE',  ( 0.0000000000000000000, 0.0000000000000000000, 0.0000000000000000000 ) ) ;
#90 = CARTESIAN_POINT ( 'NONE',  ( 0.04405499999999960142, 5.395181473643616524E-18, 2.244094000000000033 ) ) ;
#91 = FACE_OUTER_BOUND ( 'NONE', #63, .T. ) ;
#92 = VERTEX_POINT ( 'NONE', #165 ) ;
#93 = UNCERTAINTY_MEASURE_WITH_UNIT (LENGTH_MEASURE( 1.000000000000000082E-05 ), #73, 'distance_accuracy_value', 'NONE');
#94 = DIRECTION ( 'NONE',  ( -1.224646799147353207E-16, -0.0000000000000000000, -1.000000000000000000 ) ) ;
#95 = DIRECTION ( 'NONE',  ( 1.000000000000000000, 0.0000000000000000000, 0.0000000000000000000 ) ) ;
#96 = FILL_AREA_STYLE_COLOUR ( '', #277 ) ;
#97 = CARTESIAN_POINT ( 'NONE',  ( 2.410717224121564319E-17, 0.0000000000000000000, 0.1968499999999999694 ) ) ;
#98 = PLANE ( 'NONE',  #120 ) ;
#99 = VERTEX_POINT ( 'NONE', #111 ) ;
#100 = CIRCLE ( 'NONE', #195, 0.04405499999999960142 ) ;
#101 = EDGE_CURVE ( 'NONE', #41, #99, #255, .T. ) ;
#102 = SURFACE_STYLE_FILL_AREA ( #15 ) ;
#103 = ORIENTED_EDGE ( 'NONE', *, *, #169, .F. ) ;
#104 = DIRECTION ( 'NONE',  ( -1.000000000000000000, 0.0000000000000000000, 1.224646799147353207E-16 ) ) ;
#105 =( LENGTH_UNIT ( ) NAMED_UNIT ( * ) SI_UNIT ( $, .METRE. ) );
#106 = EDGE_LOOP ( 'NONE', ( #21, #42, #238, #228 ) ) ;
#107 =( NAMED_UNIT ( * ) SI_UNIT ( $, .STERADIAN. ) SOLID_ANGLE_UNIT ( ) );
#108 = ORIENTED_EDGE ( 'NONE', *, *, #274, .T. ) ;
#109 = DIRECTION ( 'NONE',  ( -1.224646799147353207E-16, -0.0000000000000000000, -1.000000000000000000 ) ) ;
#110 = EDGE_LOOP ( 'NONE', ( #288, #179, #181, #222 ) ) ;
#111 = CARTESIAN_POINT ( 'NONE',  ( 0.01966531500000000265, 2.408306506897443871E-18, 0.0000000000000000000 ) ) ;
#112 = CYLINDRICAL_SURFACE ( 'NONE', #193, 0.01966531500000000612 ) ;
#113 = CARTESIAN_POINT ( 'NONE',  ( 0.01966531500000000612, 2.408306506897443871E-18, -2.408306506897443871E-18 ) ) ;
#114 = VECTOR ( 'NONE', #40, 39.37007874015748143 ) ;
#115 = DIRECTION ( 'NONE',  ( -1.224646799147353207E-16, -0.0000000000000000000, -1.000000000000000000 ) ) ;
#116 = LINE ( 'NONE', #143, #199 ) ;
#117 = DIRECTION ( 'NONE',  ( -1.000000000000000000, 0.0000000000000000000, 0.0000000000000000000 ) ) ;
#118 = LINE ( 'NONE', #9, #200 ) ;
#119 = CARTESIAN_POINT ( 'NONE',  ( 0.0000000000000000000, 0.0000000000000000000, 2.229093999999999465 ) ) ;
#120 = AXIS2_PLACEMENT_3D ( 'NONE', #79, #85, #270 ) ;
#121 = DIRECTION ( 'NONE',  ( -0.1736481776669312194, 2.126576849575783625E-17, 0.9848077530122077983 ) ) ;
#122 = DIRECTION ( 'NONE',  ( 1.000000000000000000, 0.0000000000000000000, 0.0000000000000000000 ) ) ;
#123 = ORIENTED_EDGE ( 'NONE', *, *, #24, .F. ) ;
#124 = EDGE_CURVE ( 'NONE', #17, #229, #215, .T. ) ;
#125 = SURFACE_STYLE_USAGE ( .BOTH. , #178 ) ;
#126 = ORIENTED_EDGE ( 'NONE', *, *, #191, .F. ) ;
#127 = ORIENTED_EDGE ( 'NONE', *, *, #101, .F. ) ;
#128 =( LENGTH_UNIT ( ) NAMED_UNIT ( * ) SI_UNIT ( $, .METRE. ) );
#129 = EDGE_LOOP ( 'NONE', ( #157, #182, #16, #203 ) ) ;
#130 = DIRECTION ( 'NONE',  ( 1.000000000000000000, 0.0000000000000000000, 0.0000000000000000000 ) ) ;
#131 = ORIENTED_EDGE ( 'NONE', *, *, #250, .T. ) ;
#132 = CONICAL_SURFACE ( 'NONE', #148, 0.04405499999999960142, 0.7853981633974446153 ) ;
#133 =( CONVERSION_BASED_UNIT ( 'INCH', #19 ) LENGTH_UNIT ( ) NAMED_UNIT ( #139 ) );
#134 = SHAPE_DEFINITION_REPRESENTATION ( #145, #260 ) ;
#135 = EDGE_CURVE ( 'NONE', #229, #92, #59, .T. ) ;
#136 = DIRECTION ( 'NONE',  ( -0.0000000000000000000, -0.0000000000000000000, -1.000000000000000000 ) ) ;
#137 = CIRCLE ( 'NONE', #188, 0.01966531500000000959 ) ;
#138 = ADVANCED_FACE ( 'NONE', ( #272 ), #213, .T. ) ;
#139 = DIMENSIONAL_EXPONENTS ( 1.000000000000000000, 0.0000000000000000000, 0.0000000000000000000, 0.0000000000000000000, 0.0000000000000000000, 0.0000000000000000000, 0.0000000000000000000 ) ;
#140 = CARTESIAN_POINT ( 'NONE',  ( 0.04405499999999960142, 6.313666573004155588E-18, 2.244094000000000033 ) ) ;
#141 = DIRECTION ( 'NONE',  ( 1.000000000000000000, 0.0000000000000000000, -0.0000000000000000000 ) ) ;
#142 = LINE ( 'NONE', #190, #2 ) ;
#143 = CARTESIAN_POINT ( 'NONE',  ( -0.01966531499999998531, 2.408306506897444257E-18, 0.1968499999999999694 ) ) ;
#144 = DIRECTION ( 'NONE',  ( 1.000000000000000000, 0.0000000000000000000, 0.0000000000000000000 ) ) ;
#145 = PRODUCT_DEFINITION_SHAPE ( 'NONE', 'NONE',  #161 ) ;
#146 = DIMENSIONAL_EXPONENTS ( 1.000000000000000000, 0.0000000000000000000, 0.0000000000000000000, 0.0000000000000000000, 0.0000000000000000000, 0.0000000000000000000, 0.0000000000000000000 ) ;
#147 = CARTESIAN_POINT ( 'NONE',  ( -0.01966531499999998531, 4.820229089631069840E-18, 0.1968499999999999694 ) ) ;
#148 = AXIS2_PLACEMENT_3D ( 'NONE', #237, #224, #201 ) ;
#149 =( GEOMETRIC_REPRESENTATION_CONTEXT ( 3 ) GLOBAL_UNCERTAINTY_ASSIGNED_CONTEXT ( ( #167 ) ) GLOBAL_UNIT_ASSIGNED_CONTEXT ( ( #133, #38, #107 ) ) REPRESENTATION_CONTEXT ( 'NONE', 'WORKASPACE' ) );
#150 =( LENGTH_UNIT ( ) NAMED_UNIT ( * ) SI_UNIT ( $, .METRE. ) );
#151 = FACE_OUTER_BOUND ( 'NONE', #198, .T. ) ;
#152 = ORIENTED_EDGE ( 'NONE', *, *, #216, .T. ) ;
#153 = VERTEX_POINT ( 'NONE', #3 ) ;
#154 = PRESENTATION_LAYER_ASSIGNMENT (  '', '', ( #23 ) ) ;
#155 = PRESENTATION_STYLE_ASSIGNMENT (( #125 ) ) ;
#156 = ORIENTED_EDGE ( 'NONE', *, *, #279, .T. ) ;
#157 = ORIENTED_EDGE ( 'NONE', *, *, #225, .T. ) ;
#158 = APPLICATION_PROTOCOL_DEFINITION ( 'draft international standard', 'automotive_design', 1998, #246 ) ;
#159 = DIRECTION ( 'NONE',  ( -1.224646799147353207E-16, -0.0000000000000000000, -1.000000000000000000 ) ) ;
#160 =( GEOMETRIC_REPRESENTATION_CONTEXT ( 3 ) GLOBAL_UNCERTAINTY_ASSIGNED_CONTEXT ( ( #209 ) ) GLOBAL_UNIT_ASSIGNED_CONTEXT ( ( #202, #227, #82 ) ) REPRESENTATION_CONTEXT ( 'NONE', 'WORKASPACE' ) );
#161 = PRODUCT_DEFINITION ( 'UNKNOWN', '', #84, #295 ) ;
#162 = CARTESIAN_POINT ( 'NONE',  ( 2.410717224121564319E-17, 0.0000000000000000000, 0.1968499999999999694 ) ) ;
#163 = DIRECTION ( 'NONE',  ( 1.000000000000000000, 0.0000000000000000000, 0.0000000000000000000 ) ) ;
#164 = AXIS2_PLACEMENT_3D ( 'NONE', #47, #281, #251 ) ;
#165 = CARTESIAN_POINT ( 'NONE',  ( 0.05905500000000006577, 7.232151672364703126E-18, 0.4202400044209671504 ) ) ;
#166 = DIRECTION ( 'NONE',  ( -0.0000000000000000000, -0.0000000000000000000, -1.000000000000000000 ) ) ;
#167 = UNCERTAINTY_MEASURE_WITH_UNIT (LENGTH_MEASURE( 1.000000000000000082E-05 ), #133, 'distance_accuracy_value', 'NONE');
#168 = DIRECTION ( 'NONE',  ( 0.0000000000000000000, 0.0000000000000000000, -1.000000000000000000 ) ) ;
#169 = EDGE_CURVE ( 'NONE', #56, #153, #100, .T. ) ;
#170 = CARTESIAN_POINT ( 'NONE',  ( -0.01966531500000000612, 0.0000000000000000000, 2.408306506897443871E-18 ) ) ;
#171 = ADVANCED_FACE ( 'NONE', ( #278 ), #273, .T. ) ;
#172 = VECTOR ( 'NONE', #136, 39.37007874015748143 ) ;
#173 = AXIS2_PLACEMENT_3D ( 'NONE', #97, #51, #95 ) ;
#174 = PRODUCT_CONTEXT ( 'NONE', #246, 'mechanical' ) ;
#175 = VERTEX_POINT ( 'NONE', #147 ) ;
#176 = CARTESIAN_POINT ( 'NONE',  ( 2.949324855037697299E-34, 0.0000000000000000000, 2.408306506897443486E-18 ) ) ;
#177 = ORIENTED_EDGE ( 'NONE', *, *, #183, .T. ) ;
#178 = SURFACE_SIDE_STYLE ('',( #102 ) ) ;
#179 = ORIENTED_EDGE ( 'NONE', *, *, #36, .T. ) ;
#180 = AXIS2_PLACEMENT_3D ( 'NONE', #119, #168, #144 ) ;
#181 = ORIENTED_EDGE ( 'NONE', *, *, #135, .T. ) ;
#182 = ORIENTED_EDGE ( 'NONE', *, *, #101, .T. ) ;
#183 = EDGE_CURVE ( 'NONE', #271, #92, #118, .T. ) ;
#184 = CONICAL_SURFACE ( 'NONE', #164, 0.04405499999999960142, 0.7853981633974446153 ) ;
#185 = CARTESIAN_POINT ( 'NONE',  ( 0.0000000000000000000, 0.0000000000000000000, 2.229093999999999465 ) ) ;
#186 = ADVANCED_FACE ( 'NONE', ( #74 ), #37, .T. ) ;
#187 = DIRECTION ( 'NONE',  ( 1.224646799147353207E-16, 0.0000000000000000000, 1.000000000000000000 ) ) ;
#188 = AXIS2_PLACEMENT_3D ( 'NONE', #192, #49, #264 ) ;
#189 = PRESENTATION_STYLE_ASSIGNMENT (( #10 ) ) ;
#190 = CARTESIAN_POINT ( 'NONE',  ( 0.01966531500000003735, 0.0000000000000000000, 0.1968499999999999694 ) ) ;
#191 = EDGE_CURVE ( 'NONE', #17, #271, #207, .T. ) ;
#192 = CARTESIAN_POINT ( 'NONE',  ( 2.410717224121564319E-17, 0.0000000000000000000, 0.1968499999999999694 ) ) ;
#193 = AXIS2_PLACEMENT_3D ( 'NONE', #89, #194, #104 ) ;
#194 = DIRECTION ( 'NONE',  ( -1.224646799147353207E-16, -0.0000000000000000000, -1.000000000000000000 ) ) ;
#195 = AXIS2_PLACEMENT_3D ( 'NONE', #87, #249, #130 ) ;
#196 = DIRECTION ( 'NONE',  ( -0.0000000000000000000, -0.0000000000000000000, -1.000000000000000000 ) ) ;
#197 = DIRECTION ( 'NONE',  ( 0.0000000000000000000, 0.0000000000000000000, 1.000000000000000000 ) ) ;
#198 = EDGE_LOOP ( 'NONE', ( #22, #156 ) ) ;
#199 = VECTOR ( 'NONE', #121, 39.37007874015748143 ) ;
#200 = VECTOR ( 'NONE', #196, 39.37007874015748143 ) ;
#201 = DIRECTION ( 'NONE',  ( -1.000000000000000000, 0.0000000000000000000, 0.0000000000000000000 ) ) ;
#202 =( CONVERSION_BASED_UNIT ( 'INCH', #223 ) LENGTH_UNIT ( ) NAMED_UNIT ( #8 ) );
#203 = ORIENTED_EDGE ( 'NONE', *, *, #274, .F. ) ;
#204 = EDGE_CURVE ( 'NONE', #41, #92, #142, .T. ) ;
#205 = ORIENTED_EDGE ( 'NONE', *, *, #1, .F. ) ;
#206 = APPLICATION_CONTEXT ( 'automotive_design' ) ;
#207 = CIRCLE ( 'NONE', #180, 0.05905500000000001720 ) ;
#208 = EDGE_LOOP ( 'NONE', ( #127, #152, #108, #240 ) ) ;
#209 = UNCERTAINTY_MEASURE_WITH_UNIT (LENGTH_MEASURE( 1.000000000000000082E-05 ), #202, 'distance_accuracy_value', 'NONE');
#210 = DIRECTION ( 'NONE',  ( 0.7071067811865449082, 8.659560562354900811E-17, -0.7071067811865501263 ) ) ;
#211 = CARTESIAN_POINT ( 'NONE',  ( -0.05905500000000001720, 0.0000000000000000000, 2.244094000000000033 ) ) ;
#212 = DIRECTION ( 'NONE',  ( 0.0000000000000000000, 0.0000000000000000000, -1.000000000000000000 ) ) ;
#213 = CYLINDRICAL_SURFACE ( 'NONE', #26, 0.05905500000000001720 ) ;
#214 = AXIS2_PLACEMENT_3D ( 'NONE', #280, #115, #30 ) ;
#215 = LINE ( 'NONE', #211, #172 ) ;
#216 = EDGE_CURVE ( 'NONE', #41, #175, #137, .T. ) ;
#217 = LINE ( 'NONE', #170, #114 ) ;
#218 = SURFACE_STYLE_FILL_AREA ( #50 ) ;
#219 = CARTESIAN_POINT ( 'NONE',  ( 2.410717224121564319E-17, 0.0000000000000000000, 0.1968499999999999694 ) ) ;
#220 = AXIS2_PLACEMENT_3D ( 'NONE', #290, #109, #245 ) ;
#221 = FACE_OUTER_BOUND ( 'NONE', #64, .T. ) ;
#222 = ORIENTED_EDGE ( 'NONE', *, *, #204, .F. ) ;
#223 = LENGTH_MEASURE_WITH_UNIT ( LENGTH_MEASURE( 0.02539999999999999897 ), #105 );
#224 = DIRECTION ( 'NONE',  ( 0.0000000000000000000, 0.0000000000000000000, -1.000000000000000000 ) ) ;
#225 = EDGE_CURVE ( 'NONE', #175, #41, #7, .T. ) ;
#226 = ORIENTED_EDGE ( 'NONE', *, *, #57, .T. ) ;
#227 =( NAMED_UNIT ( * ) PLANE_ANGLE_UNIT ( ) SI_UNIT ( $, .RADIAN. ) );
#228 = ORIENTED_EDGE ( 'NONE', *, *, #1, .T. ) ;
#229 = VERTEX_POINT ( 'NONE', #72 ) ;
#230 = CIRCLE ( 'NONE', #71, 0.04405499999999960142 ) ;
#231 = DIRECTION ( 'NONE',  ( 1.000000000000000000, 0.0000000000000000000, 0.0000000000000000000 ) ) ;
#232 = CARTESIAN_POINT ( 'NONE',  ( 0.0000000000000000000, 0.0000000000000000000, 2.244094000000000033 ) ) ;
#233 = EDGE_CURVE ( 'NONE', #153, #56, #230, .T. ) ;
#234 = CARTESIAN_POINT ( 'NONE',  ( 0.0000000000000000000, 0.0000000000000000000, 0.0000000000000000000 ) ) ;
#235 = CIRCLE ( 'NONE', #283, 0.01966531500000000265 ) ;
#236 = CARTESIAN_POINT ( 'NONE',  ( 0.0000000000000000000, 0.0000000000000000000, 2.244094000000000033 ) ) ;
#237 = CARTESIAN_POINT ( 'NONE',  ( 0.0000000000000000000, 0.0000000000000000000, 2.244094000000000033 ) ) ;
#238 = ORIENTED_EDGE ( 'NONE', *, *, #204, .T. ) ;
#239 = MECHANICAL_DESIGN_GEOMETRIC_PRESENTATION_REPRESENTATION (  '', ( #23 ), #289 ) ;
#240 = ORIENTED_EDGE ( 'NONE', *, *, #279, .F. ) ;
#241 = PLANE ( 'NONE',  #88 ) ;
#242 = FACE_OUTER_BOUND ( 'NONE', #20, .T. ) ;
#243 = ORIENTED_EDGE ( 'NONE', *, *, #233, .F. ) ;
#244 = PRODUCT_RELATED_PRODUCT_CATEGORY ( 'part', '', ( #81 ) ) ;
#245 = DIRECTION ( 'NONE',  ( -1.000000000000000000, 0.0000000000000000000, 1.224646799147353207E-16 ) ) ;
#246 = APPLICATION_CONTEXT ( 'automotive_design' ) ;
#247 = VERTEX_POINT ( 'NONE', #34 ) ;
#248 = STYLED_ITEM ( 'NONE', ( #155 ), #260 ) ;
#249 = DIRECTION ( 'NONE',  ( 0.0000000000000000000, 0.0000000000000000000, 1.000000000000000000 ) ) ;
#250 = EDGE_CURVE ( 'NONE', #153, #17, #32, .T. ) ;
#251 = DIRECTION ( 'NONE',  ( -1.000000000000000000, 0.0000000000000000000, 0.0000000000000000000 ) ) ;
#252 = VECTOR ( 'NONE', #210, 39.37007874015748143 ) ;
#253 = COLOUR_RGB ( '',0.7921568627450980005, 0.8196078431372548767, 0.9333333333333333481 ) ;
#254 = DIRECTION ( 'NONE',  ( -1.000000000000000000, 0.0000000000000000000, 0.0000000000000000000 ) ) ;
#255 = LINE ( 'NONE', #113, #68 ) ;
#256 = DIRECTION ( 'NONE',  ( 0.0000000000000000000, 0.0000000000000000000, 1.000000000000000000 ) ) ;
#257 = MANIFOLD_SOLID_BREP ( 'Cut-Revolve1', #299 ) ;
#258 = FACE_OUTER_BOUND ( 'NONE', #208, .T. ) ;
#259 = SURFACE_SIDE_STYLE ('',( #218 ) ) ;
#260 = ADVANCED_BREP_SHAPE_REPRESENTATION ( 'Micro_SFPM-010-10', ( #257, #52 ), #149 ) ;
#261 = DIRECTION ( 'NONE',  ( 0.1736481776669314414, 0.0000000000000000000, 0.9848077530122077983 ) ) ;
#262 = CARTESIAN_POINT ( 'NONE',  ( -0.04405499999999960142, 0.0000000000000000000, 2.244094000000000033 ) ) ;
#263 =( NAMED_UNIT ( * ) PLANE_ANGLE_UNIT ( ) SI_UNIT ( $, .RADIAN. ) );
#264 = DIRECTION ( 'NONE',  ( -1.000000000000000000, 0.0000000000000000000, 0.0000000000000000000 ) ) ;
#265 = MECHANICAL_DESIGN_GEOMETRIC_PRESENTATION_REPRESENTATION (  '', ( #248 ), #160 ) ;
#266 = DIRECTION ( 'NONE',  ( -1.224646799147353207E-16, -0.0000000000000000000, -1.000000000000000000 ) ) ;
#267 = DIRECTION ( 'NONE',  ( 1.000000000000000000, 0.0000000000000000000, 0.0000000000000000000 ) ) ;
#268 = ADVANCED_FACE ( 'NONE', ( #221 ), #69, .T. ) ;
#269 = LINE ( 'NONE', #90, #252 ) ;
#270 = DIRECTION ( 'NONE',  ( 1.000000000000000000, 0.0000000000000000000, -0.0000000000000000000 ) ) ;
#271 = VERTEX_POINT ( 'NONE', #13 ) ;
#272 = FACE_OUTER_BOUND ( 'NONE', #58, .T. ) ;
#273 = CONICAL_SURFACE ( 'NONE', #173, 0.01966531500000000959, 0.1745329251994339470 ) ;
#274 = EDGE_CURVE ( 'NONE', #175, #247, #217, .T. ) ;
#275 = ORIENTED_EDGE ( 'NONE', *, *, #191, .T. ) ;
#276 = ORIENTED_EDGE ( 'NONE', *, *, #183, .F. ) ;
#277 = COLOUR_RGB ( '',0.7921568627450980005, 0.8196078431372548767, 0.9333333333333333481 ) ;
#278 = FACE_OUTER_BOUND ( 'NONE', #110, .T. ) ;
#279 = EDGE_CURVE ( 'NONE', #99, #247, #235, .T. ) ;
#280 = CARTESIAN_POINT ( 'NONE',  ( 5.146455762878069340E-17, 0.0000000000000000000, 0.4202400044209671504 ) ) ;
#281 = DIRECTION ( 'NONE',  ( 0.0000000000000000000, 0.0000000000000000000, -1.000000000000000000 ) ) ;
#282 = DIRECTION ( 'NONE',  ( -1.224646799147353207E-16, -0.0000000000000000000, -1.000000000000000000 ) ) ;
#283 = AXIS2_PLACEMENT_3D ( 'NONE', #176, #266, #297 ) ;
#284 = ADVANCED_FACE ( 'NONE', ( #151 ), #98, .F. ) ;
#285 = LENGTH_MEASURE_WITH_UNIT ( LENGTH_MEASURE( 0.02539999999999999897 ), #150 );
#286 = DIRECTION ( 'NONE',  ( 0.0000000000000000000, 0.0000000000000000000, 1.000000000000000000 ) ) ;
#287 = DIRECTION ( 'NONE',  ( 1.000000000000000000, 0.0000000000000000000, 0.0000000000000000000 ) ) ;
#288 = ORIENTED_EDGE ( 'NONE', *, *, #225, .F. ) ;
#289 =( GEOMETRIC_REPRESENTATION_CONTEXT ( 3 ) GLOBAL_UNCERTAINTY_ASSIGNED_CONTEXT ( ( #93 ) ) GLOBAL_UNIT_ASSIGNED_CONTEXT ( ( #73, #263, #48 ) ) REPRESENTATION_CONTEXT ( 'NONE', 'WORKASPACE' ) );
#290 = CARTESIAN_POINT ( 'NONE',  ( 2.949324855037697299E-34, 0.0000000000000000000, 2.408306506897443486E-18 ) ) ;
#291 = CARTESIAN_POINT ( 'NONE',  ( -0.05905500000000001720, 0.0000000000000000000, 2.229093999999999465 ) ) ;
#292 = ORIENTED_EDGE ( 'NONE', *, *, #135, .F. ) ;
#293 = EDGE_CURVE ( 'NONE', #247, #99, #12, .T. ) ;
#294 = ORIENTED_EDGE ( 'NONE', *, *, #24, .T. ) ;
#295 = PRODUCT_DEFINITION_CONTEXT ( 'detailed design', #206, 'design' ) ;
#296 = PRESENTATION_LAYER_ASSIGNMENT (  '', '', ( #248 ) ) ;
#297 = DIRECTION ( 'NONE',  ( -1.000000000000000000, 0.0000000000000000000, 1.224646799147353207E-16 ) ) ;
#298 = ORIENTED_EDGE ( 'NONE', *, *, #124, .T. ) ;
#299 = CLOSED_SHELL ( 'NONE', ( #186, #171, #78, #138, #268, #31, #5, #67, #28, #284 ) ) ;
ENDSEC;
END-ISO-10303-21;
