ISO-10303-21;
HEADER;
FILE_DESCRIPTION (( 'STEP AP214' ),
    '1' );
FILE_NAME ('81326.STEP',
    '2023-06-30T22:25:26',
    ( '' ),
    ( '' ),
    'SwSTEP 2.0',
    'SolidWorks 2023',
    '' );
FILE_SCHEMA (( 'AUTOMOTIVE_DESIGN' ));
ENDSEC;

DATA;
#1 =( NAMED_UNIT ( * ) PLANE_ANGLE_UNIT ( ) SI_UNIT ( $, .RADIAN. ) );
#2 = CYLINDRICAL_SURFACE ( 'NONE', #329, 0.2499999999999997224 ) ;
#3 = CIRCLE ( 'NONE', #54, 0.2499999999999999722 ) ;
#4 = DIRECTION ( 'NONE',  ( -1.000000000000000000, 0.000000000000000000, 0.000000000000000000 ) ) ;
#5 = AXIS2_PLACEMENT_3D ( 'NONE', #222, #336, #275 ) ;
#6 = FACE_OUTER_BOUND ( 'NONE', #111, .T. ) ;
#7 = ADVANCED_FACE ( 'NONE', ( #207 ), #2, .T. ) ;
#8 =( NAMED_UNIT ( * ) PLANE_ANGLE_UNIT ( ) SI_UNIT ( $, .RADIAN. ) );
#9 = SURFACE_STYLE_USAGE ( .BOTH. , #237 ) ;
#10 = DIRECTION ( 'NONE',  ( 1.000000000000000000, 0.000000000000000000, 0.000000000000000000 ) ) ;
#11 = CYLINDRICAL_SURFACE ( 'NONE', #5, 0.2499999999999999167 ) ;
#12 = SPHERICAL_SURFACE ( 'NONE', #33, 0.2500000000000000000 ) ;
#13 = AXIS2_PLACEMENT_3D ( 'NONE', #355, #16, #74 ) ;
#14 = EDGE_LOOP ( 'NONE', ( #182, #115, #350, #338 ) ) ;
#15 = COLOUR_RGB ( '',1.000000000000000000, 0.000000000000000000, 0.000000000000000000 ) ;
#16 = DIRECTION ( 'NONE',  ( 1.213598060927639232E-16, -1.000000000000000000, 0.000000000000000000 ) ) ;
#17 = CARTESIAN_POINT ( 'NONE',  ( 6.123233995736759873E-17, 3.000000000000000444, 0.000000000000000000 ) ) ;
#18 = EDGE_CURVE ( 'NONE', #347, #281, #162, .T. ) ;
#19 = ADVANCED_FACE ( 'NONE', ( #6 ), #11, .T. ) ;
#20 = LENGTH_MEASURE_WITH_UNIT ( LENGTH_MEASURE( 0.02539999999999999897 ), #75 );
#21 = PRESENTATION_LAYER_ASSIGNMENT (  '', '', ( #102 ) ) ;
#22 = MECHANICAL_DESIGN_GEOMETRIC_PRESENTATION_REPRESENTATION (  '', ( #221 ), #51 ) ;
#23 =( NAMED_UNIT ( * ) SI_UNIT ( $, .STERADIAN. ) SOLID_ANGLE_UNIT ( ) );
#24 = EDGE_LOOP ( 'NONE', ( #57, #227, #211, #290, #199 ) ) ;
#25 = EDGE_CURVE ( 'NONE', #298, #38, #66, .T. ) ;
#26 = STYLED_ITEM ( 'NONE', ( #205 ), #19 ) ;
#27 = VECTOR ( 'NONE', #210, 39.37007874015748143 ) ;
#28 = FILL_AREA_STYLE_COLOUR ( '', #166 ) ;
#29 = ORIENTED_EDGE ( 'NONE', *, *, #134, .T. ) ;
#30 = DIRECTION ( 'NONE',  ( 0.000000000000000000, 0.000000000000000000, -1.000000000000000000 ) ) ;
#31 = DIRECTION ( 'NONE',  ( -0.000000000000000000, -1.000000000000000000, -0.000000000000000000 ) ) ;
#32 = ORIENTED_EDGE ( 'NONE', *, *, #18, .T. ) ;
#33 = AXIS2_PLACEMENT_3D ( 'NONE', #293, #145, #35 ) ;
#34 = UNCERTAINTY_MEASURE_WITH_UNIT (LENGTH_MEASURE( 1.000000000000000082E-05 ), #170, 'distance_accuracy_value', 'NONE');
#35 = DIRECTION ( 'NONE',  ( 1.000000000000000000, 0.000000000000000000, 0.000000000000000000 ) ) ;
#36 = ORIENTED_EDGE ( 'NONE', *, *, #308, .T. ) ;
#37 = EDGE_CURVE ( 'NONE', #313, #143, #276, .T. ) ;
#38 = VERTEX_POINT ( 'NONE', #306 ) ;
#39 = CARTESIAN_POINT ( 'NONE',  ( 3.061616997868383018E-17, 0.2500000000000000555, 0.2500000000000000000 ) ) ;
#40 = COLOUR_RGB ( '',1.000000000000000000, 0.000000000000000000, 0.000000000000000000 ) ;
#41 = CARTESIAN_POINT ( 'NONE',  ( 3.061616997868381785E-17, 1.000000000000000000, 0.2499999999999998890 ) ) ;
#42 =( CONVERSION_BASED_UNIT ( 'INCH', #20 ) LENGTH_UNIT ( ) NAMED_UNIT ( #363 ) );
#43 = CIRCLE ( 'NONE', #253, 0.2499999999999998890 ) ;
#44 = CARTESIAN_POINT ( 'NONE',  ( -0.2500000000000000000, 0.2500000000000000555, 3.061616997868382402E-17 ) ) ;
#45 = SURFACE_SIDE_STYLE ('',( #225 ) ) ;
#46 =( CONVERSION_BASED_UNIT ( 'INCH', #301 ) LENGTH_UNIT ( ) NAMED_UNIT ( #366 ) );
#47 = ADVANCED_FACE ( 'NONE', ( #130 ), #101, .T. ) ;
#48 = PRODUCT_DEFINITION ( 'UNKNOWN', '', #157, #181 ) ;
#49 = SURFACE_SIDE_STYLE ('',( #112 ) ) ;
#50 = DIRECTION ( 'NONE',  ( 0.000000000000000000, -0.000000000000000000, 1.000000000000000000 ) ) ;
#51 =( GEOMETRIC_REPRESENTATION_CONTEXT ( 3 ) GLOBAL_UNCERTAINTY_ASSIGNED_CONTEXT ( ( #357 ) ) GLOBAL_UNIT_ASSIGNED_CONTEXT ( ( #279, #200, #229 ) ) REPRESENTATION_CONTEXT ( 'NONE', 'WORKASPACE' ) );
#52 = ORIENTED_EDGE ( 'NONE', *, *, #25, .T. ) ;
#53 = PRODUCT_DEFINITION_SHAPE ( 'NONE', 'NONE',  #48 ) ;
#54 = AXIS2_PLACEMENT_3D ( 'NONE', #348, #151, #30 ) ;
#55 = VECTOR ( 'NONE', #216, 39.37007874015748143 ) ;
#56 = PRESENTATION_LAYER_ASSIGNMENT (  '', '', ( #221 ) ) ;
#57 = ORIENTED_EDGE ( 'NONE', *, *, #282, .T. ) ;
#58 = LENGTH_MEASURE_WITH_UNIT ( LENGTH_MEASURE( 0.02539999999999999897 ), #345 );
#59 = COLOUR_RGB ( '',1.000000000000000000, 0.000000000000000000, 0.000000000000000000 ) ;
#60 = AXIS2_PLACEMENT_3D ( 'NONE', #349, #114, #266 ) ;
#61 = CARTESIAN_POINT ( 'NONE',  ( 3.061616997868382402E-17, 0.000000000000000000, 0.2499999999999999167 ) ) ;
#62 = DIRECTION ( 'NONE',  ( 1.000000000000000000, 0.000000000000000000, -1.224646799147353207E-16 ) ) ;
#63 = CARTESIAN_POINT ( 'NONE',  ( 0.000000000000000000, 0.2500000000000000555, 0.000000000000000000 ) ) ;
#64 = UNCERTAINTY_MEASURE_WITH_UNIT (LENGTH_MEASURE( 1.000000000000000082E-05 ), #271, 'distance_accuracy_value', 'NONE');
#65 =( CONVERSION_BASED_UNIT ( 'INCH', #175 ) LENGTH_UNIT ( ) NAMED_UNIT ( #133 ) );
#66 = CIRCLE ( 'NONE', #219, 0.2499999999999998335 ) ;
#67 = FILL_AREA_STYLE_COLOUR ( '', #59 ) ;
#68 = DIRECTION ( 'NONE',  ( 0.000000000000000000, 0.000000000000000000, -1.000000000000000000 ) ) ;
#69 = ORIENTED_EDGE ( 'NONE', *, *, #251, .F. ) ;
#70 = FACE_OUTER_BOUND ( 'NONE', #186, .T. ) ;
#71 = ORIENTED_EDGE ( 'NONE', *, *, #177, .F. ) ;
#72 = CARTESIAN_POINT ( 'NONE',  ( 0.2499999999999999167, 1.000000000000000000, 3.061616997868380553E-17 ) ) ;
#73 =( NAMED_UNIT ( * ) PLANE_ANGLE_UNIT ( ) SI_UNIT ( $, .RADIAN. ) );
#74 = DIRECTION ( 'NONE',  ( 1.000000000000000000, 1.213598060927639232E-16, 0.000000000000000000 ) ) ;
#75 =( LENGTH_UNIT ( ) NAMED_UNIT ( * ) SI_UNIT ( $, .METRE. ) );
#76 = DIRECTION ( 'NONE',  ( -1.213598060927639232E-16, 1.000000000000000000, -0.000000000000000000 ) ) ;
#77 = SURFACE_STYLE_USAGE ( .BOTH. , #45 ) ;
#78 = FILL_AREA_STYLE_COLOUR ( '', #305 ) ;
#79 = VERTEX_POINT ( 'NONE', #191 ) ;
#80 = AXIS2_PLACEMENT_3D ( 'NONE', #17, #220, #189 ) ;
#81 = FILL_AREA_STYLE_COLOUR ( '', #232 ) ;
#82 = CIRCLE ( 'NONE', #346, 0.2499999999999995837 ) ;
#83 = AXIS2_PLACEMENT_3D ( 'NONE', #323, #68, #144 ) ;
#84 = FILL_AREA_STYLE ('',( #238 ) ) ;
#85 = EDGE_LOOP ( 'NONE', ( #257, #284 ) ) ;
#86 =( NAMED_UNIT ( * ) SI_UNIT ( $, .STERADIAN. ) SOLID_ANGLE_UNIT ( ) );
#87 = VERTEX_POINT ( 'NONE', #190 ) ;
#88 = CARTESIAN_POINT ( 'NONE',  ( 0.000000000000000000, 0.000000000000000000, 0.000000000000000000 ) ) ;
#89 = ORIENTED_EDGE ( 'NONE', *, *, #208, .T. ) ;
#90 =( GEOMETRIC_REPRESENTATION_CONTEXT ( 3 ) GLOBAL_UNCERTAINTY_ASSIGNED_CONTEXT ( ( #92 ) ) GLOBAL_UNIT_ASSIGNED_CONTEXT ( ( #122, #321, #367 ) ) REPRESENTATION_CONTEXT ( 'NONE', 'WORKASPACE' ) );
#91 = ORIENTED_EDGE ( 'NONE', *, *, #249, .T. ) ;
#92 = UNCERTAINTY_MEASURE_WITH_UNIT (LENGTH_MEASURE( 1.000000000000000082E-05 ), #122, 'distance_accuracy_value', 'NONE');
#93 = DIRECTION ( 'NONE',  ( -1.000000000000000000, -1.213598060927639232E-16, 0.000000000000000000 ) ) ;
#94 = ORIENTED_EDGE ( 'NONE', *, *, #25, .F. ) ;
#95 =( LENGTH_UNIT ( ) NAMED_UNIT ( * ) SI_UNIT ( $, .METRE. ) );
#96 = LINE ( 'NONE', #187, #195 ) ;
#97 =( LENGTH_UNIT ( ) NAMED_UNIT ( * ) SI_UNIT ( $, .METRE. ) );
#98 = CIRCLE ( 'NONE', #369, 0.2499999999999999722 ) ;
#99 = FACE_OUTER_BOUND ( 'NONE', #146, .T. ) ;
#100 = PRESENTATION_LAYER_ASSIGNMENT (  '', '', ( #264 ) ) ;
#101 = SPHERICAL_SURFACE ( 'NONE', #262, 0.2500000000000000000 ) ;
#102 = STYLED_ITEM ( 'NONE', ( #340 ), #124 ) ;
#103 = DIMENSIONAL_EXPONENTS ( 1.000000000000000000, 0.000000000000000000, 0.000000000000000000, 0.000000000000000000, 0.000000000000000000, 0.000000000000000000, 0.000000000000000000 ) ;
#104 = MANIFOLD_SOLID_BREP ( 'Revolve - Cutting Edge', #373 ) ;
#105 = MANIFOLD_SOLID_BREP ( 'Revolve - Tool Body (Straight Shanked)', #322 ) ;
#106 = AXIS2_PLACEMENT_3D ( 'NONE', #247, #360, #245 ) ;
#107 = DIRECTION ( 'NONE',  ( 1.000000000000000000, 0.000000000000000000, 0.000000000000000000 ) ) ;
#108 = CIRCLE ( 'NONE', #159, 0.2499999999999999722 ) ;
#109 = PRODUCT ( '81326', '81326', '', ( #212 ) ) ;
#110 = SURFACE_SIDE_STYLE ('',( #370 ) ) ;
#111 = EDGE_LOOP ( 'NONE', ( #71, #259, #194, #69, #214 ) ) ;
#112 = SURFACE_STYLE_FILL_AREA ( #312 ) ;
#113 = ADVANCED_FACE ( 'NONE', ( #228 ), #132, .T. ) ;
#114 = DIRECTION ( 'NONE',  ( -1.213598060927639232E-16, 1.000000000000000000, -0.000000000000000000 ) ) ;
#115 = ORIENTED_EDGE ( 'NONE', *, *, #251, .T. ) ;
#116 = MECHANICAL_DESIGN_GEOMETRIC_PRESENTATION_REPRESENTATION (  '', ( #311 ), #310 ) ;
#117 = AXIS2_PLACEMENT_3D ( 'NONE', #215, #185, #299 ) ;
#118 = APPLICATION_PROTOCOL_DEFINITION ( 'draft international standard', 'automotive_design', 1998, #335 ) ;
#119 = PRESENTATION_LAYER_ASSIGNMENT (  '', '', ( #337 ) ) ;
#120 = LINE ( 'NONE', #204, #137 ) ;
#121 = FILL_AREA_STYLE ('',( #67 ) ) ;
#122 =( CONVERSION_BASED_UNIT ( 'INCH', #267 ) LENGTH_UNIT ( ) NAMED_UNIT ( #218 ) );
#123 = DIRECTION ( 'NONE',  ( 0.000000000000000000, 0.000000000000000000, -1.000000000000000000 ) ) ;
#124 = ADVANCED_FACE ( 'NONE', ( #286 ), #167, .T. ) ;
#125 = ORIENTED_EDGE ( 'NONE', *, *, #315, .F. ) ;
#126 = CARTESIAN_POINT ( 'NONE',  ( 0.000000000000000000, 0.2500000000000000555, 0.000000000000000000 ) ) ;
#127 = COLOUR_RGB ( '',0.7921568627450980005, 0.8196078431372548767, 0.9333333333333333481 ) ;
#128 = DIRECTION ( 'NONE',  ( 0.000000000000000000, 0.000000000000000000, -1.000000000000000000 ) ) ;
#129 = DIRECTION ( 'NONE',  ( -0.000000000000000000, -1.000000000000000000, -0.000000000000000000 ) ) ;
#130 = FACE_OUTER_BOUND ( 'NONE', #372, .T. ) ;
#131 = DIRECTION ( 'NONE',  ( 0.000000000000000000, 0.000000000000000000, -1.000000000000000000 ) ) ;
#132 = PLANE ( 'NONE',  #265 ) ;
#133 = DIMENSIONAL_EXPONENTS ( 1.000000000000000000, 0.000000000000000000, 0.000000000000000000, 0.000000000000000000, 0.000000000000000000, 0.000000000000000000, 0.000000000000000000 ) ;
#134 = EDGE_CURVE ( 'NONE', #79, #347, #98, .T. ) ;
#135 =( NAMED_UNIT ( * ) PLANE_ANGLE_UNIT ( ) SI_UNIT ( $, .RADIAN. ) );
#136 = CARTESIAN_POINT ( 'NONE',  ( -3.061616997868383018E-17, 0.2500000000000000000, 0.000000000000000000 ) ) ;
#137 = VECTOR ( 'NONE', #320, 39.37007874015748143 ) ;
#138 = ADVANCED_BREP_SHAPE_REPRESENTATION ( '81326', ( #104, #105, #233 ), #316 ) ;
#139 = FILL_AREA_STYLE_COLOUR ( '', #15 ) ;
#140 =( NAMED_UNIT ( * ) PLANE_ANGLE_UNIT ( ) SI_UNIT ( $, .RADIAN. ) );
#141 = CIRCLE ( 'NONE', #83, 0.2500000000000000000 ) ;
#142 = SURFACE_SIDE_STYLE ('',( #206 ) ) ;
#143 = VERTEX_POINT ( 'NONE', #178 ) ;
#144 = DIRECTION ( 'NONE',  ( -1.000000000000000000, 0.000000000000000000, 0.000000000000000000 ) ) ;
#145 = DIRECTION ( 'NONE',  ( 0.000000000000000000, 0.000000000000000000, 1.000000000000000000 ) ) ;
#146 = EDGE_LOOP ( 'NONE', ( #234, #263 ) ) ;
#147 = PRESENTATION_LAYER_ASSIGNMENT (  '', '', ( #235 ) ) ;
#148 = ADVANCED_FACE ( 'NONE', ( #154 ), #12, .T. ) ;
#149 =( GEOMETRIC_REPRESENTATION_CONTEXT ( 3 ) GLOBAL_UNCERTAINTY_ASSIGNED_CONTEXT ( ( #325 ) ) GLOBAL_UNIT_ASSIGNED_CONTEXT ( ( #352, #8, #152 ) ) REPRESENTATION_CONTEXT ( 'NONE', 'WORKASPACE' ) );
#150 = UNCERTAINTY_MEASURE_WITH_UNIT (LENGTH_MEASURE( 1.000000000000000082E-05 ), #65, 'distance_accuracy_value', 'NONE');
#151 = DIRECTION ( 'NONE',  ( -0.000000000000000000, -1.000000000000000000, -0.000000000000000000 ) ) ;
#152 =( NAMED_UNIT ( * ) SI_UNIT ( $, .STERADIAN. ) SOLID_ANGLE_UNIT ( ) );
#153 = EDGE_LOOP ( 'NONE', ( #309, #324, #327, #356 ) ) ;
#154 = FACE_OUTER_BOUND ( 'NONE', #14, .T. ) ;
#155 = CARTESIAN_POINT ( 'NONE',  ( 6.123233995736759873E-17, 3.000000000000000444, 0.000000000000000000 ) ) ;
#156 =( NAMED_UNIT ( * ) PLANE_ANGLE_UNIT ( ) SI_UNIT ( $, .RADIAN. ) );
#157 = PRODUCT_DEFINITION_FORMATION_WITH_SPECIFIED_SOURCE ( 'ANY', '', #109, .NOT_KNOWN. ) ;
#158 = CARTESIAN_POINT ( 'NONE',  ( 3.039519521428954204E-16, 1.000000000000000000, 0.000000000000000000 ) ) ;
#159 = AXIS2_PLACEMENT_3D ( 'NONE', #289, #31, #261 ) ;
#160 = FACE_OUTER_BOUND ( 'NONE', #153, .T. ) ;
#161 = DIMENSIONAL_EXPONENTS ( 1.000000000000000000, 0.000000000000000000, 0.000000000000000000, 0.000000000000000000, 0.000000000000000000, 0.000000000000000000, 0.000000000000000000 ) ;
#162 = CIRCLE ( 'NONE', #364, 0.2499999999999999722 ) ;
#163 = SURFACE_STYLE_FILL_AREA ( #332 ) ;
#164 = DIMENSIONAL_EXPONENTS ( 1.000000000000000000, 0.000000000000000000, 0.000000000000000000, 0.000000000000000000, 0.000000000000000000, 0.000000000000000000, 0.000000000000000000 ) ;
#165 = PRESENTATION_STYLE_ASSIGNMENT (( #359 ) ) ;
#166 = COLOUR_RGB ( '',1.000000000000000000, 0.000000000000000000, 0.000000000000000000 ) ;
#167 = CYLINDRICAL_SURFACE ( 'NONE', #217, 0.2499999999999999167 ) ;
#168 = ORIENTED_EDGE ( 'NONE', *, *, #365, .F. ) ;
#169 =( GEOMETRIC_REPRESENTATION_CONTEXT ( 3 ) GLOBAL_UNCERTAINTY_ASSIGNED_CONTEXT ( ( #241 ) ) GLOBAL_UNIT_ASSIGNED_CONTEXT ( ( #42, #73, #303 ) ) REPRESENTATION_CONTEXT ( 'NONE', 'WORKASPACE' ) );
#170 =( CONVERSION_BASED_UNIT ( 'INCH', #258 ) LENGTH_UNIT ( ) NAMED_UNIT ( #164 ) );
#171 = APPLICATION_CONTEXT ( 'automotive_design' ) ;
#172 = MECHANICAL_DESIGN_GEOMETRIC_PRESENTATION_REPRESENTATION (  '', ( #26 ), #90 ) ;
#173 = PRESENTATION_LAYER_ASSIGNMENT (  '', '', ( #311 ) ) ;
#174 = DIRECTION ( 'NONE',  ( -1.213598060927639232E-16, 1.000000000000000000, -0.000000000000000000 ) ) ;
#175 = LENGTH_MEASURE_WITH_UNIT ( LENGTH_MEASURE( 0.02539999999999999897 ), #291 );
#176 = DIRECTION ( 'NONE',  ( -0.000000000000000000, -1.000000000000000000, -0.000000000000000000 ) ) ;
#177 = EDGE_CURVE ( 'NONE', #292, #347, #287, .T. ) ;
#178 = CARTESIAN_POINT ( 'NONE',  ( 0.000000000000000000, 0.2500000000000000555, -0.2499999999999999722 ) ) ;
#179 =( LENGTH_UNIT ( ) NAMED_UNIT ( * ) SI_UNIT ( $, .METRE. ) );
#180 = CARTESIAN_POINT ( 'NONE',  ( 0.000000000000000000, 0.000000000000000000, 0.000000000000000000 ) ) ;
#181 = PRODUCT_DEFINITION_CONTEXT ( 'detailed design', #335, 'design' ) ;
#182 = ORIENTED_EDGE ( 'NONE', *, *, #249, .F. ) ;
#183 = LENGTH_MEASURE_WITH_UNIT ( LENGTH_MEASURE( 0.02539999999999999897 ), #95 );
#184 = PRODUCT_RELATED_PRODUCT_CATEGORY ( 'part', '', ( #109 ) ) ;
#185 = DIRECTION ( 'NONE',  ( -0.000000000000000000, -1.000000000000000000, -0.000000000000000000 ) ) ;
#186 = EDGE_LOOP ( 'NONE', ( #36, #52 ) ) ;
#187 = CARTESIAN_POINT ( 'NONE',  ( 0.2499999999999998057, 3.000000000000000444, 3.061616997868379320E-17 ) ) ;
#188 = CIRCLE ( 'NONE', #117, 0.2499999999999998890 ) ;
#189 = DIRECTION ( 'NONE',  ( -1.000000000000000000, 0.000000000000000000, 0.000000000000000000 ) ) ;
#190 = CARTESIAN_POINT ( 'NONE',  ( -0.2499999999999992784, 1.000000000000000000, 0.000000000000000000 ) ) ;
#191 = CARTESIAN_POINT ( 'NONE',  ( 0.2499999999999999722, 0.2500000000000000555, 0.000000000000000000 ) ) ;
#192 = FILL_AREA_STYLE ('',( #139 ) ) ;
#193 = PRESENTATION_STYLE_ASSIGNMENT (( #342 ) ) ;
#194 = ORIENTED_EDGE ( 'NONE', *, *, #37, .T. ) ;
#195 = VECTOR ( 'NONE', #331, 39.37007874015748143 ) ;
#196 = SURFACE_STYLE_USAGE ( .BOTH. , #198 ) ;
#197 = MECHANICAL_DESIGN_GEOMETRIC_PRESENTATION_REPRESENTATION (  '', ( #264 ), #280 ) ;
#198 = SURFACE_SIDE_STYLE ('',( #307 ) ) ;
#199 = ORIENTED_EDGE ( 'NONE', *, *, #37, .F. ) ;
#200 =( NAMED_UNIT ( * ) PLANE_ANGLE_UNIT ( ) SI_UNIT ( $, .RADIAN. ) );
#201 = PRESENTATION_STYLE_ASSIGNMENT (( #239 ) ) ;
#202 = AXIS2_PLACEMENT_3D ( 'NONE', #158, #213, #93 ) ;
#203 = DIRECTION ( 'NONE',  ( -1.213598060927639232E-16, 1.000000000000000000, -0.000000000000000000 ) ) ;
#204 = CARTESIAN_POINT ( 'NONE',  ( -0.2499999999999996669, 3.000000000000000444, 0.000000000000000000 ) ) ;
#205 = PRESENTATION_STYLE_ASSIGNMENT (( #9 ) ) ;
#206 = SURFACE_STYLE_FILL_AREA ( #84 ) ;
#207 = FACE_OUTER_BOUND ( 'NONE', #319, .T. ) ;
#208 = EDGE_CURVE ( 'NONE', #294, #87, #82, .T. ) ;
#209 = SHAPE_DEFINITION_REPRESENTATION ( #53, #138 ) ;
#210 = DIRECTION ( 'NONE',  ( -0.000000000000000000, -1.000000000000000000, -0.000000000000000000 ) ) ;
#211 = ORIENTED_EDGE ( 'NONE', *, *, #134, .F. ) ;
#212 = PRODUCT_CONTEXT ( 'NONE', #171, 'mechanical' ) ;
#213 = DIRECTION ( 'NONE',  ( -1.213598060927639232E-16, 1.000000000000000000, 0.000000000000000000 ) ) ;
#214 = ORIENTED_EDGE ( 'NONE', *, *, #18, .F. ) ;
#215 = CARTESIAN_POINT ( 'NONE',  ( 0.000000000000000000, 1.000000000000000000, 0.000000000000000000 ) ) ;
#216 = DIRECTION ( 'NONE',  ( -0.000000000000000000, -1.000000000000000000, -0.000000000000000000 ) ) ;
#217 = AXIS2_PLACEMENT_3D ( 'NONE', #88, #268, #236 ) ;
#218 = DIMENSIONAL_EXPONENTS ( 1.000000000000000000, 0.000000000000000000, 0.000000000000000000, 0.000000000000000000, 0.000000000000000000, 0.000000000000000000, 0.000000000000000000 ) ;
#219 = AXIS2_PLACEMENT_3D ( 'NONE', #224, #76, #333 ) ;
#220 = DIRECTION ( 'NONE',  ( -1.213598060927639232E-16, 1.000000000000000000, -0.000000000000000000 ) ) ;
#221 = STYLED_ITEM ( 'NONE', ( #254 ), #113 ) ;
#222 = CARTESIAN_POINT ( 'NONE',  ( 0.000000000000000000, 0.000000000000000000, 0.000000000000000000 ) ) ;
#223 = DIRECTION ( 'NONE',  ( 0.000000000000000000, 0.000000000000000000, 1.000000000000000000 ) ) ;
#224 = CARTESIAN_POINT ( 'NONE',  ( 6.123233995736759873E-17, 3.000000000000000444, 0.000000000000000000 ) ) ;
#225 = SURFACE_STYLE_FILL_AREA ( #368 ) ;
#226 = SURFACE_STYLE_USAGE ( .BOTH. , #110 ) ;
#227 = ORIENTED_EDGE ( 'NONE', *, *, #177, .T. ) ;
#228 = FACE_OUTER_BOUND ( 'NONE', #85, .T. ) ;
#229 =( NAMED_UNIT ( * ) SI_UNIT ( $, .STERADIAN. ) SOLID_ANGLE_UNIT ( ) );
#230 = EDGE_CURVE ( 'NONE', #87, #294, #240, .T. ) ;
#231 = CARTESIAN_POINT ( 'NONE',  ( -3.061616997868383018E-17, 0.2500000000000000000, 0.000000000000000000 ) ) ;
#232 = COLOUR_RGB ( '',0.7921568627450980005, 0.8196078431372548767, 0.9333333333333333481 ) ;
#233 = AXIS2_PLACEMENT_3D ( 'NONE', #180, #288, #10 ) ;
#234 = ORIENTED_EDGE ( 'NONE', *, *, #230, .F. ) ;
#235 = STYLED_ITEM ( 'NONE', ( #201 ), #148 ) ;
#236 = DIRECTION ( 'NONE',  ( 0.000000000000000000, 0.000000000000000000, -1.000000000000000000 ) ) ;
#237 = SURFACE_SIDE_STYLE ('',( #243 ) ) ;
#238 = FILL_AREA_STYLE_COLOUR ( '', #40 ) ;
#239 = SURFACE_STYLE_USAGE ( .BOTH. , #142 ) ;
#240 = CIRCLE ( 'NONE', #60, 0.2499999999999995837 ) ;
#241 = UNCERTAINTY_MEASURE_WITH_UNIT (LENGTH_MEASURE( 1.000000000000000082E-05 ), #42, 'distance_accuracy_value', 'NONE');
#242 = LENGTH_MEASURE_WITH_UNIT ( LENGTH_MEASURE( 0.02539999999999999897 ), #283 );
#243 = SURFACE_STYLE_FILL_AREA ( #121 ) ;
#244 =( NAMED_UNIT ( * ) SI_UNIT ( $, .STERADIAN. ) SOLID_ANGLE_UNIT ( ) );
#245 = DIRECTION ( 'NONE',  ( -1.000000000000000000, 0.000000000000000000, 0.000000000000000000 ) ) ;
#246 = CARTESIAN_POINT ( 'NONE',  ( 0.000000000000000000, 0.000000000000000000, -0.2499999999999999167 ) ) ;
#247 = CARTESIAN_POINT ( 'NONE',  ( 6.123233995736759873E-17, 3.000000000000000444, 0.000000000000000000 ) ) ;
#248 =( NAMED_UNIT ( * ) SI_UNIT ( $, .STERADIAN. ) SOLID_ANGLE_UNIT ( ) );
#249 = EDGE_CURVE ( 'NONE', #281, #341, #272, .T. ) ;
#250 = PRESENTATION_STYLE_ASSIGNMENT (( #77 ) ) ;
#251 = EDGE_CURVE ( 'NONE', #281, #143, #108, .T. ) ;
#252 = MECHANICAL_DESIGN_GEOMETRIC_PRESENTATION_REPRESENTATION (  '', ( #235 ), #361 ) ;
#253 = AXIS2_PLACEMENT_3D ( 'NONE', #326, #129, #131 ) ;
#254 = PRESENTATION_STYLE_ASSIGNMENT (( #196 ) ) ;
#255 = FILL_AREA_STYLE ('',( #28 ) ) ;
#256 = EDGE_CURVE ( 'NONE', #87, #38, #120, .T. ) ;
#257 = ORIENTED_EDGE ( 'NONE', *, *, #282, .F. ) ;
#258 = LENGTH_MEASURE_WITH_UNIT ( LENGTH_MEASURE( 0.02539999999999999897 ), #371 );
#259 = ORIENTED_EDGE ( 'NONE', *, *, #285, .T. ) ;
#260 = CARTESIAN_POINT ( 'NONE',  ( -1.530808498934191509E-17, 0.000000000000000000, 0.000000000000000000 ) ) ;
#261 = DIRECTION ( 'NONE',  ( 0.000000000000000000, 0.000000000000000000, -1.000000000000000000 ) ) ;
#262 = AXIS2_PLACEMENT_3D ( 'NONE', #136, #223, #107 ) ;
#263 = ORIENTED_EDGE ( 'NONE', *, *, #208, .F. ) ;
#264 = STYLED_ITEM ( 'NONE', ( #250 ), #47 ) ;
#265 = AXIS2_PLACEMENT_3D ( 'NONE', #344, #314, #50 ) ;
#266 = DIRECTION ( 'NONE',  ( -1.000000000000000000, 0.000000000000000000, 0.000000000000000000 ) ) ;
#267 = LENGTH_MEASURE_WITH_UNIT ( LENGTH_MEASURE( 0.02539999999999999897 ), #179 );
#268 = DIRECTION ( 'NONE',  ( -0.000000000000000000, -1.000000000000000000, -0.000000000000000000 ) ) ;
#269 = DIRECTION ( 'NONE',  ( -1.000000000000000000, 0.000000000000000000, 0.000000000000000000 ) ) ;
#270 = PRESENTATION_LAYER_ASSIGNMENT (  '', '', ( #26 ) ) ;
#271 =( CONVERSION_BASED_UNIT ( 'INCH', #183 ) LENGTH_UNIT ( ) NAMED_UNIT ( #161 ) );
#272 = CIRCLE ( 'NONE', #300, 0.2500000000000000000 ) ;
#273 = PLANE ( 'NONE',  #13 ) ;
#274 = CYLINDRICAL_SURFACE ( 'NONE', #80, 0.2499999999999997224 ) ;
#275 = DIRECTION ( 'NONE',  ( 0.000000000000000000, 0.000000000000000000, -1.000000000000000000 ) ) ;
#276 = LINE ( 'NONE', #246, #55 ) ;
#277 = ADVANCED_FACE ( 'NONE', ( #99 ), #328, .F. ) ;
#278 = SURFACE_SIDE_STYLE ('',( #163 ) ) ;
#279 =( CONVERSION_BASED_UNIT ( 'INCH', #58 ) LENGTH_UNIT ( ) NAMED_UNIT ( #334 ) );
#280 =( GEOMETRIC_REPRESENTATION_CONTEXT ( 3 ) GLOBAL_UNCERTAINTY_ASSIGNED_CONTEXT ( ( #296 ) ) GLOBAL_UNIT_ASSIGNED_CONTEXT ( ( #46, #135, #248 ) ) REPRESENTATION_CONTEXT ( 'NONE', 'WORKASPACE' ) );
#281 = VERTEX_POINT ( 'NONE', #44 ) ;
#282 = EDGE_CURVE ( 'NONE', #313, #292, #43, .T. ) ;
#283 =( LENGTH_UNIT ( ) NAMED_UNIT ( * ) SI_UNIT ( $, .METRE. ) );
#284 = ORIENTED_EDGE ( 'NONE', *, *, #285, .F. ) ;
#285 = EDGE_CURVE ( 'NONE', #292, #313, #188, .T. ) ;
#286 = FACE_OUTER_BOUND ( 'NONE', #24, .T. ) ;
#287 = LINE ( 'NONE', #61, #27 ) ;
#288 = DIRECTION ( 'NONE',  ( 0.000000000000000000, 0.000000000000000000, 1.000000000000000000 ) ) ;
#289 = CARTESIAN_POINT ( 'NONE',  ( 0.000000000000000000, 0.2500000000000000555, 0.000000000000000000 ) ) ;
#290 = ORIENTED_EDGE ( 'NONE', *, *, #343, .F. ) ;
#291 =( LENGTH_UNIT ( ) NAMED_UNIT ( * ) SI_UNIT ( $, .METRE. ) );
#292 = VERTEX_POINT ( 'NONE', #41 ) ;
#293 = CARTESIAN_POINT ( 'NONE',  ( -3.061616997868383018E-17, 0.2500000000000000000, 0.000000000000000000 ) ) ;
#294 = VERTEX_POINT ( 'NONE', #72 ) ;
#295 = ADVANCED_FACE ( 'NONE', ( #70 ), #273, .F. ) ;
#296 = UNCERTAINTY_MEASURE_WITH_UNIT (LENGTH_MEASURE( 1.000000000000000082E-05 ), #46, 'distance_accuracy_value', 'NONE');
#297 = CARTESIAN_POINT ( 'NONE',  ( 3.039519521428954697E-16, 1.000000000000000000, 0.000000000000000000 ) ) ;
#298 = VERTEX_POINT ( 'NONE', #302 ) ;
#299 = DIRECTION ( 'NONE',  ( 0.000000000000000000, 0.000000000000000000, -1.000000000000000000 ) ) ;
#300 = AXIS2_PLACEMENT_3D ( 'NONE', #231, #318, #62 ) ;
#301 = LENGTH_MEASURE_WITH_UNIT ( LENGTH_MEASURE( 0.02539999999999999897 ), #97 );
#302 = CARTESIAN_POINT ( 'NONE',  ( 0.2499999999999999167, 3.000000000000000444, 3.061616997868380553E-17 ) ) ;
#303 =( NAMED_UNIT ( * ) SI_UNIT ( $, .STERADIAN. ) SOLID_ANGLE_UNIT ( ) );
#304 = FILL_AREA_STYLE_COLOUR ( '', #127 ) ;
#305 = COLOUR_RGB ( '',1.000000000000000000, 0.000000000000000000, 0.000000000000000000 ) ;
#306 = CARTESIAN_POINT ( 'NONE',  ( -0.2499999999999997502, 3.000000000000000444, 0.000000000000000000 ) ) ;
#307 = SURFACE_STYLE_FILL_AREA ( #192 ) ;
#308 = EDGE_CURVE ( 'NONE', #38, #298, #362, .T. ) ;
#309 = ORIENTED_EDGE ( 'NONE', *, *, #230, .T. ) ;
#310 =( GEOMETRIC_REPRESENTATION_CONTEXT ( 3 ) GLOBAL_UNCERTAINTY_ASSIGNED_CONTEXT ( ( #34 ) ) GLOBAL_UNIT_ASSIGNED_CONTEXT ( ( #170, #140, #23 ) ) REPRESENTATION_CONTEXT ( 'NONE', 'WORKASPACE' ) );
#311 = STYLED_ITEM ( 'NONE', ( #193 ), #105 ) ;
#312 = FILL_AREA_STYLE ('',( #81 ) ) ;
#313 = VERTEX_POINT ( 'NONE', #358 ) ;
#314 = DIRECTION ( 'NONE',  ( 0.000000000000000000, 1.000000000000000000, 0.000000000000000000 ) ) ;
#315 = EDGE_CURVE ( 'NONE', #294, #298, #96, .T. ) ;
#316 =( GEOMETRIC_REPRESENTATION_CONTEXT ( 3 ) GLOBAL_UNCERTAINTY_ASSIGNED_CONTEXT ( ( #64 ) ) GLOBAL_UNIT_ASSIGNED_CONTEXT ( ( #271, #156, #244 ) ) REPRESENTATION_CONTEXT ( 'NONE', 'WORKASPACE' ) );
#317 = MECHANICAL_DESIGN_GEOMETRIC_PRESENTATION_REPRESENTATION (  '', ( #102 ), #149 ) ;
#318 = DIRECTION ( 'NONE',  ( 1.224646799147353207E-16, -0.000000000000000000, 1.000000000000000000 ) ) ;
#319 = EDGE_LOOP ( 'NONE', ( #125, #89, #353, #94 ) ) ;
#320 = DIRECTION ( 'NONE',  ( -1.213598060927639232E-16, 1.000000000000000000, -0.000000000000000000 ) ) ;
#321 =( NAMED_UNIT ( * ) PLANE_ANGLE_UNIT ( ) SI_UNIT ( $, .RADIAN. ) );
#322 = CLOSED_SHELL ( 'NONE', ( #339, #277, #7, #295 ) ) ;
#323 = CARTESIAN_POINT ( 'NONE',  ( -3.061616997868383018E-17, 0.2500000000000000000, 0.000000000000000000 ) ) ;
#324 = ORIENTED_EDGE ( 'NONE', *, *, #315, .T. ) ;
#325 = UNCERTAINTY_MEASURE_WITH_UNIT (LENGTH_MEASURE( 1.000000000000000082E-05 ), #352, 'distance_accuracy_value', 'NONE');
#326 = CARTESIAN_POINT ( 'NONE',  ( 0.000000000000000000, 1.000000000000000000, 0.000000000000000000 ) ) ;
#327 = ORIENTED_EDGE ( 'NONE', *, *, #308, .F. ) ;
#328 = PLANE ( 'NONE',  #202 ) ;
#329 = AXIS2_PLACEMENT_3D ( 'NONE', #155, #203, #269 ) ;
#330 = MECHANICAL_DESIGN_GEOMETRIC_PRESENTATION_REPRESENTATION (  '', ( #337 ), #169 ) ;
#331 = DIRECTION ( 'NONE',  ( -1.213598060927639232E-16, 1.000000000000000000, -0.000000000000000000 ) ) ;
#332 = FILL_AREA_STYLE ('',( #304 ) ) ;
#333 = DIRECTION ( 'NONE',  ( -1.000000000000000000, 0.000000000000000000, 0.000000000000000000 ) ) ;
#334 = DIMENSIONAL_EXPONENTS ( 1.000000000000000000, 0.000000000000000000, 0.000000000000000000, 0.000000000000000000, 0.000000000000000000, 0.000000000000000000, 0.000000000000000000 ) ;
#335 = APPLICATION_CONTEXT ( 'automotive_design' ) ;
#336 = DIRECTION ( 'NONE',  ( -0.000000000000000000, -1.000000000000000000, -0.000000000000000000 ) ) ;
#337 = STYLED_ITEM ( 'NONE', ( #165 ), #104 ) ;
#338 = ORIENTED_EDGE ( 'NONE', *, *, #365, .T. ) ;
#339 = ADVANCED_FACE ( 'NONE', ( #160 ), #274, .T. ) ;
#340 = PRESENTATION_STYLE_ASSIGNMENT (( #226 ) ) ;
#341 = VERTEX_POINT ( 'NONE', #260 ) ;
#342 = SURFACE_STYLE_USAGE ( .BOTH. , #49 ) ;
#343 = EDGE_CURVE ( 'NONE', #143, #79, #3, .T. ) ;
#344 = CARTESIAN_POINT ( 'NONE',  ( 0.000000000000000000, 1.000000000000000000, 0.000000000000000000 ) ) ;
#345 =( LENGTH_UNIT ( ) NAMED_UNIT ( * ) SI_UNIT ( $, .METRE. ) );
#346 = AXIS2_PLACEMENT_3D ( 'NONE', #297, #174, #4 ) ;
#347 = VERTEX_POINT ( 'NONE', #39 ) ;
#348 = CARTESIAN_POINT ( 'NONE',  ( 0.000000000000000000, 0.2500000000000000555, 0.000000000000000000 ) ) ;
#349 = CARTESIAN_POINT ( 'NONE',  ( 3.039519521428954697E-16, 1.000000000000000000, 0.000000000000000000 ) ) ;
#350 = ORIENTED_EDGE ( 'NONE', *, *, #343, .T. ) ;
#351 = DIRECTION ( 'NONE',  ( -0.000000000000000000, -1.000000000000000000, -0.000000000000000000 ) ) ;
#352 =( CONVERSION_BASED_UNIT ( 'INCH', #242 ) LENGTH_UNIT ( ) NAMED_UNIT ( #103 ) );
#353 = ORIENTED_EDGE ( 'NONE', *, *, #256, .T. ) ;
#354 = APPLICATION_PROTOCOL_DEFINITION ( 'draft international standard', 'automotive_design', 1998, #171 ) ;
#355 = CARTESIAN_POINT ( 'NONE',  ( 0.2499999999999998890, 3.000000000000000444, 0.000000000000000000 ) ) ;
#356 = ORIENTED_EDGE ( 'NONE', *, *, #256, .F. ) ;
#357 = UNCERTAINTY_MEASURE_WITH_UNIT (LENGTH_MEASURE( 1.000000000000000082E-05 ), #279, 'distance_accuracy_value', 'NONE');
#358 = CARTESIAN_POINT ( 'NONE',  ( 0.000000000000000000, 1.000000000000000000, -0.2499999999999998890 ) ) ;
#359 = SURFACE_STYLE_USAGE ( .BOTH. , #278 ) ;
#360 = DIRECTION ( 'NONE',  ( -1.213598060927639232E-16, 1.000000000000000000, -0.000000000000000000 ) ) ;
#361 =( GEOMETRIC_REPRESENTATION_CONTEXT ( 3 ) GLOBAL_UNCERTAINTY_ASSIGNED_CONTEXT ( ( #150 ) ) GLOBAL_UNIT_ASSIGNED_CONTEXT ( ( #65, #1, #86 ) ) REPRESENTATION_CONTEXT ( 'NONE', 'WORKASPACE' ) );
#362 = CIRCLE ( 'NONE', #106, 0.2499999999999998335 ) ;
#363 = DIMENSIONAL_EXPONENTS ( 1.000000000000000000, 0.000000000000000000, 0.000000000000000000, 0.000000000000000000, 0.000000000000000000, 0.000000000000000000, 0.000000000000000000 ) ;
#364 = AXIS2_PLACEMENT_3D ( 'NONE', #63, #176, #128 ) ;
#365 = EDGE_CURVE ( 'NONE', #79, #341, #141, .T. ) ;
#366 = DIMENSIONAL_EXPONENTS ( 1.000000000000000000, 0.000000000000000000, 0.000000000000000000, 0.000000000000000000, 0.000000000000000000, 0.000000000000000000, 0.000000000000000000 ) ;
#367 =( NAMED_UNIT ( * ) SI_UNIT ( $, .STERADIAN. ) SOLID_ANGLE_UNIT ( ) );
#368 = FILL_AREA_STYLE ('',( #78 ) ) ;
#369 = AXIS2_PLACEMENT_3D ( 'NONE', #126, #351, #123 ) ;
#370 = SURFACE_STYLE_FILL_AREA ( #255 ) ;
#371 =( LENGTH_UNIT ( ) NAMED_UNIT ( * ) SI_UNIT ( $, .METRE. ) );
#372 = EDGE_LOOP ( 'NONE', ( #32, #91, #168, #29 ) ) ;
#373 = CLOSED_SHELL ( 'NONE', ( #47, #124, #113, #19, #148 ) ) ;
ENDSEC;
END-ISO-10303-21;
