ISO-10303-21;
HEADER;
FILE_DESCRIPTION (( 'STEP AP214' ),
    '1' );
FILE_NAME ('17345.STEP',
    '2023-06-30T21:53:40',
    ( '' ),
    ( '' ),
    'SwSTEP 2.0',
    'SolidWorks 2023',
    '' );
FILE_SCHEMA (( 'AUTOMOTIVE_DESIGN' ));
ENDSEC;

DATA;
#1 = AXIS2_PLACEMENT_3D ( 'NONE', #334, #282, #109 ) ;
#2 = PRESENTATION_STYLE_ASSIGNMENT (( #138 ) ) ;
#3 = DIRECTION ( 'NONE',  ( 1.000000000000000000, 0.000000000000000000, 0.000000000000000000 ) ) ;
#4 = EDGE_CURVE ( 'NONE', #323, #68, #170, .T. ) ;
#5 = ORIENTED_EDGE ( 'NONE', *, *, #106, .T. ) ;
#6 = SURFACE_SIDE_STYLE ('',( #258 ) ) ;
#7 = CARTESIAN_POINT ( 'NONE',  ( -2.296212748401287726E-17, 0.1875000000000000278, 0.000000000000000000 ) ) ;
#8 = ORIENTED_EDGE ( 'NONE', *, *, #259, .T. ) ;
#9 = DIRECTION ( 'NONE',  ( 0.000000000000000000, 0.000000000000000000, -1.000000000000000000 ) ) ;
#10 = ORIENTED_EDGE ( 'NONE', *, *, #106, .F. ) ;
#11 = SURFACE_STYLE_USAGE ( .BOTH. , #67 ) ;
#12 = EDGE_LOOP ( 'NONE', ( #43, #142 ) ) ;
#13 = LENGTH_MEASURE_WITH_UNIT ( LENGTH_MEASURE( 0.02539999999999999897 ), #173 );
#14 = CARTESIAN_POINT ( 'NONE',  ( 0.000000000000000000, 1.000000000000000000, -0.1874999999999998890 ) ) ;
#15 = SURFACE_STYLE_FILL_AREA ( #154 ) ;
#16 = DIRECTION ( 'NONE',  ( -1.224646799147353454E-16, 1.000000000000000000, -0.000000000000000000 ) ) ;
#17 = AXIS2_PLACEMENT_3D ( 'NONE', #181, #149, #9 ) ;
#18 = ADVANCED_FACE ( 'NONE', ( #266 ), #241, .T. ) ;
#19 = CARTESIAN_POINT ( 'NONE',  ( -0.1874999999999996392, 1.000000000000000000, 0.000000000000000000 ) ) ;
#20 = ADVANCED_FACE ( 'NONE', ( #191 ), #273, .F. ) ;
#21 = DIRECTION ( 'NONE',  ( -0.000000000000000000, -1.000000000000000000, -0.000000000000000000 ) ) ;
#22 =( GEOMETRIC_REPRESENTATION_CONTEXT ( 3 ) GLOBAL_UNCERTAINTY_ASSIGNED_CONTEXT ( ( #82 ) ) GLOBAL_UNIT_ASSIGNED_CONTEXT ( ( #201, #177, #292 ) ) REPRESENTATION_CONTEXT ( 'NONE', 'WORKASPACE' ) );
#23 = DIRECTION ( 'NONE',  ( 1.000000000000000000, 1.224646799147353454E-16, 0.000000000000000000 ) ) ;
#24 = VECTOR ( 'NONE', #205, 39.37007874015748143 ) ;
#25 = ADVANCED_FACE ( 'NONE', ( #274 ), #133, .F. ) ;
#26 = AXIS2_PLACEMENT_3D ( 'NONE', #207, #21, #157 ) ;
#27 = DIRECTION ( 'NONE',  ( 0.000000000000000000, 0.000000000000000000, -1.000000000000000000 ) ) ;
#28 = EDGE_CURVE ( 'NONE', #323, #298, #243, .T. ) ;
#29 = FILL_AREA_STYLE ('',( #168 ) ) ;
#30 = AXIS2_PLACEMENT_3D ( 'NONE', #107, #363, #101 ) ;
#31 = VECTOR ( 'NONE', #16, 39.37007874015748143 ) ;
#32 = ORIENTED_EDGE ( 'NONE', *, *, #361, .T. ) ;
#33 = FILL_AREA_STYLE_COLOUR ( '', #240 ) ;
#34 = SHAPE_DEFINITION_REPRESENTATION ( #129, #217 ) ;
#35 = ORIENTED_EDGE ( 'NONE', *, *, #4, .T. ) ;
#36 = PRESENTATION_STYLE_ASSIGNMENT (( #86 ) ) ;
#37 = UNCERTAINTY_MEASURE_WITH_UNIT (LENGTH_MEASURE( 1.000000000000000082E-05 ), #97, 'distance_accuracy_value', 'NONE');
#38 = VERTEX_POINT ( 'NONE', #186 ) ;
#39 = VECTOR ( 'NONE', #370, 39.37007874015748143 ) ;
#40 = MECHANICAL_DESIGN_GEOMETRIC_PRESENTATION_REPRESENTATION (  '', ( #296 ), #248 ) ;
#41 = CARTESIAN_POINT ( 'NONE',  ( 0.000000000000000000, 0.1875000000000000555, -0.1874999999999999722 ) ) ;
#42 =( CONVERSION_BASED_UNIT ( 'INCH', #65 ) LENGTH_UNIT ( ) NAMED_UNIT ( #303 ) );
#43 = ORIENTED_EDGE ( 'NONE', *, *, #259, .F. ) ;
#44 = CARTESIAN_POINT ( 'NONE',  ( 0.1874999999999997502, 3.000000000000000444, 2.296212748401285877E-17 ) ) ;
#45 = ORIENTED_EDGE ( 'NONE', *, *, #28, .T. ) ;
#46 = MECHANICAL_DESIGN_GEOMETRIC_PRESENTATION_REPRESENTATION (  '', ( #348 ), #253 ) ;
#47 = CIRCLE ( 'NONE', #26, 0.1874999999999999722 ) ;
#48 = DIRECTION ( 'NONE',  ( -0.000000000000000000, -1.000000000000000000, -0.000000000000000000 ) ) ;
#49 = DIRECTION ( 'NONE',  ( -1.000000000000000000, 0.000000000000000000, 0.000000000000000000 ) ) ;
#50 = CARTESIAN_POINT ( 'NONE',  ( -2.296212748401287726E-17, 0.1875000000000000278, 0.000000000000000000 ) ) ;
#51 = ADVANCED_FACE ( 'NONE', ( #215 ), #197, .T. ) ;
#52 = FILL_AREA_STYLE ('',( #288 ) ) ;
#53 = DIRECTION ( 'NONE',  ( -1.000000000000000000, 0.000000000000000000, 0.000000000000000000 ) ) ;
#54 = MECHANICAL_DESIGN_GEOMETRIC_PRESENTATION_REPRESENTATION (  '', ( #287 ), #314 ) ;
#55 = COLOUR_RGB ( '',1.000000000000000000, 0.000000000000000000, 0.000000000000000000 ) ;
#56 = AXIS2_PLACEMENT_3D ( 'NONE', #182, #117, #69 ) ;
#57 = SURFACE_SIDE_STYLE ('',( #337 ) ) ;
#58 = DIRECTION ( 'NONE',  ( 0.000000000000000000, 0.000000000000000000, -1.000000000000000000 ) ) ;
#59 = SURFACE_STYLE_USAGE ( .BOTH. , #315 ) ;
#60 = DIRECTION ( 'NONE',  ( 0.000000000000000000, 0.000000000000000000, 1.000000000000000000 ) ) ;
#61 = PRESENTATION_LAYER_ASSIGNMENT (  '', '', ( #287 ) ) ;
#62 = CIRCLE ( 'NONE', #350, 0.1874999999999997780 ) ;
#63 = EDGE_LOOP ( 'NONE', ( #234, #150 ) ) ;
#64 = ORIENTED_EDGE ( 'NONE', *, *, #343, .T. ) ;
#65 = LENGTH_MEASURE_WITH_UNIT ( LENGTH_MEASURE( 0.02539999999999999897 ), #204 );
#66 = EDGE_LOOP ( 'NONE', ( #64, #324, #250, #172 ) ) ;
#67 = SURFACE_SIDE_STYLE ('',( #356 ) ) ;
#68 = VERTEX_POINT ( 'NONE', #286 ) ;
#69 = DIRECTION ( 'NONE',  ( 1.000000000000000000, 0.000000000000000000, 0.000000000000000000 ) ) ;
#70 = DIRECTION ( 'NONE',  ( 1.000000000000000000, 0.000000000000000000, 0.000000000000000000 ) ) ;
#71 = CARTESIAN_POINT ( 'NONE',  ( 2.296212748401285877E-17, 1.000000000000000000, 0.1874999999999998890 ) ) ;
#72 = CARTESIAN_POINT ( 'NONE',  ( 1.224646799147353207E-16, 1.000000000000000000, 0.000000000000000000 ) ) ;
#73 = AXIS2_PLACEMENT_3D ( 'NONE', #267, #308, #49 ) ;
#74 =( NAMED_UNIT ( * ) SI_UNIT ( $, .STERADIAN. ) SOLID_ANGLE_UNIT ( ) );
#75 = CARTESIAN_POINT ( 'NONE',  ( 0.000000000000000000, 0.000000000000000000, 0.000000000000000000 ) ) ;
#76 = STYLED_ITEM ( 'NONE', ( #36 ), #208 ) ;
#77 = ADVANCED_FACE ( 'NONE', ( #312 ), #137, .T. ) ;
#78 = FILL_AREA_STYLE ('',( #223 ) ) ;
#79 = DIRECTION ( 'NONE',  ( -1.000000000000000000, 0.000000000000000000, 0.000000000000000000 ) ) ;
#80 =( GEOMETRIC_REPRESENTATION_CONTEXT ( 3 ) GLOBAL_UNCERTAINTY_ASSIGNED_CONTEXT ( ( #115 ) ) GLOBAL_UNIT_ASSIGNED_CONTEXT ( ( #196, #188, #74 ) ) REPRESENTATION_CONTEXT ( 'NONE', 'WORKASPACE' ) );
#81 =( CONVERSION_BASED_UNIT ( 'INCH', #345 ) LENGTH_UNIT ( ) NAMED_UNIT ( #214 ) );
#82 = UNCERTAINTY_MEASURE_WITH_UNIT (LENGTH_MEASURE( 1.000000000000000082E-05 ), #201, 'distance_accuracy_value', 'NONE');
#83 = ORIENTED_EDGE ( 'NONE', *, *, #265, .F. ) ;
#84 =( LENGTH_UNIT ( ) NAMED_UNIT ( * ) SI_UNIT ( $, .METRE. ) );
#85 = COLOUR_RGB ( '',1.000000000000000000, 0.000000000000000000, 0.000000000000000000 ) ;
#86 = SURFACE_STYLE_USAGE ( .BOTH. , #6 ) ;
#87 = UNCERTAINTY_MEASURE_WITH_UNIT (LENGTH_MEASURE( 1.000000000000000082E-05 ), #81, 'distance_accuracy_value', 'NONE');
#88 = SPHERICAL_SURFACE ( 'NONE', #127, 0.1875000000000000278 ) ;
#89 = VERTEX_POINT ( 'NONE', #371 ) ;
#90 = EDGE_CURVE ( 'NONE', #298, #119, #134, .T. ) ;
#91 = PRESENTATION_STYLE_ASSIGNMENT (( #235 ) ) ;
#92 = ORIENTED_EDGE ( 'NONE', *, *, #165, .T. ) ;
#93 = DIRECTION ( 'NONE',  ( 1.224646799147353207E-16, -0.000000000000000000, 1.000000000000000000 ) ) ;
#94 = FILL_AREA_STYLE_COLOUR ( '', #85 ) ;
#95 = MECHANICAL_DESIGN_GEOMETRIC_PRESENTATION_REPRESENTATION (  '', ( #369 ), #22 ) ;
#96 = DIRECTION ( 'NONE',  ( -1.224646799147353454E-16, 1.000000000000000000, -0.000000000000000000 ) ) ;
#97 =( CONVERSION_BASED_UNIT ( 'INCH', #13 ) LENGTH_UNIT ( ) NAMED_UNIT ( #185 ) );
#98 = DIRECTION ( 'NONE',  ( -1.224646799147353454E-16, 1.000000000000000000, -0.000000000000000000 ) ) ;
#99 = PRESENTATION_LAYER_ASSIGNMENT (  '', '', ( #348 ) ) ;
#100 = AXIS2_PLACEMENT_3D ( 'NONE', #105, #280, #192 ) ;
#101 = DIRECTION ( 'NONE',  ( 0.000000000000000000, 0.000000000000000000, -1.000000000000000000 ) ) ;
#102 =( GEOMETRIC_REPRESENTATION_CONTEXT ( 3 ) GLOBAL_UNCERTAINTY_ASSIGNED_CONTEXT ( ( #346 ) ) GLOBAL_UNIT_ASSIGNED_CONTEXT ( ( #219, #316, #145 ) ) REPRESENTATION_CONTEXT ( 'NONE', 'WORKASPACE' ) );
#103 = MANIFOLD_SOLID_BREP ( 'Revolve - Cutting Edge', #113 ) ;
#104 = LENGTH_MEASURE_WITH_UNIT ( LENGTH_MEASURE( 0.02539999999999999897 ), #277 );
#105 = CARTESIAN_POINT ( 'NONE',  ( 0.000000000000000000, 0.1875000000000000555, 0.000000000000000000 ) ) ;
#106 = EDGE_CURVE ( 'NONE', #89, #326, #156, .T. ) ;
#107 = CARTESIAN_POINT ( 'NONE',  ( 0.000000000000000000, 1.000000000000000000, 0.000000000000000000 ) ) ;
#108 = AXIS2_PLACEMENT_3D ( 'NONE', #75, #48, #362 ) ;
#109 = DIRECTION ( 'NONE',  ( -1.000000000000000000, 0.000000000000000000, 0.000000000000000000 ) ) ;
#110 = CIRCLE ( 'NONE', #17, 0.1874999999999999722 ) ;
#111 = APPLICATION_PROTOCOL_DEFINITION ( 'draft international standard', 'automotive_design', 1998, #320 ) ;
#112 = CARTESIAN_POINT ( 'NONE',  ( -2.296212748401287726E-17, 0.1875000000000000278, 0.000000000000000000 ) ) ;
#113 = CLOSED_SHELL ( 'NONE', ( #141, #51, #77, #18, #208 ) ) ;
#114 =( LENGTH_UNIT ( ) NAMED_UNIT ( * ) SI_UNIT ( $, .METRE. ) );
#115 = UNCERTAINTY_MEASURE_WITH_UNIT (LENGTH_MEASURE( 1.000000000000000082E-05 ), #196, 'distance_accuracy_value', 'NONE');
#116 = PRODUCT_CONTEXT ( 'NONE', #320, 'mechanical' ) ;
#117 = DIRECTION ( 'NONE',  ( 0.000000000000000000, 0.000000000000000000, 1.000000000000000000 ) ) ;
#118 = AXIS2_PLACEMENT_3D ( 'NONE', #358, #96, #211 ) ;
#119 = VERTEX_POINT ( 'NONE', #41 ) ;
#120 = PRESENTATION_STYLE_ASSIGNMENT (( #59 ) ) ;
#121 = UNCERTAINTY_MEASURE_WITH_UNIT (LENGTH_MEASURE( 1.000000000000000082E-05 ), #42, 'distance_accuracy_value', 'NONE');
#122 = SURFACE_SIDE_STYLE ('',( #352 ) ) ;
#123 = EDGE_LOOP ( 'NONE', ( #318, #236, #92, #372 ) ) ;
#124 = EDGE_LOOP ( 'NONE', ( #10, #228, #237, #202 ) ) ;
#125 = FILL_AREA_STYLE ('',( #325 ) ) ;
#126 = CYLINDRICAL_SURFACE ( 'NONE', #118, 0.1874999999999998890 ) ;
#127 = AXIS2_PLACEMENT_3D ( 'NONE', #7, #130, #70 ) ;
#128 = FACE_OUTER_BOUND ( 'NONE', #124, .T. ) ;
#129 = PRODUCT_DEFINITION_SHAPE ( 'NONE', 'NONE',  #368 ) ;
#130 = DIRECTION ( 'NONE',  ( 0.000000000000000000, 0.000000000000000000, 1.000000000000000000 ) ) ;
#131 = CARTESIAN_POINT ( 'NONE',  ( 0.000000000000000000, 1.000000000000000000, 0.000000000000000000 ) ) ;
#132 = STYLED_ITEM ( 'NONE', ( #120 ), #103 ) ;
#133 = PLANE ( 'NONE',  #135 ) ;
#134 = LINE ( 'NONE', #373, #39 ) ;
#135 = AXIS2_PLACEMENT_3D ( 'NONE', #72, #247, #242 ) ;
#136 = MECHANICAL_DESIGN_GEOMETRIC_PRESENTATION_REPRESENTATION (  '', ( #76 ), #102 ) ;
#137 = PLANE ( 'NONE',  #364 ) ;
#138 = SURFACE_STYLE_USAGE ( .BOTH. , #251 ) ;
#139 =( CONVERSION_BASED_UNIT ( 'INCH', #163 ) LENGTH_UNIT ( ) NAMED_UNIT ( #183 ) );
#140 = EDGE_CURVE ( 'NONE', #119, #299, #233, .T. ) ;
#141 = ADVANCED_FACE ( 'NONE', ( #179 ), #151, .T. ) ;
#142 = ORIENTED_EDGE ( 'NONE', *, *, #28, .F. ) ;
#143 = FILL_AREA_STYLE ('',( #33 ) ) ;
#144 = APPLICATION_PROTOCOL_DEFINITION ( 'draft international standard', 'automotive_design', 1998, #293 ) ;
#145 =( NAMED_UNIT ( * ) SI_UNIT ( $, .STERADIAN. ) SOLID_ANGLE_UNIT ( ) );
#146 = ORIENTED_EDGE ( 'NONE', *, *, #265, .T. ) ;
#147 = PRODUCT ( '17345', '17345', '', ( #116 ) ) ;
#148 =( NAMED_UNIT ( * ) SI_UNIT ( $, .STERADIAN. ) SOLID_ANGLE_UNIT ( ) );
#149 = DIRECTION ( 'NONE',  ( -0.000000000000000000, -1.000000000000000000, -0.000000000000000000 ) ) ;
#150 = ORIENTED_EDGE ( 'NONE', *, *, #279, .F. ) ;
#151 = SPHERICAL_SURFACE ( 'NONE', #56, 0.1875000000000000278 ) ;
#152 = ORIENTED_EDGE ( 'NONE', *, *, #140, .F. ) ;
#153 = DIRECTION ( 'NONE',  ( -1.000000000000000000, 0.000000000000000000, 0.000000000000000000 ) ) ;
#154 = FILL_AREA_STYLE ('',( #94 ) ) ;
#155 = STYLED_ITEM ( 'NONE', ( #164 ), #51 ) ;
#156 = CIRCLE ( 'NONE', #162, 0.1875000000000000278 ) ;
#157 = DIRECTION ( 'NONE',  ( 0.000000000000000000, 0.000000000000000000, -1.000000000000000000 ) ) ;
#158 = VERTEX_POINT ( 'NONE', #300 ) ;
#159 = CARTESIAN_POINT ( 'NONE',  ( 0.1874999999999998890, 3.000000000000000444, 0.000000000000000000 ) ) ;
#160 =( NAMED_UNIT ( * ) PLANE_ANGLE_UNIT ( ) SI_UNIT ( $, .RADIAN. ) );
#161 = MECHANICAL_DESIGN_GEOMETRIC_PRESENTATION_REPRESENTATION (  '', ( #155 ), #239 ) ;
#162 = AXIS2_PLACEMENT_3D ( 'NONE', #112, #93, #349 ) ;
#163 = LENGTH_MEASURE_WITH_UNIT ( LENGTH_MEASURE( 0.02539999999999999897 ), #114 );
#164 = PRESENTATION_STYLE_ASSIGNMENT (( #254 ) ) ;
#165 = EDGE_CURVE ( 'NONE', #264, #187, #269, .T. ) ;
#166 = VECTOR ( 'NONE', #359, 39.37007874015748143 ) ;
#167 = EDGE_LOOP ( 'NONE', ( #355, #353 ) ) ;
#168 = FILL_AREA_STYLE_COLOUR ( '', #331 ) ;
#169 = CARTESIAN_POINT ( 'NONE',  ( 0.000000000000000000, 0.000000000000000000, 0.000000000000000000 ) ) ;
#170 = LINE ( 'NONE', #291, #24 ) ;
#171 = LENGTH_MEASURE_WITH_UNIT ( LENGTH_MEASURE( 0.02539999999999999897 ), #238 );
#172 = ORIENTED_EDGE ( 'NONE', *, *, #165, .F. ) ;
#173 =( LENGTH_UNIT ( ) NAMED_UNIT ( * ) SI_UNIT ( $, .METRE. ) );
#174 = MECHANICAL_DESIGN_GEOMETRIC_PRESENTATION_REPRESENTATION (  '', ( #132 ), #357 ) ;
#175 = AXIS2_PLACEMENT_3D ( 'NONE', #206, #231, #203 ) ;
#176 = ORIENTED_EDGE ( 'NONE', *, *, #213, .F. ) ;
#177 =( NAMED_UNIT ( * ) PLANE_ANGLE_UNIT ( ) SI_UNIT ( $, .RADIAN. ) );
#178 = ORIENTED_EDGE ( 'NONE', *, *, #361, .F. ) ;
#179 = FACE_OUTER_BOUND ( 'NONE', #268, .T. ) ;
#180 = CARTESIAN_POINT ( 'NONE',  ( -1.224646799147353700E-16, 3.000000000000000444, 0.000000000000000000 ) ) ;
#181 = CARTESIAN_POINT ( 'NONE',  ( 0.000000000000000000, 0.1875000000000000555, 0.000000000000000000 ) ) ;
#182 = CARTESIAN_POINT ( 'NONE',  ( -2.296212748401287726E-17, 0.1875000000000000278, 0.000000000000000000 ) ) ;
#183 = DIMENSIONAL_EXPONENTS ( 1.000000000000000000, 0.000000000000000000, 0.000000000000000000, 0.000000000000000000, 0.000000000000000000, 0.000000000000000000, 0.000000000000000000 ) ;
#184 =( NAMED_UNIT ( * ) SI_UNIT ( $, .STERADIAN. ) SOLID_ANGLE_UNIT ( ) );
#185 = DIMENSIONAL_EXPONENTS ( 1.000000000000000000, 0.000000000000000000, 0.000000000000000000, 0.000000000000000000, 0.000000000000000000, 0.000000000000000000, 0.000000000000000000 ) ;
#186 = CARTESIAN_POINT ( 'NONE',  ( 0.1874999999999999167, 1.000000000000000000, 2.296212748401286801E-17 ) ) ;
#187 = VERTEX_POINT ( 'NONE', #322 ) ;
#188 =( NAMED_UNIT ( * ) PLANE_ANGLE_UNIT ( ) SI_UNIT ( $, .RADIAN. ) );
#189 = DIMENSIONAL_EXPONENTS ( 1.000000000000000000, 0.000000000000000000, 0.000000000000000000, 0.000000000000000000, 0.000000000000000000, 0.000000000000000000, 0.000000000000000000 ) ;
#190 = PRESENTATION_LAYER_ASSIGNMENT (  '', '', ( #155 ) ) ;
#191 = FACE_OUTER_BOUND ( 'NONE', #167, .T. ) ;
#192 = DIRECTION ( 'NONE',  ( 0.000000000000000000, 0.000000000000000000, -1.000000000000000000 ) ) ;
#193 =( LENGTH_UNIT ( ) NAMED_UNIT ( * ) SI_UNIT ( $, .METRE. ) );
#194 = DIRECTION ( 'NONE',  ( -0.000000000000000000, -1.000000000000000000, -0.000000000000000000 ) ) ;
#195 = AXIS2_PLACEMENT_3D ( 'NONE', #180, #313, #53 ) ;
#196 =( CONVERSION_BASED_UNIT ( 'INCH', #311 ) LENGTH_UNIT ( ) NAMED_UNIT ( #244 ) );
#197 = CYLINDRICAL_SURFACE ( 'NONE', #220, 0.1874999999999999167 ) ;
#198 = EDGE_LOOP ( 'NONE', ( #260, #45, #289, #176, #83 ) ) ;
#199 =( NAMED_UNIT ( * ) SI_UNIT ( $, .STERADIAN. ) SOLID_ANGLE_UNIT ( ) );
#200 = COLOUR_RGB ( '',0.7921568627450980005, 0.8196078431372548767, 0.9333333333333333481 ) ;
#201 =( CONVERSION_BASED_UNIT ( 'INCH', #171 ) LENGTH_UNIT ( ) NAMED_UNIT ( #216 ) );
#202 = ORIENTED_EDGE ( 'NONE', *, *, #336, .T. ) ;
#203 = DIRECTION ( 'NONE',  ( 0.000000000000000000, 0.000000000000000000, -1.000000000000000000 ) ) ;
#204 =( LENGTH_UNIT ( ) NAMED_UNIT ( * ) SI_UNIT ( $, .METRE. ) );
#205 = DIRECTION ( 'NONE',  ( -0.000000000000000000, -1.000000000000000000, -0.000000000000000000 ) ) ;
#206 = CARTESIAN_POINT ( 'NONE',  ( 0.000000000000000000, 0.1875000000000000555, 0.000000000000000000 ) ) ;
#207 = CARTESIAN_POINT ( 'NONE',  ( 0.000000000000000000, 0.1875000000000000555, 0.000000000000000000 ) ) ;
#208 = ADVANCED_FACE ( 'NONE', ( #128 ), #88, .T. ) ;
#209 = AXIS2_PLACEMENT_3D ( 'NONE', #169, #60, #3 ) ;
#210 = EDGE_LOOP ( 'NONE', ( #8, #35, #178, #152, #294 ) ) ;
#211 = DIRECTION ( 'NONE',  ( -1.000000000000000000, 0.000000000000000000, 0.000000000000000000 ) ) ;
#212 = CARTESIAN_POINT ( 'NONE',  ( 0.1874999999999999722, 0.1875000000000000555, 0.000000000000000000 ) ) ;
#213 = EDGE_CURVE ( 'NONE', #89, #119, #110, .T. ) ;
#214 = DIMENSIONAL_EXPONENTS ( 1.000000000000000000, 0.000000000000000000, 0.000000000000000000, 0.000000000000000000, 0.000000000000000000, 0.000000000000000000, 0.000000000000000000 ) ;
#215 = FACE_OUTER_BOUND ( 'NONE', #210, .T. ) ;
#216 = DIMENSIONAL_EXPONENTS ( 1.000000000000000000, 0.000000000000000000, 0.000000000000000000, 0.000000000000000000, 0.000000000000000000, 0.000000000000000000, 0.000000000000000000 ) ;
#217 = ADVANCED_BREP_SHAPE_REPRESENTATION ( '17345', ( #103, #225, #209 ), #80 ) ;
#218 =( NAMED_UNIT ( * ) PLANE_ANGLE_UNIT ( ) SI_UNIT ( $, .RADIAN. ) );
#219 =( CONVERSION_BASED_UNIT ( 'INCH', #104 ) LENGTH_UNIT ( ) NAMED_UNIT ( #189 ) );
#220 = AXIS2_PLACEMENT_3D ( 'NONE', #342, #194, #27 ) ;
#221 = CIRCLE ( 'NONE', #340, 0.1874999999999998890 ) ;
#222 =( NAMED_UNIT ( * ) PLANE_ANGLE_UNIT ( ) SI_UNIT ( $, .RADIAN. ) );
#223 = FILL_AREA_STYLE_COLOUR ( '', #295 ) ;
#224 = SURFACE_STYLE_FILL_AREA ( #52 ) ;
#225 = MANIFOLD_SOLID_BREP ( 'Revolve - Tool Body (Straight Shanked)', #309 ) ;
#226 = CIRCLE ( 'NONE', #1, 0.1875000000000000278 ) ;
#227 = UNCERTAINTY_MEASURE_WITH_UNIT (LENGTH_MEASURE( 1.000000000000000082E-05 ), #139, 'distance_accuracy_value', 'NONE');
#228 = ORIENTED_EDGE ( 'NONE', *, *, #213, .T. ) ;
#229 = CARTESIAN_POINT ( 'NONE',  ( 0.000000000000000000, 1.000000000000000000, 0.000000000000000000 ) ) ;
#230 = SURFACE_STYLE_USAGE ( .BOTH. , #344 ) ;
#231 = DIRECTION ( 'NONE',  ( -0.000000000000000000, -1.000000000000000000, -0.000000000000000000 ) ) ;
#232 = UNCERTAINTY_MEASURE_WITH_UNIT (LENGTH_MEASURE( 1.000000000000000082E-05 ), #366, 'distance_accuracy_value', 'NONE');
#233 = CIRCLE ( 'NONE', #175, 0.1874999999999999722 ) ;
#234 = ORIENTED_EDGE ( 'NONE', *, *, #343, .F. ) ;
#235 = SURFACE_STYLE_USAGE ( .BOTH. , #122 ) ;
#236 = ORIENTED_EDGE ( 'NONE', *, *, #279, .T. ) ;
#237 = ORIENTED_EDGE ( 'NONE', *, *, #140, .T. ) ;
#238 =( LENGTH_UNIT ( ) NAMED_UNIT ( * ) SI_UNIT ( $, .METRE. ) );
#239 =( GEOMETRIC_REPRESENTATION_CONTEXT ( 3 ) GLOBAL_UNCERTAINTY_ASSIGNED_CONTEXT ( ( #227 ) ) GLOBAL_UNIT_ASSIGNED_CONTEXT ( ( #139, #222, #199 ) ) REPRESENTATION_CONTEXT ( 'NONE', 'WORKASPACE' ) );
#240 = COLOUR_RGB ( '',1.000000000000000000, 0.000000000000000000, 0.000000000000000000 ) ;
#241 = CYLINDRICAL_SURFACE ( 'NONE', #108, 0.1874999999999999167 ) ;
#242 = DIRECTION ( 'NONE',  ( -1.000000000000000000, -1.224646799147353454E-16, 0.000000000000000000 ) ) ;
#243 = CIRCLE ( 'NONE', #30, 0.1874999999999998890 ) ;
#244 = DIMENSIONAL_EXPONENTS ( 1.000000000000000000, 0.000000000000000000, 0.000000000000000000, 0.000000000000000000, 0.000000000000000000, 0.000000000000000000, 0.000000000000000000 ) ;
#245 = CIRCLE ( 'NONE', #263, 0.1875000000000000278 ) ;
#246 = DIRECTION ( 'NONE',  ( -1.224646799147353454E-16, 1.000000000000000000, -0.000000000000000000 ) ) ;
#247 = DIRECTION ( 'NONE',  ( -1.224646799147353454E-16, 1.000000000000000000, 0.000000000000000000 ) ) ;
#248 =( GEOMETRIC_REPRESENTATION_CONTEXT ( 3 ) GLOBAL_UNCERTAINTY_ASSIGNED_CONTEXT ( ( #121 ) ) GLOBAL_UNIT_ASSIGNED_CONTEXT ( ( #42, #271, #184 ) ) REPRESENTATION_CONTEXT ( 'NONE', 'WORKASPACE' ) );
#249 = EDGE_CURVE ( 'NONE', #38, #158, #302, .T. ) ;
#250 = ORIENTED_EDGE ( 'NONE', *, *, #333, .F. ) ;
#251 = SURFACE_SIDE_STYLE ('',( #224 ) ) ;
#252 = PRODUCT_DEFINITION_CONTEXT ( 'detailed design', #293, 'design' ) ;
#253 =( GEOMETRIC_REPRESENTATION_CONTEXT ( 3 ) GLOBAL_UNCERTAINTY_ASSIGNED_CONTEXT ( ( #232 ) ) GLOBAL_UNIT_ASSIGNED_CONTEXT ( ( #366, #218, #281 ) ) REPRESENTATION_CONTEXT ( 'NONE', 'WORKASPACE' ) );
#254 = SURFACE_STYLE_USAGE ( .BOTH. , #57 ) ;
#255 = COLOUR_RGB ( '',1.000000000000000000, 0.000000000000000000, 0.000000000000000000 ) ;
#256 = PRODUCT_DEFINITION_FORMATION_WITH_SPECIFIED_SOURCE ( 'ANY', '', #147, .NOT_KNOWN. ) ;
#257 =( NAMED_UNIT ( * ) SI_UNIT ( $, .STERADIAN. ) SOLID_ANGLE_UNIT ( ) );
#258 = SURFACE_STYLE_FILL_AREA ( #143 ) ;
#259 = EDGE_CURVE ( 'NONE', #298, #323, #221, .T. ) ;
#260 = ORIENTED_EDGE ( 'NONE', *, *, #4, .F. ) ;
#261 = CARTESIAN_POINT ( 'NONE',  ( -0.1875000000000000278, 3.000000000000000444, 0.000000000000000000 ) ) ;
#262 = CIRCLE ( 'NONE', #100, 0.1874999999999999722 ) ;
#263 = AXIS2_PLACEMENT_3D ( 'NONE', #50, #58, #338 ) ;
#264 = VERTEX_POINT ( 'NONE', #19 ) ;
#265 = EDGE_CURVE ( 'NONE', #68, #89, #47, .T. ) ;
#266 = FACE_OUTER_BOUND ( 'NONE', #198, .T. ) ;
#267 = CARTESIAN_POINT ( 'NONE',  ( -1.224646799147353700E-16, 3.000000000000000444, 0.000000000000000000 ) ) ;
#268 = EDGE_LOOP ( 'NONE', ( #146, #5, #351, #32 ) ) ;
#269 = LINE ( 'NONE', #261, #31 ) ;
#270 = PRODUCT_RELATED_PRODUCT_CATEGORY ( 'part', '', ( #147 ) ) ;
#271 =( NAMED_UNIT ( * ) PLANE_ANGLE_UNIT ( ) SI_UNIT ( $, .RADIAN. ) );
#272 = DIMENSIONAL_EXPONENTS ( 1.000000000000000000, 0.000000000000000000, 0.000000000000000000, 0.000000000000000000, 0.000000000000000000, 0.000000000000000000, 0.000000000000000000 ) ;
#273 = PLANE ( 'NONE',  #305 ) ;
#274 = FACE_OUTER_BOUND ( 'NONE', #63, .T. ) ;
#275 = CYLINDRICAL_SURFACE ( 'NONE', #73, 0.1874999999999998890 ) ;
#276 = PRESENTATION_LAYER_ASSIGNMENT (  '', '', ( #369 ) ) ;
#277 =( LENGTH_UNIT ( ) NAMED_UNIT ( * ) SI_UNIT ( $, .METRE. ) );
#278 = DIRECTION ( 'NONE',  ( 1.224646799147353454E-16, -1.000000000000000000, 0.000000000000000000 ) ) ;
#279 = EDGE_CURVE ( 'NONE', #38, #264, #62, .T. ) ;
#280 = DIRECTION ( 'NONE',  ( -0.000000000000000000, -1.000000000000000000, -0.000000000000000000 ) ) ;
#281 =( NAMED_UNIT ( * ) SI_UNIT ( $, .STERADIAN. ) SOLID_ANGLE_UNIT ( ) );
#282 = DIRECTION ( 'NONE',  ( -1.224646799147353454E-16, 1.000000000000000000, -0.000000000000000000 ) ) ;
#283 = ADVANCED_FACE ( 'NONE', ( #307 ), #275, .T. ) ;
#284 = CIRCLE ( 'NONE', #195, 0.1875000000000000278 ) ;
#285 = SURFACE_STYLE_FILL_AREA ( #78 ) ;
#286 = CARTESIAN_POINT ( 'NONE',  ( 2.296212748401287109E-17, 0.1875000000000000555, 0.1874999999999999722 ) ) ;
#287 = STYLED_ITEM ( 'NONE', ( #2 ), #77 ) ;
#288 = FILL_AREA_STYLE_COLOUR ( '', #55 ) ;
#289 = ORIENTED_EDGE ( 'NONE', *, *, #90, .T. ) ;
#290 = DIRECTION ( 'NONE',  ( 0.000000000000000000, -0.000000000000000000, 1.000000000000000000 ) ) ;
#291 = CARTESIAN_POINT ( 'NONE',  ( 2.296212748401286185E-17, 0.000000000000000000, 0.1874999999999999167 ) ) ;
#292 =( NAMED_UNIT ( * ) SI_UNIT ( $, .STERADIAN. ) SOLID_ANGLE_UNIT ( ) );
#293 = APPLICATION_CONTEXT ( 'automotive_design' ) ;
#294 = ORIENTED_EDGE ( 'NONE', *, *, #90, .F. ) ;
#295 = COLOUR_RGB ( '',0.7921568627450980005, 0.8196078431372548767, 0.9333333333333333481 ) ;
#296 = STYLED_ITEM ( 'NONE', ( #91 ), #225 ) ;
#297 = FILL_AREA_STYLE_COLOUR ( '', #200 ) ;
#298 = VERTEX_POINT ( 'NONE', #14 ) ;
#299 = VERTEX_POINT ( 'NONE', #212 ) ;
#300 = CARTESIAN_POINT ( 'NONE',  ( 0.1874999999999998890, 3.000000000000000444, 2.296212748401286801E-17 ) ) ;
#301 = DIRECTION ( 'NONE',  ( -0.000000000000000000, -1.000000000000000000, -0.000000000000000000 ) ) ;
#302 = LINE ( 'NONE', #44, #166 ) ;
#303 = DIMENSIONAL_EXPONENTS ( 1.000000000000000000, 0.000000000000000000, 0.000000000000000000, 0.000000000000000000, 0.000000000000000000, 0.000000000000000000, 0.000000000000000000 ) ;
#304 = DIRECTION ( 'NONE',  ( 0.000000000000000000, 0.000000000000000000, -1.000000000000000000 ) ) ;
#305 = AXIS2_PLACEMENT_3D ( 'NONE', #159, #278, #23 ) ;
#306 = PRESENTATION_LAYER_ASSIGNMENT (  '', '', ( #76 ) ) ;
#307 = FACE_OUTER_BOUND ( 'NONE', #66, .T. ) ;
#308 = DIRECTION ( 'NONE',  ( -1.224646799147353454E-16, 1.000000000000000000, -0.000000000000000000 ) ) ;
#309 = CLOSED_SHELL ( 'NONE', ( #283, #25, #317, #20 ) ) ;
#310 = LENGTH_MEASURE_WITH_UNIT ( LENGTH_MEASURE( 0.02539999999999999897 ), #321 );
#311 = LENGTH_MEASURE_WITH_UNIT ( LENGTH_MEASURE( 0.02539999999999999897 ), #193 );
#312 = FACE_OUTER_BOUND ( 'NONE', #12, .T. ) ;
#313 = DIRECTION ( 'NONE',  ( -1.224646799147353454E-16, 1.000000000000000000, -0.000000000000000000 ) ) ;
#314 =( GEOMETRIC_REPRESENTATION_CONTEXT ( 3 ) GLOBAL_UNCERTAINTY_ASSIGNED_CONTEXT ( ( #87 ) ) GLOBAL_UNIT_ASSIGNED_CONTEXT ( ( #81, #160, #257 ) ) REPRESENTATION_CONTEXT ( 'NONE', 'WORKASPACE' ) );
#315 = SURFACE_SIDE_STYLE ('',( #285 ) ) ;
#316 =( NAMED_UNIT ( * ) PLANE_ANGLE_UNIT ( ) SI_UNIT ( $, .RADIAN. ) );
#317 = ADVANCED_FACE ( 'NONE', ( #329 ), #126, .T. ) ;
#318 = ORIENTED_EDGE ( 'NONE', *, *, #249, .F. ) ;
#319 = DIRECTION ( 'NONE',  ( 0.000000000000000000, 1.000000000000000000, 0.000000000000000000 ) ) ;
#320 = APPLICATION_CONTEXT ( 'automotive_design' ) ;
#321 =( LENGTH_UNIT ( ) NAMED_UNIT ( * ) SI_UNIT ( $, .METRE. ) );
#322 = CARTESIAN_POINT ( 'NONE',  ( -0.1875000000000001388, 3.000000000000000444, 0.000000000000000000 ) ) ;
#323 = VERTEX_POINT ( 'NONE', #71 ) ;
#324 = ORIENTED_EDGE ( 'NONE', *, *, #249, .T. ) ;
#325 = FILL_AREA_STYLE_COLOUR ( '', #255 ) ;
#326 = VERTEX_POINT ( 'NONE', #328 ) ;
#327 = PRESENTATION_STYLE_ASSIGNMENT (( #11 ) ) ;
#328 = CARTESIAN_POINT ( 'NONE',  ( -1.148106374200643863E-17, 0.000000000000000000, 0.000000000000000000 ) ) ;
#329 = FACE_OUTER_BOUND ( 'NONE', #123, .T. ) ;
#330 = CARTESIAN_POINT ( 'NONE',  ( 1.224646799147353454E-16, 1.000000000000000000, 0.000000000000000000 ) ) ;
#331 = COLOUR_RGB ( '',1.000000000000000000, 0.000000000000000000, 0.000000000000000000 ) ;
#332 = AXIS2_PLACEMENT_3D ( 'NONE', #367, #246, #79 ) ;
#333 = EDGE_CURVE ( 'NONE', #187, #158, #284, .T. ) ;
#334 = CARTESIAN_POINT ( 'NONE',  ( -1.224646799147353700E-16, 3.000000000000000444, 0.000000000000000000 ) ) ;
#335 = PRESENTATION_LAYER_ASSIGNMENT (  '', '', ( #296 ) ) ;
#336 = EDGE_CURVE ( 'NONE', #299, #326, #245, .T. ) ;
#337 = SURFACE_STYLE_FILL_AREA ( #29 ) ;
#338 = DIRECTION ( 'NONE',  ( -1.000000000000000000, 0.000000000000000000, 0.000000000000000000 ) ) ;
#339 = PRESENTATION_LAYER_ASSIGNMENT (  '', '', ( #132 ) ) ;
#340 = AXIS2_PLACEMENT_3D ( 'NONE', #131, #301, #304 ) ;
#341 = EDGE_CURVE ( 'NONE', #158, #187, #226, .T. ) ;
#342 = CARTESIAN_POINT ( 'NONE',  ( 0.000000000000000000, 0.000000000000000000, 0.000000000000000000 ) ) ;
#343 = EDGE_CURVE ( 'NONE', #264, #38, #365, .T. ) ;
#344 = SURFACE_SIDE_STYLE ('',( #15 ) ) ;
#345 = LENGTH_MEASURE_WITH_UNIT ( LENGTH_MEASURE( 0.02539999999999999897 ), #84 );
#346 = UNCERTAINTY_MEASURE_WITH_UNIT (LENGTH_MEASURE( 1.000000000000000082E-05 ), #219, 'distance_accuracy_value', 'NONE');
#347 = PRESENTATION_STYLE_ASSIGNMENT (( #230 ) ) ;
#348 = STYLED_ITEM ( 'NONE', ( #347 ), #18 ) ;
#349 = DIRECTION ( 'NONE',  ( 1.000000000000000000, 0.000000000000000000, -1.224646799147353207E-16 ) ) ;
#350 = AXIS2_PLACEMENT_3D ( 'NONE', #330, #98, #153 ) ;
#351 = ORIENTED_EDGE ( 'NONE', *, *, #336, .F. ) ;
#352 = SURFACE_STYLE_FILL_AREA ( #360 ) ;
#353 = ORIENTED_EDGE ( 'NONE', *, *, #341, .T. ) ;
#354 =( NAMED_UNIT ( * ) PLANE_ANGLE_UNIT ( ) SI_UNIT ( $, .RADIAN. ) );
#355 = ORIENTED_EDGE ( 'NONE', *, *, #333, .T. ) ;
#356 = SURFACE_STYLE_FILL_AREA ( #125 ) ;
#357 =( GEOMETRIC_REPRESENTATION_CONTEXT ( 3 ) GLOBAL_UNCERTAINTY_ASSIGNED_CONTEXT ( ( #37 ) ) GLOBAL_UNIT_ASSIGNED_CONTEXT ( ( #97, #354, #148 ) ) REPRESENTATION_CONTEXT ( 'NONE', 'WORKASPACE' ) );
#358 = CARTESIAN_POINT ( 'NONE',  ( -1.224646799147353700E-16, 3.000000000000000444, 0.000000000000000000 ) ) ;
#359 = DIRECTION ( 'NONE',  ( -1.224646799147353454E-16, 1.000000000000000000, -0.000000000000000000 ) ) ;
#360 = FILL_AREA_STYLE ('',( #297 ) ) ;
#361 = EDGE_CURVE ( 'NONE', #299, #68, #262, .T. ) ;
#362 = DIRECTION ( 'NONE',  ( 0.000000000000000000, 0.000000000000000000, -1.000000000000000000 ) ) ;
#363 = DIRECTION ( 'NONE',  ( -0.000000000000000000, -1.000000000000000000, -0.000000000000000000 ) ) ;
#364 = AXIS2_PLACEMENT_3D ( 'NONE', #229, #319, #290 ) ;
#365 = CIRCLE ( 'NONE', #332, 0.1874999999999997780 ) ;
#366 =( CONVERSION_BASED_UNIT ( 'INCH', #310 ) LENGTH_UNIT ( ) NAMED_UNIT ( #272 ) );
#367 = CARTESIAN_POINT ( 'NONE',  ( 1.224646799147353454E-16, 1.000000000000000000, 0.000000000000000000 ) ) ;
#368 = PRODUCT_DEFINITION ( 'UNKNOWN', '', #256, #252 ) ;
#369 = STYLED_ITEM ( 'NONE', ( #327 ), #141 ) ;
#370 = DIRECTION ( 'NONE',  ( -0.000000000000000000, -1.000000000000000000, -0.000000000000000000 ) ) ;
#371 = CARTESIAN_POINT ( 'NONE',  ( -0.1875000000000000278, 0.1875000000000000555, 2.296212748401287109E-17 ) ) ;
#372 = ORIENTED_EDGE ( 'NONE', *, *, #341, .F. ) ;
#373 = CARTESIAN_POINT ( 'NONE',  ( 0.000000000000000000, 0.000000000000000000, -0.1874999999999999167 ) ) ;
ENDSEC;
END-ISO-10303-21;
