ISO-10303-21;
HEADER;
FILE_DESCRIPTION (( 'STEP AP214' ),
    '1' );
FILE_NAME ('44242.STEP',
    '2023-06-22T19:44:09',
    ( '' ),
    ( '' ),
    'SwSTEP 2.0',
    'SolidWorks 2023',
    '' );
FILE_SCHEMA (( 'AUTOMOTIVE_DESIGN' ));
ENDSEC;

DATA;
#1 = SURFACE_SIDE_STYLE ('',( #68 ) ) ;
#2 = DIRECTION ( 'NONE',  ( -6.997981709413449187E-17, 1.000000000000000000, -0.000000000000000000 ) ) ;
#3 = PRESENTATION_LAYER_ASSIGNMENT (  '', '', ( #177 ) ) ;
#4 = CYLINDRICAL_SURFACE ( 'NONE', #132, 0.1875000000000001110 ) ;
#5 = DIRECTION ( 'NONE',  ( -1.000000000000000000, -6.997981709413449187E-17, 0.000000000000000000 ) ) ;
#6 = DIRECTION ( 'NONE',  ( -1.000000000000000000, 0.000000000000000000, 0.000000000000000000 ) ) ;
#7 = SURFACE_STYLE_USAGE ( .BOTH. , #141 ) ;
#8 = VERTEX_POINT ( 'NONE', #214 ) ;
#9 = VECTOR ( 'NONE', #223, 39.37007874015748143 ) ;
#10 = EDGE_LOOP ( 'NONE', ( #140, #284 ) ) ;
#11 =( LENGTH_UNIT ( ) NAMED_UNIT ( * ) SI_UNIT ( $, .METRE. ) );
#12 = ORIENTED_EDGE ( 'NONE', *, *, #161, .T. ) ;
#13 = DIRECTION ( 'NONE',  ( -0.000000000000000000, -1.000000000000000000, -0.000000000000000000 ) ) ;
#14 = DIRECTION ( 'NONE',  ( -1.000000000000000000, 0.000000000000000000, 0.000000000000000000 ) ) ;
#15 = EDGE_CURVE ( 'NONE', #8, #100, #291, .T. ) ;
#16 = UNCERTAINTY_MEASURE_WITH_UNIT (LENGTH_MEASURE( 1.000000000000000082E-05 ), #72, 'distance_accuracy_value', 'NONE');
#17 = SURFACE_STYLE_FILL_AREA ( #129 ) ;
#18 = DIRECTION ( 'NONE',  ( -1.000000000000000000, 0.000000000000000000, 0.000000000000000000 ) ) ;
#19 = VECTOR ( 'NONE', #121, 39.37007874015748143 ) ;
#20 = COLOUR_RGB ( '',1.000000000000000000, 0.000000000000000000, 0.000000000000000000 ) ;
#21 = SURFACE_STYLE_USAGE ( .BOTH. , #272 ) ;
#22 = DIRECTION ( 'NONE',  ( 0.000000000000000000, 0.000000000000000000, -1.000000000000000000 ) ) ;
#23 = DIMENSIONAL_EXPONENTS ( 1.000000000000000000, 0.000000000000000000, 0.000000000000000000, 0.000000000000000000, 0.000000000000000000, 0.000000000000000000, 0.000000000000000000 ) ;
#24 =( NAMED_UNIT ( * ) PLANE_ANGLE_UNIT ( ) SI_UNIT ( $, .RADIAN. ) );
#25 =( GEOMETRIC_REPRESENTATION_CONTEXT ( 3 ) GLOBAL_UNCERTAINTY_ASSIGNED_CONTEXT ( ( #186 ) ) GLOBAL_UNIT_ASSIGNED_CONTEXT ( ( #222, #64, #251 ) ) REPRESENTATION_CONTEXT ( 'NONE', 'WORKASPACE' ) );
#26 = PRODUCT ( '44242', '44242', '', ( #61 ) ) ;
#27 = MANIFOLD_SOLID_BREP ( 'Revolve - Tool Body (Straight Shanked)', #62 ) ;
#28 = ORIENTED_EDGE ( 'NONE', *, *, #88, .F. ) ;
#29 = EDGE_LOOP ( 'NONE', ( #178, #255, #95, #176 ) ) ;
#30 = AXIS2_PLACEMENT_3D ( 'NONE', #283, #289, #51 ) ;
#31 =( CONVERSION_BASED_UNIT ( 'INCH', #204 ) LENGTH_UNIT ( ) NAMED_UNIT ( #77 ) );
#32 = EDGE_CURVE ( 'NONE', #293, #39, #145, .T. ) ;
#33 = FACE_OUTER_BOUND ( 'NONE', #29, .T. ) ;
#34 = CIRCLE ( 'NONE', #296, 0.1875000000000000278 ) ;
#35 = DIRECTION ( 'NONE',  ( -6.997981709413449187E-17, 1.000000000000000000, -0.000000000000000000 ) ) ;
#36 = LENGTH_MEASURE_WITH_UNIT ( LENGTH_MEASURE( 0.02539999999999999897 ), #259 );
#37 = ORIENTED_EDGE ( 'NONE', *, *, #201, .T. ) ;
#38 =( NAMED_UNIT ( * ) PLANE_ANGLE_UNIT ( ) SI_UNIT ( $, .RADIAN. ) );
#39 = VERTEX_POINT ( 'NONE', #58 ) ;
#40 = ADVANCED_FACE ( 'NONE', ( #33 ), #4, .T. ) ;
#41 = DIRECTION ( 'NONE',  ( 0.000000000000000000, -0.000000000000000000, 1.000000000000000000 ) ) ;
#42 = CARTESIAN_POINT ( 'NONE',  ( 2.296212748401287726E-17, 0.000000000000000000, 0.1875000000000000278 ) ) ;
#43 = STYLED_ITEM ( 'NONE', ( #217 ), #45 ) ;
#44 = PRODUCT_DEFINITION_FORMATION_WITH_SPECIFIED_SOURCE ( 'ANY', '', #26, .NOT_KNOWN. ) ;
#45 = ADVANCED_FACE ( 'NONE', ( #93 ), #185, .T. ) ;
#46 = SURFACE_SIDE_STYLE ('',( #164 ) ) ;
#47 = VECTOR ( 'NONE', #35, 39.37007874015748143 ) ;
#48 = COLOUR_RGB ( '',1.000000000000000000, 0.000000000000000000, 0.000000000000000000 ) ;
#49 = DIRECTION ( 'NONE',  ( -0.000000000000000000, -1.000000000000000000, -0.000000000000000000 ) ) ;
#50 = PLANE ( 'NONE',  #126 ) ;
#51 = DIRECTION ( 'NONE',  ( 0.000000000000000000, 0.000000000000000000, -1.000000000000000000 ) ) ;
#52 = CIRCLE ( 'NONE', #189, 0.1875000000000001943 ) ;
#53 = AXIS2_PLACEMENT_3D ( 'NONE', #300, #83, #249 ) ;
#54 = FILL_AREA_STYLE_COLOUR ( '', #96 ) ;
#55 =( CONVERSION_BASED_UNIT ( 'INCH', #292 ) LENGTH_UNIT ( ) NAMED_UNIT ( #242 ) );
#56 = SURFACE_STYLE_USAGE ( .BOTH. , #74 ) ;
#57 = ORIENTED_EDGE ( 'NONE', *, *, #135, .F. ) ;
#58 = CARTESIAN_POINT ( 'NONE',  ( 0.1875000000000000555, 3.000000000000000444, 2.296212748401289266E-17 ) ) ;
#59 = CARTESIAN_POINT ( 'NONE',  ( -1.224646799147353700E-16, 3.000000000000000444, 0.000000000000000000 ) ) ;
#60 = DIRECTION ( 'NONE',  ( 0.000000000000000000, 0.000000000000000000, -1.000000000000000000 ) ) ;
#61 = PRODUCT_CONTEXT ( 'NONE', #231, 'mechanical' ) ;
#62 = CLOSED_SHELL ( 'NONE', ( #276, #206, #40, #226 ) ) ;
#63 =( LENGTH_UNIT ( ) NAMED_UNIT ( * ) SI_UNIT ( $, .METRE. ) );
#64 =( NAMED_UNIT ( * ) PLANE_ANGLE_UNIT ( ) SI_UNIT ( $, .RADIAN. ) );
#65 = DIMENSIONAL_EXPONENTS ( 1.000000000000000000, 0.000000000000000000, 0.000000000000000000, 0.000000000000000000, 0.000000000000000000, 0.000000000000000000, 0.000000000000000000 ) ;
#66 = ORIENTED_EDGE ( 'NONE', *, *, #161, .F. ) ;
#67 = CIRCLE ( 'NONE', #86, 0.1875000000000000555 ) ;
#68 = SURFACE_STYLE_FILL_AREA ( #70 ) ;
#69 = STYLED_ITEM ( 'NONE', ( #94 ), #246 ) ;
#70 = FILL_AREA_STYLE ('',( #281 ) ) ;
#71 =( LENGTH_UNIT ( ) NAMED_UNIT ( * ) SI_UNIT ( $, .METRE. ) );
#72 =( CONVERSION_BASED_UNIT ( 'INCH', #103 ) LENGTH_UNIT ( ) NAMED_UNIT ( #127 ) );
#73 = AXIS2_PLACEMENT_3D ( 'NONE', #213, #156, #5 ) ;
#74 = SURFACE_SIDE_STYLE ('',( #238 ) ) ;
#75 = PRESENTATION_STYLE_ASSIGNMENT (( #21 ) ) ;
#76 = ORIENTED_EDGE ( 'NONE', *, *, #88, .T. ) ;
#77 = DIMENSIONAL_EXPONENTS ( 1.000000000000000000, 0.000000000000000000, 0.000000000000000000, 0.000000000000000000, 0.000000000000000000, 0.000000000000000000, 0.000000000000000000 ) ;
#78 = DIRECTION ( 'NONE',  ( 0.000000000000000000, 1.000000000000000000, 0.000000000000000000 ) ) ;
#79 = ORIENTED_EDGE ( 'NONE', *, *, #201, .F. ) ;
#80 = PRESENTATION_LAYER_ASSIGNMENT (  '', '', ( #43 ) ) ;
#81 = DIRECTION ( 'NONE',  ( -0.000000000000000000, -1.000000000000000000, -0.000000000000000000 ) ) ;
#82 =( LENGTH_UNIT ( ) NAMED_UNIT ( * ) SI_UNIT ( $, .METRE. ) );
#83 = DIRECTION ( 'NONE',  ( 0.000000000000000000, 0.000000000000000000, 1.000000000000000000 ) ) ;
#84 = DIRECTION ( 'NONE',  ( -1.000000000000000000, 0.000000000000000000, 0.000000000000000000 ) ) ;
#85 = PRESENTATION_STYLE_ASSIGNMENT (( #273 ) ) ;
#86 = AXIS2_PLACEMENT_3D ( 'NONE', #295, #133, #84 ) ;
#87 = FACE_OUTER_BOUND ( 'NONE', #227, .T. ) ;
#88 = EDGE_CURVE ( 'NONE', #128, #293, #67, .T. ) ;
#89 = STYLED_ITEM ( 'NONE', ( #85 ), #120 ) ;
#90 = FACE_OUTER_BOUND ( 'NONE', #112, .T. ) ;
#91 = CARTESIAN_POINT ( 'NONE',  ( -1.224646799147353700E-16, 3.000000000000000444, 0.000000000000000000 ) ) ;
#92 = DIRECTION ( 'NONE',  ( 6.997981709413449187E-17, -1.000000000000000000, 0.000000000000000000 ) ) ;
#93 = FACE_OUTER_BOUND ( 'NONE', #188, .T. ) ;
#94 = PRESENTATION_STYLE_ASSIGNMENT (( #7 ) ) ;
#95 = ORIENTED_EDGE ( 'NONE', *, *, #212, .T. ) ;
#96 = COLOUR_RGB ( '',1.000000000000000000, 0.000000000000000000, 0.000000000000000000 ) ;
#97 = FILL_AREA_STYLE_COLOUR ( '', #20 ) ;
#98 = CARTESIAN_POINT ( 'NONE',  ( 0.000000000000000000, 0.000000000000000000, 0.000000000000000000 ) ) ;
#99 = EDGE_CURVE ( 'NONE', #278, #100, #34, .T. ) ;
#100 = VERTEX_POINT ( 'NONE', #42 ) ;
#101 = DIRECTION ( 'NONE',  ( -6.997981709413449187E-17, 1.000000000000000000, -0.000000000000000000 ) ) ;
#102 = CARTESIAN_POINT ( 'NONE',  ( 0.000000000000000000, 1.250000000000000000, 0.000000000000000000 ) ) ;
#103 = LENGTH_MEASURE_WITH_UNIT ( LENGTH_MEASURE( 0.02539999999999999897 ), #11 );
#104 = COLOUR_RGB ( '',0.7921568627450980005, 0.8196078431372548767, 0.9333333333333333481 ) ;
#105 = CARTESIAN_POINT ( 'NONE',  ( -0.1875000000000000555, 1.250000000000000000, 0.000000000000000000 ) ) ;
#106 = PRODUCT_DEFINITION ( 'UNKNOWN', '', #44, #285 ) ;
#107 = DIRECTION ( 'NONE',  ( 0.000000000000000000, 0.000000000000000000, -1.000000000000000000 ) ) ;
#108 = FILL_AREA_STYLE_COLOUR ( '', #104 ) ;
#109 = MECHANICAL_DESIGN_GEOMETRIC_PRESENTATION_REPRESENTATION (  '', ( #69 ), #203 ) ;
#110 =( CONVERSION_BASED_UNIT ( 'INCH', #172 ) LENGTH_UNIT ( ) NAMED_UNIT ( #23 ) );
#111 = EDGE_LOOP ( 'NONE', ( #162, #279, #12, #79 ) ) ;
#112 = EDGE_LOOP ( 'NONE', ( #232, #170 ) ) ;
#113 = AXIS2_PLACEMENT_3D ( 'NONE', #205, #92, #280 ) ;
#114 = EDGE_CURVE ( 'NONE', #39, #235, #233, .T. ) ;
#115 = CARTESIAN_POINT ( 'NONE',  ( 0.000000000000000000, 0.000000000000000000, 0.000000000000000000 ) ) ;
#116 = FACE_OUTER_BOUND ( 'NONE', #211, .T. ) ;
#117 = LINE ( 'NONE', #262, #274 ) ;
#118 = FILL_AREA_STYLE_COLOUR ( '', #157 ) ;
#119 = CARTESIAN_POINT ( 'NONE',  ( 0.000000000000000000, 0.000000000000000000, 0.000000000000000000 ) ) ;
#120 = MANIFOLD_SOLID_BREP ( 'Revolve - Cutting Edge', #165 ) ;
#121 = DIRECTION ( 'NONE',  ( -0.000000000000000000, -1.000000000000000000, -0.000000000000000000 ) ) ;
#122 = DIRECTION ( 'NONE',  ( -0.000000000000000000, -1.000000000000000000, -0.000000000000000000 ) ) ;
#123 = LENGTH_MEASURE_WITH_UNIT ( LENGTH_MEASURE( 0.02539999999999999897 ), #71 );
#124 =( NAMED_UNIT ( * ) PLANE_ANGLE_UNIT ( ) SI_UNIT ( $, .RADIAN. ) );
#125 = AXIS2_PLACEMENT_3D ( 'NONE', #115, #122, #260 ) ;
#126 = AXIS2_PLACEMENT_3D ( 'NONE', #218, #78, #41 ) ;
#127 = DIMENSIONAL_EXPONENTS ( 1.000000000000000000, 0.000000000000000000, 0.000000000000000000, 0.000000000000000000, 0.000000000000000000, 0.000000000000000000, 0.000000000000000000 ) ;
#128 = VERTEX_POINT ( 'NONE', #105 ) ;
#129 = FILL_AREA_STYLE ('',( #97 ) ) ;
#130 = CARTESIAN_POINT ( 'NONE',  ( 0.000000000000000000, 0.000000000000000000, 0.000000000000000000 ) ) ;
#131 = FACE_OUTER_BOUND ( 'NONE', #111, .T. ) ;
#132 = AXIS2_PLACEMENT_3D ( 'NONE', #91, #183, #6 ) ;
#133 = DIRECTION ( 'NONE',  ( -6.997981709413449187E-17, 1.000000000000000000, -0.000000000000000000 ) ) ;
#134 = DIRECTION ( 'NONE',  ( 0.000000000000000000, -1.000000000000000000, -0.000000000000000000 ) ) ;
#135 = EDGE_CURVE ( 'NONE', #235, #39, #52, .T. ) ;
#136 = SHAPE_DEFINITION_REPRESENTATION ( #258, #282 ) ;
#137 = ORIENTED_EDGE ( 'NONE', *, *, #99, .F. ) ;
#138 = DIRECTION ( 'NONE',  ( 0.000000000000000000, 0.000000000000000000, -1.000000000000000000 ) ) ;
#139 = FILL_AREA_STYLE_COLOUR ( '', #48 ) ;
#140 = ORIENTED_EDGE ( 'NONE', *, *, #286, .F. ) ;
#141 = SURFACE_SIDE_STYLE ('',( #184 ) ) ;
#142 = FILL_AREA_STYLE ('',( #118 ) ) ;
#143 = PRESENTATION_STYLE_ASSIGNMENT (( #56 ) ) ;
#144 = EDGE_CURVE ( 'NONE', #293, #128, #152, .T. ) ;
#145 = LINE ( 'NONE', #268, #47 ) ;
#146 = UNCERTAINTY_MEASURE_WITH_UNIT (LENGTH_MEASURE( 1.000000000000000082E-05 ), #31, 'distance_accuracy_value', 'NONE');
#147 = AXIS2_PLACEMENT_3D ( 'NONE', #216, #13, #107 ) ;
#148 = ORIENTED_EDGE ( 'NONE', *, *, #15, .T. ) ;
#149 =( NAMED_UNIT ( * ) PLANE_ANGLE_UNIT ( ) SI_UNIT ( $, .RADIAN. ) );
#150 = UNCERTAINTY_MEASURE_WITH_UNIT (LENGTH_MEASURE( 1.000000000000000082E-05 ), #209, 'distance_accuracy_value', 'NONE');
#151 = DIRECTION ( 'NONE',  ( -1.000000000000000000, 0.000000000000000000, 0.000000000000000000 ) ) ;
#152 = CIRCLE ( 'NONE', #199, 0.1875000000000000555 ) ;
#153 =( GEOMETRIC_REPRESENTATION_CONTEXT ( 3 ) GLOBAL_UNCERTAINTY_ASSIGNED_CONTEXT ( ( #247 ) ) GLOBAL_UNIT_ASSIGNED_CONTEXT ( ( #55, #149, #237 ) ) REPRESENTATION_CONTEXT ( 'NONE', 'WORKASPACE' ) );
#154 = DIRECTION ( 'NONE',  ( -0.000000000000000000, -1.000000000000000000, -0.000000000000000000 ) ) ;
#155 = SURFACE_SIDE_STYLE ('',( #302 ) ) ;
#156 = DIRECTION ( 'NONE',  ( -6.997981709413449187E-17, 1.000000000000000000, 0.000000000000000000 ) ) ;
#157 = COLOUR_RGB ( '',0.7921568627450980005, 0.8196078431372548767, 0.9333333333333333481 ) ;
#158 = ORIENTED_EDGE ( 'NONE', *, *, #99, .T. ) ;
#159 = AXIS2_PLACEMENT_3D ( 'NONE', #301, #134, #22 ) ;
#160 = SURFACE_STYLE_USAGE ( .BOTH. , #1 ) ;
#161 = EDGE_CURVE ( 'NONE', #200, #278, #195, .T. ) ;
#162 = ORIENTED_EDGE ( 'NONE', *, *, #15, .F. ) ;
#163 = CYLINDRICAL_SURFACE ( 'NONE', #202, 0.1875000000000000555 ) ;
#164 = SURFACE_STYLE_FILL_AREA ( #288 ) ;
#165 = CLOSED_SHELL ( 'NONE', ( #193, #246, #261, #45 ) ) ;
#166 = CIRCLE ( 'NONE', #125, 0.1875000000000000278 ) ;
#167 = CYLINDRICAL_SURFACE ( 'NONE', #270, 0.1875000000000001110 ) ;
#168 = ORIENTED_EDGE ( 'NONE', *, *, #212, .F. ) ;
#169 =( NAMED_UNIT ( * ) PLANE_ANGLE_UNIT ( ) SI_UNIT ( $, .RADIAN. ) );
#170 = ORIENTED_EDGE ( 'NONE', *, *, #114, .T. ) ;
#171 = CYLINDRICAL_SURFACE ( 'NONE', #225, 0.1875000000000000555 ) ;
#172 = LENGTH_MEASURE_WITH_UNIT ( LENGTH_MEASURE( 0.02539999999999999897 ), #63 );
#173 = APPLICATION_PROTOCOL_DEFINITION ( 'draft international standard', 'automotive_design', 1998, #231 ) ;
#174 = CARTESIAN_POINT ( 'NONE',  ( -1.224646799147353700E-16, 3.000000000000000444, 0.000000000000000000 ) ) ;
#175 =( GEOMETRIC_REPRESENTATION_CONTEXT ( 3 ) GLOBAL_UNCERTAINTY_ASSIGNED_CONTEXT ( ( #16 ) ) GLOBAL_UNIT_ASSIGNED_CONTEXT ( ( #72, #38, #298 ) ) REPRESENTATION_CONTEXT ( 'NONE', 'WORKASPACE' ) );
#176 = ORIENTED_EDGE ( 'NONE', *, *, #114, .F. ) ;
#177 = STYLED_ITEM ( 'NONE', ( #287 ), #193 ) ;
#178 = ORIENTED_EDGE ( 'NONE', *, *, #32, .F. ) ;
#179 =( NAMED_UNIT ( * ) PLANE_ANGLE_UNIT ( ) SI_UNIT ( $, .RADIAN. ) );
#180 = CARTESIAN_POINT ( 'NONE',  ( -0.1875000000000003331, 3.000000000000000444, 0.000000000000000000 ) ) ;
#181 = PRESENTATION_LAYER_ASSIGNMENT (  '', '', ( #307 ) ) ;
#182 = FACE_OUTER_BOUND ( 'NONE', #10, .T. ) ;
#183 = DIRECTION ( 'NONE',  ( -6.997981709413449187E-17, 1.000000000000000000, -0.000000000000000000 ) ) ;
#184 = SURFACE_STYLE_FILL_AREA ( #252 ) ;
#185 = PLANE ( 'NONE',  #159 ) ;
#186 = UNCERTAINTY_MEASURE_WITH_UNIT (LENGTH_MEASURE( 1.000000000000000082E-05 ), #222, 'distance_accuracy_value', 'NONE');
#187 = APPLICATION_CONTEXT ( 'automotive_design' ) ;
#188 = EDGE_LOOP ( 'NONE', ( #158, #37 ) ) ;
#189 = AXIS2_PLACEMENT_3D ( 'NONE', #59, #243, #14 ) ;
#190 = CARTESIAN_POINT ( 'NONE',  ( 0.000000000000000000, 0.000000000000000000, -0.1875000000000000278 ) ) ;
#191 =( NAMED_UNIT ( * ) SI_UNIT ( $, .STERADIAN. ) SOLID_ANGLE_UNIT ( ) );
#192 =( NAMED_UNIT ( * ) SI_UNIT ( $, .STERADIAN. ) SOLID_ANGLE_UNIT ( ) );
#193 = ADVANCED_FACE ( 'NONE', ( #87 ), #163, .T. ) ;
#194 =( GEOMETRIC_REPRESENTATION_CONTEXT ( 3 ) GLOBAL_UNCERTAINTY_ASSIGNED_CONTEXT ( ( #150 ) ) GLOBAL_UNIT_ASSIGNED_CONTEXT ( ( #209, #124, #191 ) ) REPRESENTATION_CONTEXT ( 'NONE', 'WORKASPACE' ) );
#195 = LINE ( 'NONE', #299, #9 ) ;
#196 = CARTESIAN_POINT ( 'NONE',  ( 0.1875000000000000555, 1.250000000000000000, 2.296212748401289266E-17 ) ) ;
#197 = SURFACE_STYLE_USAGE ( .BOTH. , #46 ) ;
#198 = FILL_AREA_STYLE ('',( #108 ) ) ;
#199 = AXIS2_PLACEMENT_3D ( 'NONE', #102, #219, #18 ) ;
#200 = VERTEX_POINT ( 'NONE', #210 ) ;
#201 = EDGE_CURVE ( 'NONE', #100, #278, #166, .T. ) ;
#202 = AXIS2_PLACEMENT_3D ( 'NONE', #119, #49, #138 ) ;
#203 =( GEOMETRIC_REPRESENTATION_CONTEXT ( 3 ) GLOBAL_UNCERTAINTY_ASSIGNED_CONTEXT ( ( #146 ) ) GLOBAL_UNIT_ASSIGNED_CONTEXT ( ( #31, #169, #192 ) ) REPRESENTATION_CONTEXT ( 'NONE', 'WORKASPACE' ) );
#204 = LENGTH_MEASURE_WITH_UNIT ( LENGTH_MEASURE( 0.02539999999999999897 ), #256 );
#205 = CARTESIAN_POINT ( 'NONE',  ( 0.1875000000000000555, 3.000000000000000444, 0.000000000000000000 ) ) ;
#206 = ADVANCED_FACE ( 'NONE', ( #116 ), #229, .F. ) ;
#207 =( NAMED_UNIT ( * ) SI_UNIT ( $, .STERADIAN. ) SOLID_ANGLE_UNIT ( ) );
#208 =( GEOMETRIC_REPRESENTATION_CONTEXT ( 3 ) GLOBAL_UNCERTAINTY_ASSIGNED_CONTEXT ( ( #271 ) ) GLOBAL_UNIT_ASSIGNED_CONTEXT ( ( #236, #179, #207 ) ) REPRESENTATION_CONTEXT ( 'NONE', 'WORKASPACE' ) );
#209 =( CONVERSION_BASED_UNIT ( 'INCH', #123 ) LENGTH_UNIT ( ) NAMED_UNIT ( #303 ) );
#210 = CARTESIAN_POINT ( 'NONE',  ( 0.000000000000000000, 1.250000000000000000, -0.1875000000000000555 ) ) ;
#211 = EDGE_LOOP ( 'NONE', ( #28, #267 ) ) ;
#212 = EDGE_CURVE ( 'NONE', #128, #235, #117, .T. ) ;
#213 = CARTESIAN_POINT ( 'NONE',  ( 4.591101375495486296E-34, 1.250000000000000000, 0.000000000000000000 ) ) ;
#214 = CARTESIAN_POINT ( 'NONE',  ( 2.296212748401288034E-17, 1.250000000000000000, 0.1875000000000000555 ) ) ;
#215 =( GEOMETRIC_REPRESENTATION_CONTEXT ( 3 ) GLOBAL_UNCERTAINTY_ASSIGNED_CONTEXT ( ( #239 ) ) GLOBAL_UNIT_ASSIGNED_CONTEXT ( ( #110, #24, #245 ) ) REPRESENTATION_CONTEXT ( 'NONE', 'WORKASPACE' ) );
#216 = CARTESIAN_POINT ( 'NONE',  ( 0.000000000000000000, 1.250000000000000000, 0.000000000000000000 ) ) ;
#217 = PRESENTATION_STYLE_ASSIGNMENT (( #197 ) ) ;
#218 = CARTESIAN_POINT ( 'NONE',  ( 0.000000000000000000, 1.250000000000000000, 0.000000000000000000 ) ) ;
#219 = DIRECTION ( 'NONE',  ( -6.997981709413449187E-17, 1.000000000000000000, -0.000000000000000000 ) ) ;
#220 = MECHANICAL_DESIGN_GEOMETRIC_PRESENTATION_REPRESENTATION (  '', ( #89 ), #25 ) ;
#221 = FACE_OUTER_BOUND ( 'NONE', #228, .T. ) ;
#222 =( CONVERSION_BASED_UNIT ( 'INCH', #275 ) LENGTH_UNIT ( ) NAMED_UNIT ( #65 ) );
#223 = DIRECTION ( 'NONE',  ( -0.000000000000000000, -1.000000000000000000, -0.000000000000000000 ) ) ;
#224 = DIRECTION ( 'NONE',  ( -6.997981709413449187E-17, 1.000000000000000000, -0.000000000000000000 ) ) ;
#225 = AXIS2_PLACEMENT_3D ( 'NONE', #98, #81, #60 ) ;
#226 = ADVANCED_FACE ( 'NONE', ( #90 ), #230, .F. ) ;
#227 = EDGE_LOOP ( 'NONE', ( #309, #148, #137, #66 ) ) ;
#228 = EDGE_LOOP ( 'NONE', ( #76, #266, #57, #168 ) ) ;
#229 = PLANE ( 'NONE',  #73 ) ;
#230 = PLANE ( 'NONE',  #113 ) ;
#231 = APPLICATION_CONTEXT ( 'automotive_design' ) ;
#232 = ORIENTED_EDGE ( 'NONE', *, *, #135, .T. ) ;
#233 = CIRCLE ( 'NONE', #257, 0.1875000000000001943 ) ;
#234 = EDGE_CURVE ( 'NONE', #8, #200, #304, .T. ) ;
#235 = VERTEX_POINT ( 'NONE', #180 ) ;
#236 =( CONVERSION_BASED_UNIT ( 'INCH', #36 ) LENGTH_UNIT ( ) NAMED_UNIT ( #306 ) );
#237 =( NAMED_UNIT ( * ) SI_UNIT ( $, .STERADIAN. ) SOLID_ANGLE_UNIT ( ) );
#238 = SURFACE_STYLE_FILL_AREA ( #142 ) ;
#239 = UNCERTAINTY_MEASURE_WITH_UNIT (LENGTH_MEASURE( 1.000000000000000082E-05 ), #110, 'distance_accuracy_value', 'NONE');
#240 = CARTESIAN_POINT ( 'NONE',  ( 2.296212748401288034E-17, 0.000000000000000000, 0.1875000000000000555 ) ) ;
#241 = PRESENTATION_LAYER_ASSIGNMENT (  '', '', ( #69 ) ) ;
#242 = DIMENSIONAL_EXPONENTS ( 1.000000000000000000, 0.000000000000000000, 0.000000000000000000, 0.000000000000000000, 0.000000000000000000, 0.000000000000000000, 0.000000000000000000 ) ;
#243 = DIRECTION ( 'NONE',  ( -6.997981709413449187E-17, 1.000000000000000000, -0.000000000000000000 ) ) ;
#244 = DIRECTION ( 'NONE',  ( -1.000000000000000000, 0.000000000000000000, 0.000000000000000000 ) ) ;
#245 =( NAMED_UNIT ( * ) SI_UNIT ( $, .STERADIAN. ) SOLID_ANGLE_UNIT ( ) );
#246 = ADVANCED_FACE ( 'NONE', ( #182 ), #50, .T. ) ;
#247 = UNCERTAINTY_MEASURE_WITH_UNIT (LENGTH_MEASURE( 1.000000000000000082E-05 ), #55, 'distance_accuracy_value', 'NONE');
#248 = MECHANICAL_DESIGN_GEOMETRIC_PRESENTATION_REPRESENTATION (  '', ( #43 ), #215 ) ;
#249 = DIRECTION ( 'NONE',  ( 1.000000000000000000, 0.000000000000000000, 0.000000000000000000 ) ) ;
#250 = DIRECTION ( 'NONE',  ( 0.000000000000000000, 0.000000000000000000, -1.000000000000000000 ) ) ;
#251 =( NAMED_UNIT ( * ) SI_UNIT ( $, .STERADIAN. ) SOLID_ANGLE_UNIT ( ) );
#252 = FILL_AREA_STYLE ('',( #139 ) ) ;
#253 = MECHANICAL_DESIGN_GEOMETRIC_PRESENTATION_REPRESENTATION (  '', ( #307 ), #194 ) ;
#254 = STYLED_ITEM ( 'NONE', ( #75 ), #261 ) ;
#255 = ORIENTED_EDGE ( 'NONE', *, *, #144, .T. ) ;
#256 =( LENGTH_UNIT ( ) NAMED_UNIT ( * ) SI_UNIT ( $, .METRE. ) );
#257 = AXIS2_PLACEMENT_3D ( 'NONE', #174, #224, #244 ) ;
#258 = PRODUCT_DEFINITION_SHAPE ( 'NONE', 'NONE',  #106 ) ;
#259 =( LENGTH_UNIT ( ) NAMED_UNIT ( * ) SI_UNIT ( $, .METRE. ) );
#260 = DIRECTION ( 'NONE',  ( 0.000000000000000000, 0.000000000000000000, -1.000000000000000000 ) ) ;
#261 = ADVANCED_FACE ( 'NONE', ( #131 ), #171, .T. ) ;
#262 = CARTESIAN_POINT ( 'NONE',  ( -0.1875000000000002498, 3.000000000000000444, 0.000000000000000000 ) ) ;
#263 = MECHANICAL_DESIGN_GEOMETRIC_PRESENTATION_REPRESENTATION (  '', ( #177 ), #208 ) ;
#264 = CIRCLE ( 'NONE', #147, 0.1875000000000000555 ) ;
#265 =( LENGTH_UNIT ( ) NAMED_UNIT ( * ) SI_UNIT ( $, .METRE. ) );
#266 = ORIENTED_EDGE ( 'NONE', *, *, #32, .T. ) ;
#267 = ORIENTED_EDGE ( 'NONE', *, *, #144, .F. ) ;
#268 = CARTESIAN_POINT ( 'NONE',  ( 0.1874999999999999722, 3.000000000000000444, 2.296212748401288650E-17 ) ) ;
#269 = PRESENTATION_LAYER_ASSIGNMENT (  '', '', ( #89 ) ) ;
#270 = AXIS2_PLACEMENT_3D ( 'NONE', #294, #101, #151 ) ;
#271 = UNCERTAINTY_MEASURE_WITH_UNIT (LENGTH_MEASURE( 1.000000000000000082E-05 ), #236, 'distance_accuracy_value', 'NONE');
#272 = SURFACE_SIDE_STYLE ('',( #17 ) ) ;
#273 = SURFACE_STYLE_USAGE ( .BOTH. , #155 ) ;
#274 = VECTOR ( 'NONE', #2, 39.37007874015748143 ) ;
#275 = LENGTH_MEASURE_WITH_UNIT ( LENGTH_MEASURE( 0.02539999999999999897 ), #82 );
#276 = ADVANCED_FACE ( 'NONE', ( #221 ), #167, .T. ) ;
#277 = APPLICATION_PROTOCOL_DEFINITION ( 'draft international standard', 'automotive_design', 1998, #187 ) ;
#278 = VERTEX_POINT ( 'NONE', #190 ) ;
#279 = ORIENTED_EDGE ( 'NONE', *, *, #234, .T. ) ;
#280 = DIRECTION ( 'NONE',  ( 1.000000000000000000, 6.997981709413449187E-17, 0.000000000000000000 ) ) ;
#281 = FILL_AREA_STYLE_COLOUR ( '', #290 ) ;
#282 = ADVANCED_BREP_SHAPE_REPRESENTATION ( '44242', ( #120, #27, #53 ), #153 ) ;
#283 = CARTESIAN_POINT ( 'NONE',  ( 0.000000000000000000, 1.250000000000000000, 0.000000000000000000 ) ) ;
#284 = ORIENTED_EDGE ( 'NONE', *, *, #234, .F. ) ;
#285 = PRODUCT_DEFINITION_CONTEXT ( 'detailed design', #187, 'design' ) ;
#286 = EDGE_CURVE ( 'NONE', #200, #8, #264, .T. ) ;
#287 = PRESENTATION_STYLE_ASSIGNMENT (( #160 ) ) ;
#288 = FILL_AREA_STYLE ('',( #54 ) ) ;
#289 = DIRECTION ( 'NONE',  ( -0.000000000000000000, -1.000000000000000000, -0.000000000000000000 ) ) ;
#290 = COLOUR_RGB ( '',1.000000000000000000, 0.000000000000000000, 0.000000000000000000 ) ;
#291 = LINE ( 'NONE', #240, #19 ) ;
#292 = LENGTH_MEASURE_WITH_UNIT ( LENGTH_MEASURE( 0.02539999999999999897 ), #265 );
#293 = VERTEX_POINT ( 'NONE', #196 ) ;
#294 = CARTESIAN_POINT ( 'NONE',  ( -1.224646799147353700E-16, 3.000000000000000444, 0.000000000000000000 ) ) ;
#295 = CARTESIAN_POINT ( 'NONE',  ( 0.000000000000000000, 1.250000000000000000, 0.000000000000000000 ) ) ;
#296 = AXIS2_PLACEMENT_3D ( 'NONE', #130, #154, #250 ) ;
#297 = PRESENTATION_LAYER_ASSIGNMENT (  '', '', ( #254 ) ) ;
#298 =( NAMED_UNIT ( * ) SI_UNIT ( $, .STERADIAN. ) SOLID_ANGLE_UNIT ( ) );
#299 = CARTESIAN_POINT ( 'NONE',  ( 0.000000000000000000, 0.000000000000000000, -0.1875000000000000555 ) ) ;
#300 = CARTESIAN_POINT ( 'NONE',  ( 0.000000000000000000, 0.000000000000000000, 0.000000000000000000 ) ) ;
#301 = CARTESIAN_POINT ( 'NONE',  ( 0.000000000000000000, 0.000000000000000000, 0.000000000000000000 ) ) ;
#302 = SURFACE_STYLE_FILL_AREA ( #198 ) ;
#303 = DIMENSIONAL_EXPONENTS ( 1.000000000000000000, 0.000000000000000000, 0.000000000000000000, 0.000000000000000000, 0.000000000000000000, 0.000000000000000000, 0.000000000000000000 ) ;
#304 = CIRCLE ( 'NONE', #30, 0.1875000000000000555 ) ;
#305 = PRODUCT_RELATED_PRODUCT_CATEGORY ( 'part', '', ( #26 ) ) ;
#306 = DIMENSIONAL_EXPONENTS ( 1.000000000000000000, 0.000000000000000000, 0.000000000000000000, 0.000000000000000000, 0.000000000000000000, 0.000000000000000000, 0.000000000000000000 ) ;
#307 = STYLED_ITEM ( 'NONE', ( #143 ), #27 ) ;
#308 = MECHANICAL_DESIGN_GEOMETRIC_PRESENTATION_REPRESENTATION (  '', ( #254 ), #175 ) ;
#309 = ORIENTED_EDGE ( 'NONE', *, *, #286, .T. ) ;
ENDSEC;
END-ISO-10303-21;
