ISO-10303-21;
HEADER;
FILE_DESCRIPTION (( 'STEP AP214' ),
    '1' );
FILE_NAME ('Micro_DM-250-4120X.STEP',
    '2021-09-02T16:01:34',
    ( '' ),
    ( '' ),
    'SwSTEP 2.0',
    'SolidWorks 2020',
    '' );
FILE_SCHEMA (( 'AUTOMOTIVE_DESIGN' ));
ENDSEC;

DATA;
#1 = CONICAL_SURFACE ( 'NONE', #115, 0.007499999999999999722, 1.047197551196600518 ) ;
#2 = APPLICATION_PROTOCOL_DEFINITION ( 'draft international standard', 'automotive_design', 1998, #107 ) ;
#3 = CYLINDRICAL_SURFACE ( 'NONE', #52, 0.1250000000000000000 ) ;
#4 = VECTOR ( 'NONE', #85, 39.37007874015748143 ) ;
#5 = DIRECTION ( 'NONE',  ( -0.0000000000000000000, -0.0000000000000000000, -1.000000000000000000 ) ) ;
#6 = DIRECTION ( 'NONE',  ( 0.0000000000000000000, 0.0000000000000000000, 1.000000000000000000 ) ) ;
#7 = COLOUR_RGB ( '',0.7921568627450980005, 0.8196078431372548767, 0.9333333333333333481 ) ;
#8 = ORIENTED_EDGE ( 'NONE', *, *, #28, .T. ) ;
#9 = EDGE_LOOP ( 'NONE', ( #319, #43 ) ) ;
#10 = ADVANCED_FACE ( 'NONE', ( #143 ), #74, .T. ) ;
#11 = FACE_OUTER_BOUND ( 'NONE', #268, .T. ) ;
#12 = APPLICATION_PROTOCOL_DEFINITION ( 'draft international standard', 'automotive_design', 1998, #181 ) ;
#13 = CIRCLE ( 'NONE', #323, 0.1249500000000000194 ) ;
#14 = AXIS2_PLACEMENT_3D ( 'NONE', #317, #119, #16 ) ;
#15 = ORIENTED_EDGE ( 'NONE', *, *, #70, .T. ) ;
#16 = DIRECTION ( 'NONE',  ( -1.000000000000000000, 0.0000000000000000000, 0.0000000000000000000 ) ) ;
#17 = ADVANCED_FACE ( 'NONE', ( #72, #170 ), #45, .T. ) ;
#18 = CARTESIAN_POINT ( 'NONE',  ( 0.0000000000000000000, 0.0000000000000000000, 0.0000000000000000000 ) ) ;
#19 = UNCERTAINTY_MEASURE_WITH_UNIT (LENGTH_MEASURE( 1.000000000000000082E-05 ), #215, 'distance_accuracy_value', 'NONE');
#20 = CARTESIAN_POINT ( 'NONE',  ( -0.1249500000000000610, 0.0000000000000000000, 0.0000000000000000000 ) ) ;
#21 = CIRCLE ( 'NONE', #190, 0.007499999999999999722 ) ;
#22 = DIRECTION ( 'NONE',  ( -0.8660254037844400399, 1.060575238724908640E-16, 0.4999999999999976685 ) ) ;
#23 = LENGTH_MEASURE_WITH_UNIT ( LENGTH_MEASURE( 0.02539999999999999897 ), #235 );
#24 = ORIENTED_EDGE ( 'NONE', *, *, #155, .F. ) ;
#25 = ADVANCED_FACE ( 'NONE', ( #84 ), #3, .T. ) ;
#26 = AXIS2_PLACEMENT_3D ( 'NONE', #53, #123, #50 ) ;
#27 = MECHANICAL_DESIGN_GEOMETRIC_PRESENTATION_REPRESENTATION (  '', ( #208 ), #195 ) ;
#28 = EDGE_CURVE ( 'NONE', #101, #192, #120, .T. ) ;
#29 = DIRECTION ( 'NONE',  ( 1.000000000000000000, 0.0000000000000000000, -0.0000000000000000000 ) ) ;
#30 = ORIENTED_EDGE ( 'NONE', *, *, #70, .F. ) ;
#31 = EDGE_CURVE ( 'NONE', #301, #249, #164, .T. ) ;
#32 = DIRECTION ( 'NONE',  ( -0.0000000000000000000, -0.0000000000000000000, -1.000000000000000000 ) ) ;
#33 = CARTESIAN_POINT ( 'NONE',  ( 0.0000000000000000000, 0.0000000000000000000, 0.06780978911632114248 ) ) ;
#34 = ORIENTED_EDGE ( 'NONE', *, *, #92, .F. ) ;
#35 = ORIENTED_EDGE ( 'NONE', *, *, #169, .T. ) ;
#36 = ORIENTED_EDGE ( 'NONE', *, *, #160, .T. ) ;
#37 = ADVANCED_FACE ( 'NONE', ( #148 ), #103, .F. ) ;
#38 = AXIS2_PLACEMENT_3D ( 'NONE', #263, #131, #232 ) ;
#39 = MECHANICAL_DESIGN_GEOMETRIC_PRESENTATION_REPRESENTATION (  '', ( #186 ), #108 ) ;
#40 = SHAPE_DEFINITION_REPRESENTATION ( #147, #239 ) ;
#41 = ORIENTED_EDGE ( 'NONE', *, *, #44, .F. ) ;
#42 = DIRECTION ( 'NONE',  ( -0.0000000000000000000, -0.0000000000000000000, -1.000000000000000000 ) ) ;
#43 = ORIENTED_EDGE ( 'NONE', *, *, #187, .T. ) ;
#44 = EDGE_CURVE ( 'NONE', #117, #99, #244, .T. ) ;
#45 = PLANE ( 'NONE',  #145 ) ;
#46 = AXIS2_PLACEMENT_3D ( 'NONE', #315, #300, #96 ) ;
#47 = PRODUCT_CONTEXT ( 'NONE', #107, 'mechanical' ) ;
#48 = ORIENTED_EDGE ( 'NONE', *, *, #326, .F. ) ;
#49 = CARTESIAN_POINT ( 'NONE',  ( 0.1250000000000000000, 1.530808498934191509E-17, 2.500000000000000000 ) ) ;
#50 = DIRECTION ( 'NONE',  ( -1.000000000000000000, 0.0000000000000000000, 0.0000000000000000000 ) ) ;
#51 = CARTESIAN_POINT ( 'NONE',  ( 0.1100000000000001948, 1.347111479062090784E-17, 2.500000000000000000 ) ) ;
#52 = AXIS2_PLACEMENT_3D ( 'NONE', #295, #227, #150 ) ;
#53 = CARTESIAN_POINT ( 'NONE',  ( 0.0000000000000000000, 0.0000000000000000000, 1.707404996040164512E-17 ) ) ;
#54 = SURFACE_SIDE_STYLE ('',( #243 ) ) ;
#55 = EDGE_CURVE ( 'NONE', #140, #301, #257, .T. ) ;
#56 = DIRECTION ( 'NONE',  ( 1.000000000000000000, 0.0000000000000000000, 0.0000000000000000000 ) ) ;
#57 = EDGE_CURVE ( 'NONE', #99, #222, #230, .T. ) ;
#58 = CARTESIAN_POINT ( 'NONE',  ( 0.0000000000000000000, 0.0000000000000000000, 1.707404996040164512E-17 ) ) ;
#59 = AXIS2_PLACEMENT_3D ( 'NONE', #327, #82, #75 ) ;
#60 = ADVANCED_FACE ( 'NONE', ( #202 ), #306, .T. ) ;
#61 = CARTESIAN_POINT ( 'NONE',  ( -0.1100000000000001948, 0.0000000000000000000, 2.500000000000000000 ) ) ;
#62 = CIRCLE ( 'NONE', #251, 0.1100000000000001948 ) ;
#63 = CARTESIAN_POINT ( 'NONE',  ( 0.1249500000000000333, 0.0000000000000000000, 0.06780978911632114248 ) ) ;
#64 = ORIENTED_EDGE ( 'NONE', *, *, #135, .T. ) ;
#65 = EDGE_LOOP ( 'NONE', ( #214, #64, #272, #311 ) ) ;
#66 = EDGE_LOOP ( 'NONE', ( #35, #8 ) ) ;
#67 = ORIENTED_EDGE ( 'NONE', *, *, #169, .F. ) ;
#68 = CYLINDRICAL_SURFACE ( 'NONE', #297, 0.1249500000000000610 ) ;
#69 = ORIENTED_EDGE ( 'NONE', *, *, #146, .T. ) ;
#70 = EDGE_CURVE ( 'NONE', #249, #101, #78, .T. ) ;
#71 = CARTESIAN_POINT ( 'NONE',  ( 0.0000000000000000000, 0.0000000000000000000, 0.0000000000000000000 ) ) ;
#72 = FACE_BOUND ( 'NONE', #213, .T. ) ;
#73 = ORIENTED_EDGE ( 'NONE', *, *, #187, .F. ) ;
#74 = CONICAL_SURFACE ( 'NONE', #46, 0.1100000000000001948, 0.7853981633974517207 ) ;
#75 = DIRECTION ( 'NONE',  ( -1.000000000000000000, 0.0000000000000000000, 0.0000000000000000000 ) ) ;
#76 = DIRECTION ( 'NONE',  ( -1.000000000000000000, 0.0000000000000000000, 0.0000000000000000000 ) ) ;
#77 = EDGE_CURVE ( 'NONE', #194, #222, #105, .T. ) ;
#78 = LINE ( 'NONE', #49, #4 ) ;
#79 = EDGE_CURVE ( 'NONE', #194, #100, #154, .T. ) ;
#80 = FILL_AREA_STYLE ('',( #260 ) ) ;
#81 = CARTESIAN_POINT ( 'NONE',  ( 0.0000000000000000000, 0.0000000000000000000, 2.485000000000000320 ) ) ;
#82 = DIRECTION ( 'NONE',  ( -0.0000000000000000000, -0.0000000000000000000, -1.000000000000000000 ) ) ;
#83 = AXIS2_PLACEMENT_3D ( 'NONE', #291, #5, #91 ) ;
#84 = FACE_OUTER_BOUND ( 'NONE', #114, .T. ) ;
#85 = DIRECTION ( 'NONE',  ( -0.0000000000000000000, -0.0000000000000000000, -1.000000000000000000 ) ) ;
#86 = FACE_OUTER_BOUND ( 'NONE', #193, .T. ) ;
#87 = CARTESIAN_POINT ( 'NONE',  ( 0.0000000000000000000, 0.0000000000000000000, 0.0000000000000000000 ) ) ;
#88 =( NAMED_UNIT ( * ) PLANE_ANGLE_UNIT ( ) SI_UNIT ( $, .RADIAN. ) );
#89 = FACE_OUTER_BOUND ( 'NONE', #65, .T. ) ;
#90 = VECTOR ( 'NONE', #289, 39.37007874015748143 ) ;
#91 = DIRECTION ( 'NONE',  ( -1.000000000000000000, 0.0000000000000000000, 0.0000000000000000000 ) ) ;
#92 = EDGE_CURVE ( 'NONE', #249, #301, #212, .T. ) ;
#93 = CARTESIAN_POINT ( 'NONE',  ( 0.0000000000000000000, 0.0000000000000000000, 0.7499999999999998890 ) ) ;
#94 = CIRCLE ( 'NONE', #83, 0.1249500000000001027 ) ;
#95 = ADVANCED_FACE ( 'NONE', ( #106 ), #1, .T. ) ;
#96 = DIRECTION ( 'NONE',  ( -1.000000000000000000, 0.0000000000000000000, 0.0000000000000000000 ) ) ;
#97 = AXIS2_PLACEMENT_3D ( 'NONE', #275, #253, #122 ) ;
#98 = ORIENTED_EDGE ( 'NONE', *, *, #309, .F. ) ;
#99 = VERTEX_POINT ( 'NONE', #229 ) ;
#100 = VERTEX_POINT ( 'NONE', #196 ) ;
#101 = VERTEX_POINT ( 'NONE', #304 ) ;
#102 = ORIENTED_EDGE ( 'NONE', *, *, #155, .T. ) ;
#103 = PLANE ( 'NONE',  #283 ) ;
#104 = VECTOR ( 'NONE', #22, 39.37007874015748143 ) ;
#105 = LINE ( 'NONE', #20, #310 ) ;
#106 = FACE_OUTER_BOUND ( 'NONE', #246, .T. ) ;
#107 = APPLICATION_CONTEXT ( 'automotive_design' ) ;
#108 =( GEOMETRIC_REPRESENTATION_CONTEXT ( 3 ) GLOBAL_UNCERTAINTY_ASSIGNED_CONTEXT ( ( #292 ) ) GLOBAL_UNIT_ASSIGNED_CONTEXT ( ( #328, #151, #233 ) ) REPRESENTATION_CONTEXT ( 'NONE', 'WORKASPACE' ) );
#109 = DIRECTION ( 'NONE',  ( 1.000000000000000000, 0.0000000000000000000, 0.0000000000000000000 ) ) ;
#110 = CIRCLE ( 'NONE', #201, 0.1250000000000000000 ) ;
#111 = ORIENTED_EDGE ( 'NONE', *, *, #242, .T. ) ;
#112 = CARTESIAN_POINT ( 'NONE',  ( 0.0000000000000000000, 0.0000000000000000000, 2.500000000000000000 ) ) ;
#113 = CARTESIAN_POINT ( 'NONE',  ( 0.0000000000000000000, 0.0000000000000000000, 2.500000000000000000 ) ) ;
#114 = EDGE_LOOP ( 'NONE', ( #30, #294, #69, #168 ) ) ;
#115 = AXIS2_PLACEMENT_3D ( 'NONE', #199, #223, #277 ) ;
#116 = PRESENTATION_LAYER_ASSIGNMENT (  '', '', ( #208 ) ) ;
#117 = VERTEX_POINT ( 'NONE', #180 ) ;
#118 = EDGE_LOOP ( 'NONE', ( #265, #102, #293, #269 ) ) ;
#119 = DIRECTION ( 'NONE',  ( 0.0000000000000000000, 0.0000000000000000000, -1.000000000000000000 ) ) ;
#120 = CIRCLE ( 'NONE', #59, 0.1250000000000000000 ) ;
#121 = PRODUCT ( 'Micro_DM-250-4120X', 'Micro_DM-250-4120X', '', ( #47 ) ) ;
#122 = DIRECTION ( 'NONE',  ( -1.000000000000000000, 0.0000000000000000000, 0.0000000000000000000 ) ) ;
#123 = DIRECTION ( 'NONE',  ( -0.0000000000000000000, -0.0000000000000000000, -1.000000000000000000 ) ) ;
#124 = CARTESIAN_POINT ( 'NONE',  ( 0.0000000000000000000, 0.0000000000000000000, 2.500000000000000000 ) ) ;
#125 = CARTESIAN_POINT ( 'NONE',  ( -0.1100000000000001948, 0.0000000000000000000, 2.500000000000000000 ) ) ;
#126 = SURFACE_SIDE_STYLE ('',( #156 ) ) ;
#127 = EDGE_CURVE ( 'NONE', #299, #249, #281, .T. ) ;
#128 = DIRECTION ( 'NONE',  ( -0.0000000000000000000, -0.0000000000000000000, -1.000000000000000000 ) ) ;
#129 = DIRECTION ( 'NONE',  ( -0.7071067811865499042, 0.0000000000000000000, -0.7071067811865451302 ) ) ;
#130 = PRODUCT_DEFINITION ( 'UNKNOWN', '', #173, #303 ) ;
#131 = DIRECTION ( 'NONE',  ( -0.0000000000000000000, -0.0000000000000000000, -1.000000000000000000 ) ) ;
#132 = ORIENTED_EDGE ( 'NONE', *, *, #79, .F. ) ;
#133 = CYLINDRICAL_SURFACE ( 'NONE', #234, 0.1250000000000000000 ) ;
#134 = AXIS2_PLACEMENT_3D ( 'NONE', #81, #225, #179 ) ;
#135 = EDGE_CURVE ( 'NONE', #100, #177, #188, .T. ) ;
#136 = VECTOR ( 'NONE', #178, 39.37007874015748143 ) ;
#137 = DIRECTION ( 'NONE',  ( -1.000000000000000000, 0.0000000000000000000, 0.0000000000000000000 ) ) ;
#138 = FILL_AREA_STYLE ('',( #167 ) ) ;
#139 = ORIENTED_EDGE ( 'NONE', *, *, #248, .T. ) ;
#140 = VERTEX_POINT ( 'NONE', #61 ) ;
#141 = VECTOR ( 'NONE', #32, 39.37007874015748143 ) ;
#142 = ORIENTED_EDGE ( 'NONE', *, *, #57, .F. ) ;
#143 = FACE_OUTER_BOUND ( 'NONE', #161, .T. ) ;
#144 = CARTESIAN_POINT ( 'NONE',  ( 0.1249500000000001027, 0.0000000000000000000, 0.7500000000000001110 ) ) ;
#145 = AXIS2_PLACEMENT_3D ( 'NONE', #144, #250, #220 ) ;
#146 = EDGE_CURVE ( 'NONE', #301, #192, #312, .T. ) ;
#147 = PRODUCT_DEFINITION_SHAPE ( 'NONE', 'NONE',  #130 ) ;
#148 = FACE_OUTER_BOUND ( 'NONE', #321, .T. ) ;
#149 = SURFACE_STYLE_USAGE ( .BOTH. , #126 ) ;
#150 = DIRECTION ( 'NONE',  ( -1.000000000000000000, 0.0000000000000000000, 0.0000000000000000000 ) ) ;
#151 =( NAMED_UNIT ( * ) PLANE_ANGLE_UNIT ( ) SI_UNIT ( $, .RADIAN. ) );
#152 = DIRECTION ( 'NONE',  ( -0.0000000000000000000, -0.0000000000000000000, -1.000000000000000000 ) ) ;
#153 = DIRECTION ( 'NONE',  ( 0.0000000000000000000, 0.0000000000000000000, 1.000000000000000000 ) ) ;
#154 = CIRCLE ( 'NONE', #97, 0.1249500000000001027 ) ;
#155 = EDGE_CURVE ( 'NONE', #100, #194, #94, .T. ) ;
#156 = SURFACE_STYLE_FILL_AREA ( #80 ) ;
#157 = DIRECTION ( 'NONE',  ( 0.7071067811865499042, 8.659560562354961208E-17, -0.7071067811865451302 ) ) ;
#158 = DIMENSIONAL_EXPONENTS ( 1.000000000000000000, 0.0000000000000000000, 0.0000000000000000000, 0.0000000000000000000, 0.0000000000000000000, 0.0000000000000000000, 0.0000000000000000000 ) ;
#159 = DIRECTION ( 'NONE',  ( 0.0000000000000000000, 0.0000000000000000000, 1.000000000000000000 ) ) ;
#160 = EDGE_CURVE ( 'NONE', #177, #222, #13, .T. ) ;
#161 = EDGE_LOOP ( 'NONE', ( #73, #320, #171, #216 ) ) ;
#162 = CARTESIAN_POINT ( 'NONE',  ( -0.1250000000000000000, 0.0000000000000000000, 0.7499999999999998890 ) ) ;
#163 = CARTESIAN_POINT ( 'NONE',  ( -0.1250000000000000000, 0.0000000000000000000, 2.500000000000000000 ) ) ;
#164 = CIRCLE ( 'NONE', #316, 0.1250000000000000000 ) ;
#165 = CARTESIAN_POINT ( 'NONE',  ( 0.1249500000000000610, 1.530196175534618635E-17, 0.0000000000000000000 ) ) ;
#166 = ORIENTED_EDGE ( 'NONE', *, *, #127, .F. ) ;
#167 = FILL_AREA_STYLE_COLOUR ( '', #314 ) ;
#168 = ORIENTED_EDGE ( 'NONE', *, *, #28, .F. ) ;
#169 = EDGE_CURVE ( 'NONE', #192, #101, #110, .T. ) ;
#170 = FACE_OUTER_BOUND ( 'NONE', #66, .T. ) ;
#171 = ORIENTED_EDGE ( 'NONE', *, *, #31, .F. ) ;
#172 = ORIENTED_EDGE ( 'NONE', *, *, #57, .T. ) ;
#173 = PRODUCT_DEFINITION_FORMATION_WITH_SPECIFIED_SOURCE ( 'ANY', '', #121, .NOT_KNOWN. ) ;
#174 = DIRECTION ( 'NONE',  ( 1.000000000000000000, 0.0000000000000000000, 0.0000000000000000000 ) ) ;
#175 =( NAMED_UNIT ( * ) PLANE_ANGLE_UNIT ( ) SI_UNIT ( $, .RADIAN. ) );
#176 = DIRECTION ( 'NONE',  ( -0.0000000000000000000, -0.0000000000000000000, -1.000000000000000000 ) ) ;
#177 = VERTEX_POINT ( 'NONE', #63 ) ;
#178 = DIRECTION ( 'NONE',  ( 0.8660254037844400399, 0.0000000000000000000, 0.4999999999999976685 ) ) ;
#179 = DIRECTION ( 'NONE',  ( 1.000000000000000000, 0.0000000000000000000, 0.0000000000000000000 ) ) ;
#180 = CARTESIAN_POINT ( 'NONE',  ( 0.007499999999999999722, 0.0000000000000000000, 1.707404996040164512E-17 ) ) ;
#181 = APPLICATION_CONTEXT ( 'automotive_design' ) ;
#182 = CIRCLE ( 'NONE', #324, 0.1100000000000001948 ) ;
#183 = DIRECTION ( 'NONE',  ( -0.0000000000000000000, -0.0000000000000000000, -1.000000000000000000 ) ) ;
#184 = DIRECTION ( 'NONE',  ( -1.000000000000000000, 0.0000000000000000000, 0.0000000000000000000 ) ) ;
#185 = CONICAL_SURFACE ( 'NONE', #290, 0.007499999999999999722, 1.047197551196600518 ) ;
#186 = STYLED_ITEM ( 'NONE', ( #240 ), #279 ) ;
#187 = EDGE_CURVE ( 'NONE', #299, #140, #62, .T. ) ;
#188 = LINE ( 'NONE', #165, #90 ) ;
#189 = DIRECTION ( 'NONE',  ( -1.000000000000000000, 0.0000000000000000000, 0.0000000000000000000 ) ) ;
#190 = AXIS2_PLACEMENT_3D ( 'NONE', #329, #183, #184 ) ;
#191 =( LENGTH_UNIT ( ) NAMED_UNIT ( * ) SI_UNIT ( $, .METRE. ) );
#192 = VERTEX_POINT ( 'NONE', #162 ) ;
#193 = EDGE_LOOP ( 'NONE', ( #142, #41, #298, #36 ) ) ;
#194 = VERTEX_POINT ( 'NONE', #266 ) ;
#195 =( GEOMETRIC_REPRESENTATION_CONTEXT ( 3 ) GLOBAL_UNCERTAINTY_ASSIGNED_CONTEXT ( ( #19 ) ) GLOBAL_UNIT_ASSIGNED_CONTEXT ( ( #215, #175, #252 ) ) REPRESENTATION_CONTEXT ( 'NONE', 'WORKASPACE' ) );
#196 = CARTESIAN_POINT ( 'NONE',  ( 0.1249500000000001027, 1.530196175534619251E-17, 0.7500000000000001110 ) ) ;
#197 = ADVANCED_FACE ( 'NONE', ( #209 ), #133, .T. ) ;
#198 = CARTESIAN_POINT ( 'NONE',  ( -0.1250000000000000000, 0.0000000000000000000, 2.485000000000000320 ) ) ;
#199 = CARTESIAN_POINT ( 'NONE',  ( 0.0000000000000000000, 0.0000000000000000000, 1.707404996040164512E-17 ) ) ;
#200 = PLANE ( 'NONE',  #302 ) ;
#201 = AXIS2_PLACEMENT_3D ( 'NONE', #93, #241, #189 ) ;
#202 = FACE_OUTER_BOUND ( 'NONE', #118, .T. ) ;
#203 = ADVANCED_FACE ( 'NONE', ( #205 ), #200, .T. ) ;
#204 = ADVANCED_FACE ( 'NONE', ( #86 ), #185, .T. ) ;
#205 = FACE_OUTER_BOUND ( 'NONE', #9, .T. ) ;
#206 = CARTESIAN_POINT ( 'NONE',  ( -0.1249500000000000333, 1.530196175534618327E-17, 0.06780978911632114248 ) ) ;
#207 = CONICAL_SURFACE ( 'NONE', #14, 0.1100000000000001948, 0.7853981633974517207 ) ;
#208 = STYLED_ITEM ( 'NONE', ( #318 ), #239 ) ;
#209 = FACE_OUTER_BOUND ( 'NONE', #245, .T. ) ;
#210 = SURFACE_STYLE_USAGE ( .BOTH. , #54 ) ;
#211 = CLOSED_SHELL ( 'NONE', ( #261, #95, #10, #197, #25, #203, #267, #17, #204, #60, #37 ) ) ;
#212 = CIRCLE ( 'NONE', #134, 0.1250000000000000000 ) ;
#213 = EDGE_LOOP ( 'NONE', ( #132, #24 ) ) ;
#214 = ORIENTED_EDGE ( 'NONE', *, *, #79, .T. ) ;
#215 =( CONVERSION_BASED_UNIT ( 'INCH', #218 ) LENGTH_UNIT ( ) NAMED_UNIT ( #158 ) );
#216 = ORIENTED_EDGE ( 'NONE', *, *, #55, .F. ) ;
#217 = CARTESIAN_POINT ( 'NONE',  ( 0.0000000000000000000, 0.0000000000000000000, 0.0000000000000000000 ) ) ;
#218 = LENGTH_MEASURE_WITH_UNIT ( LENGTH_MEASURE( 0.02539999999999999897 ), #191 );
#219 = AXIS2_PLACEMENT_3D ( 'NONE', #71, #322, #296 ) ;
#220 = DIRECTION ( 'NONE',  ( -1.000000000000000000, 0.0000000000000000000, 0.0000000000000000000 ) ) ;
#221 = ORIENTED_EDGE ( 'NONE', *, *, #248, .F. ) ;
#222 = VERTEX_POINT ( 'NONE', #206 ) ;
#223 = DIRECTION ( 'NONE',  ( 0.0000000000000000000, 0.0000000000000000000, 1.000000000000000000 ) ) ;
#224 = DIRECTION ( 'NONE',  ( 0.0000000000000000000, 0.0000000000000000000, -1.000000000000000000 ) ) ;
#225 = DIRECTION ( 'NONE',  ( 0.0000000000000000000, 0.0000000000000000000, -1.000000000000000000 ) ) ;
#226 =( GEOMETRIC_REPRESENTATION_CONTEXT ( 3 ) GLOBAL_UNCERTAINTY_ASSIGNED_CONTEXT ( ( #236 ) ) GLOBAL_UNIT_ASSIGNED_CONTEXT ( ( #255, #88, #285 ) ) REPRESENTATION_CONTEXT ( 'NONE', 'WORKASPACE' ) );
#227 = DIRECTION ( 'NONE',  ( -0.0000000000000000000, -0.0000000000000000000, -1.000000000000000000 ) ) ;
#228 = PRODUCT_RELATED_PRODUCT_CATEGORY ( 'part', '', ( #121 ) ) ;
#229 = CARTESIAN_POINT ( 'NONE',  ( -0.007499999999999999722, 8.110223427353346529E-18, 1.707404996040164512E-17 ) ) ;
#230 = LINE ( 'NONE', #259, #104 ) ;
#231 = DIMENSIONAL_EXPONENTS ( 1.000000000000000000, 0.0000000000000000000, 0.0000000000000000000, 0.0000000000000000000, 0.0000000000000000000, 0.0000000000000000000, 0.0000000000000000000 ) ;
#232 = DIRECTION ( 'NONE',  ( -1.000000000000000000, 0.0000000000000000000, 0.0000000000000000000 ) ) ;
#233 =( NAMED_UNIT ( * ) SI_UNIT ( $, .STERADIAN. ) SOLID_ANGLE_UNIT ( ) );
#234 = AXIS2_PLACEMENT_3D ( 'NONE', #113, #128, #264 ) ;
#235 =( LENGTH_UNIT ( ) NAMED_UNIT ( * ) SI_UNIT ( $, .METRE. ) );
#236 = UNCERTAINTY_MEASURE_WITH_UNIT (LENGTH_MEASURE( 1.000000000000000082E-05 ), #255, 'distance_accuracy_value', 'NONE');
#237 = CIRCLE ( 'NONE', #38, 0.1249500000000000194 ) ;
#238 = DIRECTION ( 'NONE',  ( 1.000000000000000000, 0.0000000000000000000, 0.0000000000000000000 ) ) ;
#239 = ADVANCED_BREP_SHAPE_REPRESENTATION ( 'Micro_DM-250-4120X', ( #279, #219 ), #226 ) ;
#240 = PRESENTATION_STYLE_ASSIGNMENT (( #210 ) ) ;
#241 = DIRECTION ( 'NONE',  ( -0.0000000000000000000, -0.0000000000000000000, -1.000000000000000000 ) ) ;
#242 = EDGE_CURVE ( 'NONE', #222, #177, #237, .T. ) ;
#243 = SURFACE_STYLE_FILL_AREA ( #138 ) ;
#244 = CIRCLE ( 'NONE', #26, 0.007499999999999999722 ) ;
#245 = EDGE_LOOP ( 'NONE', ( #270, #15, #67, #273 ) ) ;
#246 = EDGE_LOOP ( 'NONE', ( #221, #172, #111, #98 ) ) ;
#247 = DIRECTION ( 'NONE',  ( -1.000000000000000000, 0.0000000000000000000, 0.0000000000000000000 ) ) ;
#248 = EDGE_CURVE ( 'NONE', #99, #117, #21, .T. ) ;
#249 = VERTEX_POINT ( 'NONE', #286 ) ;
#250 = DIRECTION ( 'NONE',  ( -0.0000000000000000000, 0.0000000000000000000, -1.000000000000000000 ) ) ;
#251 = AXIS2_PLACEMENT_3D ( 'NONE', #112, #6, #238 ) ;
#252 =( NAMED_UNIT ( * ) SI_UNIT ( $, .STERADIAN. ) SOLID_ANGLE_UNIT ( ) );
#253 = DIRECTION ( 'NONE',  ( -0.0000000000000000000, -0.0000000000000000000, -1.000000000000000000 ) ) ;
#254 = CARTESIAN_POINT ( 'NONE',  ( 0.0000000000000000000, 0.0000000000000000000, 2.485000000000000320 ) ) ;
#255 =( CONVERSION_BASED_UNIT ( 'INCH', #307 ) LENGTH_UNIT ( ) NAMED_UNIT ( #258 ) );
#256 = AXIS2_PLACEMENT_3D ( 'NONE', #87, #152, #76 ) ;
#257 = LINE ( 'NONE', #125, #282 ) ;
#258 = DIMENSIONAL_EXPONENTS ( 1.000000000000000000, 0.0000000000000000000, 0.0000000000000000000, 0.0000000000000000000, 0.0000000000000000000, 0.0000000000000000000, 0.0000000000000000000 ) ;
#259 = CARTESIAN_POINT ( 'NONE',  ( -0.007499999999999999722, 9.184850993605147975E-19, 1.707404996040164512E-17 ) ) ;
#260 = FILL_AREA_STYLE_COLOUR ( '', #7 ) ;
#261 = ADVANCED_FACE ( 'NONE', ( #89 ), #68, .T. ) ;
#262 = DIRECTION ( 'NONE',  ( 0.0000000000000000000, 0.0000000000000000000, 1.000000000000000000 ) ) ;
#263 = CARTESIAN_POINT ( 'NONE',  ( 0.0000000000000000000, 0.0000000000000000000, 0.06780978911632114248 ) ) ;
#264 = DIRECTION ( 'NONE',  ( -1.000000000000000000, 0.0000000000000000000, 0.0000000000000000000 ) ) ;
#265 = ORIENTED_EDGE ( 'NONE', *, *, #135, .F. ) ;
#266 = CARTESIAN_POINT ( 'NONE',  ( -0.1249500000000001027, 0.0000000000000000000, 0.7500000000000001110 ) ) ;
#267 = ADVANCED_FACE ( 'NONE', ( #11 ), #207, .T. ) ;
#268 = EDGE_LOOP ( 'NONE', ( #166, #48, #274, #34 ) ) ;
#269 = ORIENTED_EDGE ( 'NONE', *, *, #160, .F. ) ;
#270 = ORIENTED_EDGE ( 'NONE', *, *, #31, .T. ) ;
#271 = ORIENTED_EDGE ( 'NONE', *, *, #44, .T. ) ;
#272 = ORIENTED_EDGE ( 'NONE', *, *, #242, .F. ) ;
#273 = ORIENTED_EDGE ( 'NONE', *, *, #146, .F. ) ;
#274 = ORIENTED_EDGE ( 'NONE', *, *, #55, .T. ) ;
#275 = CARTESIAN_POINT ( 'NONE',  ( 0.0000000000000000000, 0.0000000000000000000, 0.7500000000000001110 ) ) ;
#276 = CARTESIAN_POINT ( 'NONE',  ( 0.007499999999999999722, 0.0000000000000000000, 1.707404996040164512E-17 ) ) ;
#277 = DIRECTION ( 'NONE',  ( 1.000000000000000000, 0.0000000000000000000, 0.0000000000000000000 ) ) ;
#278 = DIRECTION ( 'NONE',  ( 1.000000000000000000, 0.0000000000000000000, -0.0000000000000000000 ) ) ;
#279 = MANIFOLD_SOLID_BREP ( 'Cut-Revolve4', #211 ) ;
#280 = LINE ( 'NONE', #276, #136 ) ;
#281 = LINE ( 'NONE', #51, #288 ) ;
#282 = VECTOR ( 'NONE', #129, 39.37007874015748143 ) ;
#283 = AXIS2_PLACEMENT_3D ( 'NONE', #18, #153, #278 ) ;
#284 = PRESENTATION_LAYER_ASSIGNMENT (  '', '', ( #186 ) ) ;
#285 =( NAMED_UNIT ( * ) SI_UNIT ( $, .STERADIAN. ) SOLID_ANGLE_UNIT ( ) );
#286 = CARTESIAN_POINT ( 'NONE',  ( 0.1250000000000000000, 1.530808498934191509E-17, 2.485000000000000320 ) ) ;
#287 = DIRECTION ( 'NONE',  ( 0.0000000000000000000, 0.0000000000000000000, 1.000000000000000000 ) ) ;
#288 = VECTOR ( 'NONE', #157, 39.37007874015748143 ) ;
#289 = DIRECTION ( 'NONE',  ( -0.0000000000000000000, -0.0000000000000000000, -1.000000000000000000 ) ) ;
#290 = AXIS2_PLACEMENT_3D ( 'NONE', #58, #159, #109 ) ;
#291 = CARTESIAN_POINT ( 'NONE',  ( 0.0000000000000000000, 0.0000000000000000000, 0.7500000000000001110 ) ) ;
#292 = UNCERTAINTY_MEASURE_WITH_UNIT (LENGTH_MEASURE( 1.000000000000000082E-05 ), #328, 'distance_accuracy_value', 'NONE');
#293 = ORIENTED_EDGE ( 'NONE', *, *, #77, .T. ) ;
#294 = ORIENTED_EDGE ( 'NONE', *, *, #92, .T. ) ;
#295 = CARTESIAN_POINT ( 'NONE',  ( 0.0000000000000000000, 0.0000000000000000000, 2.500000000000000000 ) ) ;
#296 = DIRECTION ( 'NONE',  ( 1.000000000000000000, 0.0000000000000000000, 0.0000000000000000000 ) ) ;
#297 = AXIS2_PLACEMENT_3D ( 'NONE', #217, #42, #247 ) ;
#298 = ORIENTED_EDGE ( 'NONE', *, *, #309, .T. ) ;
#299 = VERTEX_POINT ( 'NONE', #325 ) ;
#300 = DIRECTION ( 'NONE',  ( 0.0000000000000000000, 0.0000000000000000000, -1.000000000000000000 ) ) ;
#301 = VERTEX_POINT ( 'NONE', #198 ) ;
#302 = AXIS2_PLACEMENT_3D ( 'NONE', #308, #287, #29 ) ;
#303 = PRODUCT_DEFINITION_CONTEXT ( 'detailed design', #181, 'design' ) ;
#304 = CARTESIAN_POINT ( 'NONE',  ( 0.1250000000000000000, 1.530808498934191509E-17, 0.7499999999999998890 ) ) ;
#305 =( LENGTH_UNIT ( ) NAMED_UNIT ( * ) SI_UNIT ( $, .METRE. ) );
#306 = CYLINDRICAL_SURFACE ( 'NONE', #256, 0.1249500000000000610 ) ;
#307 = LENGTH_MEASURE_WITH_UNIT ( LENGTH_MEASURE( 0.02539999999999999897 ), #305 );
#308 = CARTESIAN_POINT ( 'NONE',  ( 0.0000000000000000000, 0.0000000000000000000, 2.500000000000000000 ) ) ;
#309 = EDGE_CURVE ( 'NONE', #117, #177, #280, .T. ) ;
#310 = VECTOR ( 'NONE', #176, 39.37007874015748143 ) ;
#311 = ORIENTED_EDGE ( 'NONE', *, *, #77, .F. ) ;
#312 = LINE ( 'NONE', #163, #141 ) ;
#313 = DIRECTION ( 'NONE',  ( -0.0000000000000000000, -0.0000000000000000000, -1.000000000000000000 ) ) ;
#314 = COLOUR_RGB ( '',0.7921568627450980005, 0.8196078431372548767, 0.9333333333333333481 ) ;
#315 = CARTESIAN_POINT ( 'NONE',  ( 0.0000000000000000000, 0.0000000000000000000, 2.500000000000000000 ) ) ;
#316 = AXIS2_PLACEMENT_3D ( 'NONE', #254, #224, #174 ) ;
#317 = CARTESIAN_POINT ( 'NONE',  ( 0.0000000000000000000, 0.0000000000000000000, 2.500000000000000000 ) ) ;
#318 = PRESENTATION_STYLE_ASSIGNMENT (( #149 ) ) ;
#319 = ORIENTED_EDGE ( 'NONE', *, *, #326, .T. ) ;
#320 = ORIENTED_EDGE ( 'NONE', *, *, #127, .T. ) ;
#321 = EDGE_LOOP ( 'NONE', ( #271, #139 ) ) ;
#322 = DIRECTION ( 'NONE',  ( 0.0000000000000000000, 0.0000000000000000000, 1.000000000000000000 ) ) ;
#323 = AXIS2_PLACEMENT_3D ( 'NONE', #33, #313, #137 ) ;
#324 = AXIS2_PLACEMENT_3D ( 'NONE', #124, #262, #56 ) ;
#325 = CARTESIAN_POINT ( 'NONE',  ( 0.1100000000000001948, 1.438959988998141146E-17, 2.500000000000000000 ) ) ;
#326 = EDGE_CURVE ( 'NONE', #140, #299, #182, .T. ) ;
#327 = CARTESIAN_POINT ( 'NONE',  ( 0.0000000000000000000, 0.0000000000000000000, 0.7499999999999998890 ) ) ;
#328 =( CONVERSION_BASED_UNIT ( 'INCH', #23 ) LENGTH_UNIT ( ) NAMED_UNIT ( #231 ) );
#329 = CARTESIAN_POINT ( 'NONE',  ( 0.0000000000000000000, 0.0000000000000000000, 1.707404996040164512E-17 ) ) ;
ENDSEC;
END-ISO-10303-21;
