ISO-10303-21;
HEADER;
FILE_DESCRIPTION (( 'STEP AP214' ),
    '1' );
FILE_NAME ('06453.STEP',
    '2023-07-05T16:03:12',
    ( '' ),
    ( '' ),
    'SwSTEP 2.0',
    'SolidWorks 2023',
    '' );
FILE_SCHEMA (( 'AUTOMOTIVE_DESIGN' ));
ENDSEC;

DATA;
#1 = CARTESIAN_POINT ( 'NONE',  ( -6.123233995736766036E-17, 2.500000000000000000, 0.000000000000000000 ) ) ;
#2 = EDGE_CURVE ( 'NONE', #11, #151, #45, .T. ) ;
#3 =( GEOMETRIC_REPRESENTATION_CONTEXT ( 3 ) GLOBAL_UNCERTAINTY_ASSIGNED_CONTEXT ( ( #152 ) ) GLOBAL_UNIT_ASSIGNED_CONTEXT ( ( #81, #170, #228 ) ) REPRESENTATION_CONTEXT ( 'NONE', 'WORKASPACE' ) );
#4 =( GEOMETRIC_REPRESENTATION_CONTEXT ( 3 ) GLOBAL_UNCERTAINTY_ASSIGNED_CONTEXT ( ( #85 ) ) GLOBAL_UNIT_ASSIGNED_CONTEXT ( ( #220, #121, #17 ) ) REPRESENTATION_CONTEXT ( 'NONE', 'WORKASPACE' ) );
#5 = FILL_AREA_STYLE_COLOUR ( '', #234 ) ;
#6 =( CONVERSION_BASED_UNIT ( 'INCH', #157 ) LENGTH_UNIT ( ) NAMED_UNIT ( #139 ) );
#7 = FACE_OUTER_BOUND ( 'NONE', #218, .T. ) ;
#8 =( GEOMETRIC_REPRESENTATION_CONTEXT ( 3 ) GLOBAL_UNCERTAINTY_ASSIGNED_CONTEXT ( ( #210 ) ) GLOBAL_UNIT_ASSIGNED_CONTEXT ( ( #91, #249, #235 ) ) REPRESENTATION_CONTEXT ( 'NONE', 'WORKASPACE' ) );
#9 = SURFACE_STYLE_FILL_AREA ( #135 ) ;
#10 =( LENGTH_UNIT ( ) NAMED_UNIT ( * ) SI_UNIT ( $, .METRE. ) );
#11 = VERTEX_POINT ( 'NONE', #149 ) ;
#12 = VECTOR ( 'NONE', #66, 39.37007874015748143 ) ;
#13 = ORIENTED_EDGE ( 'NONE', *, *, #74, .F. ) ;
#14 = EDGE_CURVE ( 'NONE', #260, #58, #127, .T. ) ;
#15 = FACE_OUTER_BOUND ( 'NONE', #240, .T. ) ;
#16 = VERTEX_POINT ( 'NONE', #246 ) ;
#17 =( NAMED_UNIT ( * ) SI_UNIT ( $, .STERADIAN. ) SOLID_ANGLE_UNIT ( ) );
#18 = MECHANICAL_DESIGN_GEOMETRIC_PRESENTATION_REPRESENTATION (  '', ( #207 ), #8 ) ;
#19 = CARTESIAN_POINT ( 'NONE',  ( 2.859903368367275526E-16, 0.1082531754730542140, 0.000000000000000000 ) ) ;
#20 = APPLICATION_PROTOCOL_DEFINITION ( 'draft international standard', 'automotive_design', 1998, #108 ) ;
#21 = SURFACE_STYLE_FILL_AREA ( #144 ) ;
#22 = DIRECTION ( 'NONE',  ( -1.451753476719974375E-16, 1.000000000000000000, -0.000000000000000000 ) ) ;
#23 = CLOSED_SHELL ( 'NONE', ( #190, #145, #82 ) ) ;
#24 =( LENGTH_UNIT ( ) NAMED_UNIT ( * ) SI_UNIT ( $, .METRE. ) );
#25 = UNCERTAINTY_MEASURE_WITH_UNIT (LENGTH_MEASURE( 1.000000000000000082E-05 ), #6, 'distance_accuracy_value', 'NONE');
#26 =( GEOMETRIC_REPRESENTATION_CONTEXT ( 3 ) GLOBAL_UNCERTAINTY_ASSIGNED_CONTEXT ( ( #189 ) ) GLOBAL_UNIT_ASSIGNED_CONTEXT ( ( #55, #75, #37 ) ) REPRESENTATION_CONTEXT ( 'NONE', 'WORKASPACE' ) );
#27 = LINE ( 'NONE', #106, #183 ) ;
#28 = EDGE_CURVE ( 'NONE', #68, #78, #103, .T. ) ;
#29 = CARTESIAN_POINT ( 'NONE',  ( -6.123233995736766036E-17, 2.500000000000000000, 0.000000000000000000 ) ) ;
#30 = STYLED_ITEM ( 'NONE', ( #244 ), #86 ) ;
#31 =( LENGTH_UNIT ( ) NAMED_UNIT ( * ) SI_UNIT ( $, .METRE. ) );
#32 = DIRECTION ( 'NONE',  ( -1.000000000000000000, 0.000000000000000000, 0.000000000000000000 ) ) ;
#33 = STYLED_ITEM ( 'NONE', ( #107 ), #82 ) ;
#34 = EDGE_LOOP ( 'NONE', ( #61, #96, #181, #182 ) ) ;
#35 = FILL_AREA_STYLE ('',( #142 ) ) ;
#36 = ORIENTED_EDGE ( 'NONE', *, *, #87, .F. ) ;
#37 =( NAMED_UNIT ( * ) SI_UNIT ( $, .STERADIAN. ) SOLID_ANGLE_UNIT ( ) );
#38 = PRODUCT_DEFINITION ( 'UNKNOWN', '', #242, #211 ) ;
#39 = VECTOR ( 'NONE', #43, 39.37007874015748854 ) ;
#40 = ORIENTED_EDGE ( 'NONE', *, *, #2, .F. ) ;
#41 = CARTESIAN_POINT ( 'NONE',  ( -6.123233995736764803E-17, 2.500000000000000000, 0.000000000000000000 ) ) ;
#42 = AXIS2_PLACEMENT_3D ( 'NONE', #1, #214, #32 ) ;
#43 = DIRECTION ( 'NONE',  ( 0.000000000000000000, 0.4999999999999979461, 0.8660254037844397068 ) ) ;
#44 = ORIENTED_EDGE ( 'NONE', *, *, #14, .T. ) ;
#45 = CIRCLE ( 'NONE', #192, 0.1874999999999996947 ) ;
#46 = ORIENTED_EDGE ( 'NONE', *, *, #28, .T. ) ;
#47 = AXIS2_PLACEMENT_3D ( 'NONE', #163, #102, #254 ) ;
#48 = DIRECTION ( 'NONE',  ( -1.451753476719974375E-16, 1.000000000000000000, -0.000000000000000000 ) ) ;
#49 = DIRECTION ( 'NONE',  ( 0.000000000000000000, 0.000000000000000000, -1.000000000000000000 ) ) ;
#50 = PRESENTATION_LAYER_ASSIGNMENT (  '', '', ( #141 ) ) ;
#51 = DIRECTION ( 'NONE',  ( 1.000000000000000000, 1.451753476719974375E-16, 0.000000000000000000 ) ) ;
#52 = DIRECTION ( 'NONE',  ( -0.000000000000000000, -1.000000000000000000, -0.000000000000000000 ) ) ;
#53 = PRESENTATION_LAYER_ASSIGNMENT (  '', '', ( #33 ) ) ;
#54 = EDGE_CURVE ( 'NONE', #151, #68, #27, .T. ) ;
#55 =( CONVERSION_BASED_UNIT ( 'INCH', #223 ) LENGTH_UNIT ( ) NAMED_UNIT ( #57 ) );
#56 = DIRECTION ( 'NONE',  ( 0.000000000000000000, 0.000000000000000000, 1.000000000000000000 ) ) ;
#57 = DIMENSIONAL_EXPONENTS ( 1.000000000000000000, 0.000000000000000000, 0.000000000000000000, 0.000000000000000000, 0.000000000000000000, 0.000000000000000000, 0.000000000000000000 ) ;
#58 = VERTEX_POINT ( 'NONE', #226 ) ;
#59 = COLOUR_RGB ( '',0.7921568627450980005, 0.8196078431372548767, 0.9333333333333333481 ) ;
#60 =( LENGTH_UNIT ( ) NAMED_UNIT ( * ) SI_UNIT ( $, .METRE. ) );
#61 = ORIENTED_EDGE ( 'NONE', *, *, #143, .T. ) ;
#62 = CARTESIAN_POINT ( 'NONE',  ( 0.000000000000000000, 0.000000000000000000, 0.000000000000000000 ) ) ;
#63 = SURFACE_STYLE_FILL_AREA ( #146 ) ;
#64 = APPLICATION_PROTOCOL_DEFINITION ( 'draft international standard', 'automotive_design', 1998, #212 ) ;
#65 = AXIS2_PLACEMENT_3D ( 'NONE', #71, #48, #72 ) ;
#66 = DIRECTION ( 'NONE',  ( -1.451753476719974375E-16, 1.000000000000000000, -0.000000000000000000 ) ) ;
#67 = ORIENTED_EDGE ( 'NONE', *, *, #143, .F. ) ;
#68 = VERTEX_POINT ( 'NONE', #229 ) ;
#69 = EDGE_CURVE ( 'NONE', #78, #68, #117, .T. ) ;
#70 = FACE_OUTER_BOUND ( 'NONE', #34, .T. ) ;
#71 = CARTESIAN_POINT ( 'NONE',  ( 2.859903368367275526E-16, 0.1082531754730542140, 0.000000000000000000 ) ) ;
#72 = DIRECTION ( 'NONE',  ( -1.000000000000000000, -1.821231995776178437E-16, 0.000000000000000000 ) ) ;
#73 = DIMENSIONAL_EXPONENTS ( 1.000000000000000000, 0.000000000000000000, 0.000000000000000000, 0.000000000000000000, 0.000000000000000000, 0.000000000000000000, 0.000000000000000000 ) ;
#74 = EDGE_CURVE ( 'NONE', #11, #78, #168, .T. ) ;
#75 =( NAMED_UNIT ( * ) PLANE_ANGLE_UNIT ( ) SI_UNIT ( $, .RADIAN. ) );
#76 = DIMENSIONAL_EXPONENTS ( 1.000000000000000000, 0.000000000000000000, 0.000000000000000000, 0.000000000000000000, 0.000000000000000000, 0.000000000000000000, 0.000000000000000000 ) ;
#77 = ORIENTED_EDGE ( 'NONE', *, *, #83, .F. ) ;
#78 = VERTEX_POINT ( 'NONE', #265 ) ;
#79 = COLOUR_RGB ( '',0.7921568627450980005, 0.8196078431372548767, 0.9333333333333333481 ) ;
#80 = CARTESIAN_POINT ( 'NONE',  ( 0.000000000000000000, 0.000000000000000000, 0.000000000000000000 ) ) ;
#81 =( CONVERSION_BASED_UNIT ( 'INCH', #186 ) LENGTH_UNIT ( ) NAMED_UNIT ( #224 ) );
#82 = ADVANCED_FACE ( 'NONE', ( #263 ), #200, .T. ) ;
#83 = EDGE_CURVE ( 'NONE', #260, #16, #172, .T. ) ;
#84 = MECHANICAL_DESIGN_GEOMETRIC_PRESENTATION_REPRESENTATION (  '', ( #141 ), #26 ) ;
#85 = UNCERTAINTY_MEASURE_WITH_UNIT (LENGTH_MEASURE( 1.000000000000000082E-05 ), #220, 'distance_accuracy_value', 'NONE');
#86 = MANIFOLD_SOLID_BREP ( 'Revolve - Tool Body (Pointed)', #109 ) ;
#87 = EDGE_CURVE ( 'NONE', #58, #16, #137, .T. ) ;
#88 = ADVANCED_FACE ( 'NONE', ( #94 ), #155, .F. ) ;
#89 = AXIS2_PLACEMENT_3D ( 'NONE', #129, #22, #230 ) ;
#90 = CYLINDRICAL_SURFACE ( 'NONE', #42, 0.1874999999999998890 ) ;
#91 =( CONVERSION_BASED_UNIT ( 'INCH', #118 ) LENGTH_UNIT ( ) NAMED_UNIT ( #73 ) );
#92 = COLOUR_RGB ( '',1.000000000000000000, 0.000000000000000000, 0.000000000000000000 ) ;
#93 = AXIS2_PLACEMENT_3D ( 'NONE', #80, #105, #188 ) ;
#94 = FACE_OUTER_BOUND ( 'NONE', #164, .T. ) ;
#95 =( CONVERSION_BASED_UNIT ( 'INCH', #178 ) LENGTH_UNIT ( ) NAMED_UNIT ( #101 ) );
#96 = ORIENTED_EDGE ( 'NONE', *, *, #74, .T. ) ;
#97 = AXIS2_PLACEMENT_3D ( 'NONE', #131, #232, #51 ) ;
#98 =( GEOMETRIC_REPRESENTATION_CONTEXT ( 3 ) GLOBAL_UNCERTAINTY_ASSIGNED_CONTEXT ( ( #114 ) ) GLOBAL_UNIT_ASSIGNED_CONTEXT ( ( #95, #245, #150 ) ) REPRESENTATION_CONTEXT ( 'NONE', 'WORKASPACE' ) );
#99 = DIRECTION ( 'NONE',  ( -0.000000000000000000, -1.000000000000000000, -0.000000000000000000 ) ) ;
#100 = ORIENTED_EDGE ( 'NONE', *, *, #83, .T. ) ;
#101 = DIMENSIONAL_EXPONENTS ( 1.000000000000000000, 0.000000000000000000, 0.000000000000000000, 0.000000000000000000, 0.000000000000000000, 0.000000000000000000, 0.000000000000000000 ) ;
#102 = DIRECTION ( 'NONE',  ( -1.451753476719974375E-16, 1.000000000000000000, 0.000000000000000000 ) ) ;
#103 = CIRCLE ( 'NONE', #89, 0.1875000000000000555 ) ;
#104 = DIRECTION ( 'NONE',  ( -1.000000000000000000, 0.000000000000000000, 0.000000000000000000 ) ) ;
#105 = DIRECTION ( 'NONE',  ( 0.000000000000000000, 0.000000000000000000, 1.000000000000000000 ) ) ;
#106 = CARTESIAN_POINT ( 'NONE',  ( -0.1874999999999999445, 2.500000000000000000, 0.000000000000000000 ) ) ;
#107 = PRESENTATION_STYLE_ASSIGNMENT (( #167 ) ) ;
#108 = APPLICATION_CONTEXT ( 'automotive_design' ) ;
#109 = CLOSED_SHELL ( 'NONE', ( #125, #243, #112, #88 ) ) ;
#110 = MECHANICAL_DESIGN_GEOMETRIC_PRESENTATION_REPRESENTATION (  '', ( #30 ), #187 ) ;
#111 = DIRECTION ( 'NONE',  ( -1.451753476719974375E-16, 1.000000000000000000, -0.000000000000000000 ) ) ;
#112 = ADVANCED_FACE ( 'NONE', ( #236 ), #90, .T. ) ;
#113 = FILL_AREA_STYLE_COLOUR ( '', #124 ) ;
#114 = UNCERTAINTY_MEASURE_WITH_UNIT (LENGTH_MEASURE( 1.000000000000000082E-05 ), #95, 'distance_accuracy_value', 'NONE');
#115 = PLANE ( 'NONE',  #241 ) ;
#116 = DIRECTION ( 'NONE',  ( 0.000000000000000000, 1.000000000000000000, 0.000000000000000000 ) ) ;
#117 = CIRCLE ( 'NONE', #156, 0.1875000000000000555 ) ;
#118 = LENGTH_MEASURE_WITH_UNIT ( LENGTH_MEASURE( 0.02539999999999999897 ), #31 );
#119 = CYLINDRICAL_SURFACE ( 'NONE', #147, 0.1874999999999998890 ) ;
#120 = PRESENTATION_LAYER_ASSIGNMENT (  '', '', ( #231 ) ) ;
#121 =( NAMED_UNIT ( * ) PLANE_ANGLE_UNIT ( ) SI_UNIT ( $, .RADIAN. ) );
#122 = ORIENTED_EDGE ( 'NONE', *, *, #14, .F. ) ;
#123 = CARTESIAN_POINT ( 'NONE',  ( 0.000000000000000000, 39.37007874015748143, 0.000000000000000000 ) ) ;
#124 = COLOUR_RGB ( '',1.000000000000000000, 0.000000000000000000, 0.000000000000000000 ) ;
#125 = ADVANCED_FACE ( 'NONE', ( #70 ), #119, .T. ) ;
#126 = CARTESIAN_POINT ( 'NONE',  ( 0.000000000000000000, 0.1082531754730542695, 0.000000000000000000 ) ) ;
#127 = LINE ( 'NONE', #205, #203 ) ;
#128 = CONICAL_SURFACE ( 'NONE', #166, 68.19097667594041923, 1.047197551196600074 ) ;
#129 = CARTESIAN_POINT ( 'NONE',  ( -6.123233995736764803E-17, 2.500000000000000000, 0.000000000000000000 ) ) ;
#130 = SURFACE_STYLE_USAGE ( .BOTH. , #213 ) ;
#131 = CARTESIAN_POINT ( 'NONE',  ( 0.1874999999999999722, 2.500000000000000000, 0.000000000000000000 ) ) ;
#132 = MECHANICAL_DESIGN_GEOMETRIC_PRESENTATION_REPRESENTATION (  '', ( #33 ), #3 ) ;
#133 =( NAMED_UNIT ( * ) SI_UNIT ( $, .STERADIAN. ) SOLID_ANGLE_UNIT ( ) );
#134 = DIRECTION ( 'NONE',  ( -1.451753476719974375E-16, 1.000000000000000000, -0.000000000000000000 ) ) ;
#135 = FILL_AREA_STYLE ('',( #177 ) ) ;
#136 = ORIENTED_EDGE ( 'NONE', *, *, #252, .T. ) ;
#137 = CIRCLE ( 'NONE', #250, 0.1875000000000000278 ) ;
#138 = PLANE ( 'NONE',  #47 ) ;
#139 = DIMENSIONAL_EXPONENTS ( 1.000000000000000000, 0.000000000000000000, 0.000000000000000000, 0.000000000000000000, 0.000000000000000000, 0.000000000000000000, 0.000000000000000000 ) ;
#140 = ORIENTED_EDGE ( 'NONE', *, *, #54, .T. ) ;
#141 = STYLED_ITEM ( 'NONE', ( #196 ), #190 ) ;
#142 = FILL_AREA_STYLE_COLOUR ( '', #79 ) ;
#143 = EDGE_CURVE ( 'NONE', #151, #11, #227, .T. ) ;
#144 = FILL_AREA_STYLE ('',( #204 ) ) ;
#145 = ADVANCED_FACE ( 'NONE', ( #7 ), #115, .T. ) ;
#146 = FILL_AREA_STYLE ('',( #113 ) ) ;
#147 = AXIS2_PLACEMENT_3D ( 'NONE', #29, #134, #175 ) ;
#148 = DIRECTION ( 'NONE',  ( -1.451753476719974375E-16, 1.000000000000000000, -0.000000000000000000 ) ) ;
#149 = CARTESIAN_POINT ( 'NONE',  ( 0.1874999999999999722, 0.1082531754730542417, 2.296212748401286801E-17 ) ) ;
#150 =( NAMED_UNIT ( * ) SI_UNIT ( $, .STERADIAN. ) SOLID_ANGLE_UNIT ( ) );
#151 = VERTEX_POINT ( 'NONE', #154 ) ;
#152 = UNCERTAINTY_MEASURE_WITH_UNIT (LENGTH_MEASURE( 1.000000000000000082E-05 ), #81, 'distance_accuracy_value', 'NONE');
#153 = FILL_AREA_STYLE ('',( #5 ) ) ;
#154 = CARTESIAN_POINT ( 'NONE',  ( -0.1874999999999994449, 0.1082531754730541723, 0.000000000000000000 ) ) ;
#155 = PLANE ( 'NONE',  #97 ) ;
#156 = AXIS2_PLACEMENT_3D ( 'NONE', #41, #111, #104 ) ;
#157 = LENGTH_MEASURE_WITH_UNIT ( LENGTH_MEASURE( 0.02539999999999999897 ), #174 );
#158 = FACE_OUTER_BOUND ( 'NONE', #221, .T. ) ;
#159 = SURFACE_STYLE_USAGE ( .BOTH. , #180 ) ;
#160 = AXIS2_PLACEMENT_3D ( 'NONE', #123, #206, #171 ) ;
#161 = ORIENTED_EDGE ( 'NONE', *, *, #69, .T. ) ;
#162 = PRODUCT_RELATED_PRODUCT_CATEGORY ( 'part', '', ( #222 ) ) ;
#163 = CARTESIAN_POINT ( 'NONE',  ( 2.859903368367275526E-16, 0.1082531754730542278, 0.000000000000000000 ) ) ;
#164 = EDGE_LOOP ( 'NONE', ( #46, #161 ) ) ;
#165 = EDGE_LOOP ( 'NONE', ( #122, #100, #136 ) ) ;
#166 = AXIS2_PLACEMENT_3D ( 'NONE', #216, #251, #56 ) ;
#167 = SURFACE_STYLE_USAGE ( .BOTH. , #184 ) ;
#168 = LINE ( 'NONE', #261, #12 ) ;
#169 = SHAPE_DEFINITION_REPRESENTATION ( #256, #237 ) ;
#170 =( NAMED_UNIT ( * ) PLANE_ANGLE_UNIT ( ) SI_UNIT ( $, .RADIAN. ) );
#171 = DIRECTION ( 'NONE',  ( 0.000000000000000000, 0.000000000000000000, 1.000000000000000000 ) ) ;
#172 = LINE ( 'NONE', #62, #39 ) ;
#173 = CARTESIAN_POINT ( 'NONE',  ( 0.000000000000000000, 0.1082531754730542556, 0.000000000000000000 ) ) ;
#174 =( LENGTH_UNIT ( ) NAMED_UNIT ( * ) SI_UNIT ( $, .METRE. ) );
#175 = DIRECTION ( 'NONE',  ( -1.000000000000000000, 0.000000000000000000, 0.000000000000000000 ) ) ;
#176 = CIRCLE ( 'NONE', #193, 0.1875000000000000278 ) ;
#177 = FILL_AREA_STYLE_COLOUR ( '', #92 ) ;
#178 = LENGTH_MEASURE_WITH_UNIT ( LENGTH_MEASURE( 0.02539999999999999897 ), #60 );
#179 = DIRECTION ( 'NONE',  ( 0.000000000000000000, 0.000000000000000000, -1.000000000000000000 ) ) ;
#180 = SURFACE_SIDE_STYLE ('',( #194 ) ) ;
#181 = ORIENTED_EDGE ( 'NONE', *, *, #28, .F. ) ;
#182 = ORIENTED_EDGE ( 'NONE', *, *, #54, .F. ) ;
#183 = VECTOR ( 'NONE', #209, 39.37007874015748143 ) ;
#184 = SURFACE_SIDE_STYLE ('',( #63 ) ) ;
#185 = SURFACE_SIDE_STYLE ('',( #21 ) ) ;
#186 = LENGTH_MEASURE_WITH_UNIT ( LENGTH_MEASURE( 0.02539999999999999897 ), #24 );
#187 =( GEOMETRIC_REPRESENTATION_CONTEXT ( 3 ) GLOBAL_UNCERTAINTY_ASSIGNED_CONTEXT ( ( #25 ) ) GLOBAL_UNIT_ASSIGNED_CONTEXT ( ( #6, #248, #133 ) ) REPRESENTATION_CONTEXT ( 'NONE', 'WORKASPACE' ) );
#188 = DIRECTION ( 'NONE',  ( 1.000000000000000000, 0.000000000000000000, 0.000000000000000000 ) ) ;
#189 = UNCERTAINTY_MEASURE_WITH_UNIT (LENGTH_MEASURE( 1.000000000000000082E-05 ), #55, 'distance_accuracy_value', 'NONE');
#190 = ADVANCED_FACE ( 'NONE', ( #158 ), #128, .T. ) ;
#191 = DIRECTION ( 'NONE',  ( 0.000000000000000000, -0.000000000000000000, 1.000000000000000000 ) ) ;
#192 = AXIS2_PLACEMENT_3D ( 'NONE', #19, #148, #225 ) ;
#193 = AXIS2_PLACEMENT_3D ( 'NONE', #198, #99, #179 ) ;
#194 = SURFACE_STYLE_FILL_AREA ( #35 ) ;
#195 = ORIENTED_EDGE ( 'NONE', *, *, #87, .T. ) ;
#196 = PRESENTATION_STYLE_ASSIGNMENT (( #253 ) ) ;
#197 = ORIENTED_EDGE ( 'NONE', *, *, #69, .F. ) ;
#198 = CARTESIAN_POINT ( 'NONE',  ( 0.000000000000000000, 0.1082531754730542695, 0.000000000000000000 ) ) ;
#199 = ORIENTED_EDGE ( 'NONE', *, *, #2, .T. ) ;
#200 = CONICAL_SURFACE ( 'NONE', #160, 68.19097667594041923, 1.047197551196600074 ) ;
#201 = EDGE_LOOP ( 'NONE', ( #13, #199, #140, #197 ) ) ;
#202 = DIRECTION ( 'NONE',  ( 1.060575238724908024E-16, 0.4999999999999979461, -0.8660254037844397068 ) ) ;
#203 = VECTOR ( 'NONE', #202, 39.37007874015748854 ) ;
#204 = FILL_AREA_STYLE_COLOUR ( '', #59 ) ;
#205 = CARTESIAN_POINT ( 'NONE',  ( 0.000000000000000000, 0.000000000000000000, 0.000000000000000000 ) ) ;
#206 = DIRECTION ( 'NONE',  ( 0.000000000000000000, 1.000000000000000000, 0.000000000000000000 ) ) ;
#207 = STYLED_ITEM ( 'NONE', ( #215 ), #145 ) ;
#208 = PRESENTATION_LAYER_ASSIGNMENT (  '', '', ( #207 ) ) ;
#209 = DIRECTION ( 'NONE',  ( -1.451753476719974375E-16, 1.000000000000000000, -0.000000000000000000 ) ) ;
#210 = UNCERTAINTY_MEASURE_WITH_UNIT (LENGTH_MEASURE( 1.000000000000000082E-05 ), #91, 'distance_accuracy_value', 'NONE');
#211 = PRODUCT_DEFINITION_CONTEXT ( 'detailed design', #212, 'design' ) ;
#212 = APPLICATION_CONTEXT ( 'automotive_design' ) ;
#213 = SURFACE_SIDE_STYLE ('',( #233 ) ) ;
#214 = DIRECTION ( 'NONE',  ( -1.451753476719974375E-16, 1.000000000000000000, -0.000000000000000000 ) ) ;
#215 = PRESENTATION_STYLE_ASSIGNMENT (( #130 ) ) ;
#216 = CARTESIAN_POINT ( 'NONE',  ( 0.000000000000000000, 39.37007874015748143, 0.000000000000000000 ) ) ;
#217 =( LENGTH_UNIT ( ) NAMED_UNIT ( * ) SI_UNIT ( $, .METRE. ) );
#218 = EDGE_LOOP ( 'NONE', ( #255, #36 ) ) ;
#219 = SURFACE_SIDE_STYLE ('',( #9 ) ) ;
#220 =( CONVERSION_BASED_UNIT ( 'INCH', #258 ) LENGTH_UNIT ( ) NAMED_UNIT ( #76 ) );
#221 = EDGE_LOOP ( 'NONE', ( #77, #44, #195 ) ) ;
#222 = PRODUCT ( '06453', '06453', '', ( #264 ) ) ;
#223 = LENGTH_MEASURE_WITH_UNIT ( LENGTH_MEASURE( 0.02539999999999999897 ), #217 );
#224 = DIMENSIONAL_EXPONENTS ( 1.000000000000000000, 0.000000000000000000, 0.000000000000000000, 0.000000000000000000, 0.000000000000000000, 0.000000000000000000, 0.000000000000000000 ) ;
#225 = DIRECTION ( 'NONE',  ( -1.000000000000000000, -1.821231995776178437E-16, 0.000000000000000000 ) ) ;
#226 = CARTESIAN_POINT ( 'NONE',  ( 2.296212748401287726E-17, 0.1082531754730542695, -0.1875000000000000278 ) ) ;
#227 = CIRCLE ( 'NONE', #65, 0.1874999999999996947 ) ;
#228 =( NAMED_UNIT ( * ) SI_UNIT ( $, .STERADIAN. ) SOLID_ANGLE_UNIT ( ) );
#229 = CARTESIAN_POINT ( 'NONE',  ( -0.1875000000000001110, 2.500000000000000000, 0.000000000000000000 ) ) ;
#230 = DIRECTION ( 'NONE',  ( -1.000000000000000000, 0.000000000000000000, 0.000000000000000000 ) ) ;
#231 = STYLED_ITEM ( 'NONE', ( #239 ), #257 ) ;
#232 = DIRECTION ( 'NONE',  ( 1.451753476719974375E-16, -1.000000000000000000, 0.000000000000000000 ) ) ;
#233 = SURFACE_STYLE_FILL_AREA ( #153 ) ;
#234 = COLOUR_RGB ( '',1.000000000000000000, 0.000000000000000000, 0.000000000000000000 ) ;
#235 =( NAMED_UNIT ( * ) SI_UNIT ( $, .STERADIAN. ) SOLID_ANGLE_UNIT ( ) );
#236 = FACE_OUTER_BOUND ( 'NONE', #201, .T. ) ;
#237 = ADVANCED_BREP_SHAPE_REPRESENTATION ( '06453', ( #257, #86, #93 ), #98 ) ;
#238 = CARTESIAN_POINT ( 'NONE',  ( 0.000000000000000000, 0.000000000000000000, 0.000000000000000000 ) ) ;
#239 = PRESENTATION_STYLE_ASSIGNMENT (( #159 ) ) ;
#240 = EDGE_LOOP ( 'NONE', ( #67, #40 ) ) ;
#241 = AXIS2_PLACEMENT_3D ( 'NONE', #173, #116, #191 ) ;
#242 = PRODUCT_DEFINITION_FORMATION_WITH_SPECIFIED_SOURCE ( 'ANY', '', #222, .NOT_KNOWN. ) ;
#243 = ADVANCED_FACE ( 'NONE', ( #15 ), #138, .F. ) ;
#244 = PRESENTATION_STYLE_ASSIGNMENT (( #262 ) ) ;
#245 =( NAMED_UNIT ( * ) PLANE_ANGLE_UNIT ( ) SI_UNIT ( $, .RADIAN. ) );
#246 = CARTESIAN_POINT ( 'NONE',  ( 0.000000000000000000, 0.1082531754730542695, 0.1875000000000000278 ) ) ;
#247 = PRESENTATION_LAYER_ASSIGNMENT (  '', '', ( #30 ) ) ;
#248 =( NAMED_UNIT ( * ) PLANE_ANGLE_UNIT ( ) SI_UNIT ( $, .RADIAN. ) );
#249 =( NAMED_UNIT ( * ) PLANE_ANGLE_UNIT ( ) SI_UNIT ( $, .RADIAN. ) );
#250 = AXIS2_PLACEMENT_3D ( 'NONE', #126, #52, #49 ) ;
#251 = DIRECTION ( 'NONE',  ( 0.000000000000000000, 1.000000000000000000, 0.000000000000000000 ) ) ;
#252 = EDGE_CURVE ( 'NONE', #16, #58, #176, .T. ) ;
#253 = SURFACE_STYLE_USAGE ( .BOTH. , #219 ) ;
#254 = DIRECTION ( 'NONE',  ( -1.000000000000000000, -1.451753476719974375E-16, 0.000000000000000000 ) ) ;
#255 = ORIENTED_EDGE ( 'NONE', *, *, #252, .F. ) ;
#256 = PRODUCT_DEFINITION_SHAPE ( 'NONE', 'NONE',  #38 ) ;
#257 = MANIFOLD_SOLID_BREP ( 'Revolve - Cutting Edge', #23 ) ;
#258 = LENGTH_MEASURE_WITH_UNIT ( LENGTH_MEASURE( 0.02539999999999999897 ), #10 );
#259 = MECHANICAL_DESIGN_GEOMETRIC_PRESENTATION_REPRESENTATION (  '', ( #231 ), #4 ) ;
#260 = VERTEX_POINT ( 'NONE', #238 ) ;
#261 = CARTESIAN_POINT ( 'NONE',  ( 0.1874999999999998057, 2.500000000000000000, 2.296212748401285877E-17 ) ) ;
#262 = SURFACE_STYLE_USAGE ( .BOTH. , #185 ) ;
#263 = FACE_OUTER_BOUND ( 'NONE', #165, .T. ) ;
#264 = PRODUCT_CONTEXT ( 'NONE', #108, 'mechanical' ) ;
#265 = CARTESIAN_POINT ( 'NONE',  ( 0.1874999999999999722, 2.500000000000000000, 2.296212748401286801E-17 ) ) ;
ENDSEC;
END-ISO-10303-21;
