ISO-10303-21;
HEADER;
FILE_DESCRIPTION (( 'STEP AP214' ),
    '1' );
FILE_NAME ('Micro_SFA-125-24.STEP',
    '2021-09-02T03:38:45',
    ( '' ),
    ( '' ),
    'SwSTEP 2.0',
    'SolidWorks 2020',
    '' );
FILE_SCHEMA (( 'AUTOMOTIVE_DESIGN' ));
ENDSEC;

DATA;
#1 = VECTOR ( 'NONE', #224, 39.37007874015748143 ) ;
#2 = EDGE_CURVE ( 'NONE', #115, #26, #6, .T. ) ;
#3 = DIRECTION ( 'NONE',  ( -1.000000000000000000, 0.0000000000000000000, 0.0000000000000000000 ) ) ;
#4 =( CONVERSION_BASED_UNIT ( 'INCH', #278 ) LENGTH_UNIT ( ) NAMED_UNIT ( #291 ) );
#5 = CARTESIAN_POINT ( 'NONE',  ( 0.0000000000000000000, 0.0000000000000000000, 1.485000000000000764 ) ) ;
#6 = CIRCLE ( 'NONE', #173, 0.06250000000000000000 ) ;
#7 = DIRECTION ( 'NONE',  ( -0.0000000000000000000, -0.0000000000000000000, -1.000000000000000000 ) ) ;
#8 = PRESENTATION_LAYER_ASSIGNMENT (  '', '', ( #97 ) ) ;
#9 = CARTESIAN_POINT ( 'NONE',  ( 0.06243750000000005546, 0.0000000000000000000, 0.5000000000000000000 ) ) ;
#10 = LENGTH_MEASURE_WITH_UNIT ( LENGTH_MEASURE( 0.02539999999999999897 ), #77 );
#11 = PRODUCT_RELATED_PRODUCT_CATEGORY ( 'part', '', ( #275 ) ) ;
#12 = CONICAL_SURFACE ( 'NONE', #251, 0.06243749999999999301, 0.1745329251994336972 ) ;
#13 = PRESENTATION_LAYER_ASSIGNMENT (  '', '', ( #169 ) ) ;
#14 = DIRECTION ( 'NONE',  ( -1.000000000000000000, 0.0000000000000000000, 1.224646799147353700E-16 ) ) ;
#15 = EDGE_LOOP ( 'NONE', ( #183, #154, #54, #162 ) ) ;
#16 = CIRCLE ( 'NONE', #262, 0.06250000000000000000 ) ;
#17 =( GEOMETRIC_REPRESENTATION_CONTEXT ( 3 ) GLOBAL_UNCERTAINTY_ASSIGNED_CONTEXT ( ( #32 ) ) GLOBAL_UNIT_ASSIGNED_CONTEXT ( ( #4, #95, #282 ) ) REPRESENTATION_CONTEXT ( 'NONE', 'WORKASPACE' ) );
#18 = LINE ( 'NONE', #103, #1 ) ;
#19 = DIRECTION ( 'NONE',  ( -1.000000000000000000, 0.0000000000000000000, 0.0000000000000000000 ) ) ;
#20 = VERTEX_POINT ( 'NONE', #118 ) ;
#21 = EDGE_CURVE ( 'NONE', #87, #26, #196, .T. ) ;
#22 = CARTESIAN_POINT ( 'NONE',  ( 0.0000000000000000000, 0.0000000000000000000, 1.500000000000000222 ) ) ;
#23 = AXIS2_PLACEMENT_3D ( 'NONE', #22, #160, #19 ) ;
#24 = EDGE_LOOP ( 'NONE', ( #253, #190, #91, #152 ) ) ;
#25 = DIRECTION ( 'NONE',  ( -1.224646799147353454E-16, -0.0000000000000000000, -1.000000000000000000 ) ) ;
#26 = VERTEX_POINT ( 'NONE', #237 ) ;
#27 = ADVANCED_FACE ( 'NONE', ( #218 ), #105, .T. ) ;
#28 = ORIENTED_EDGE ( 'NONE', *, *, #2, .F. ) ;
#29 = DIRECTION ( 'NONE',  ( -0.7071067811865456854, 0.0000000000000000000, -0.7071067811865493491 ) ) ;
#30 = AXIS2_PLACEMENT_3D ( 'NONE', #94, #221, #238 ) ;
#31 = DIRECTION ( 'NONE',  ( 1.000000000000000000, 0.0000000000000000000, 0.0000000000000000000 ) ) ;
#32 = UNCERTAINTY_MEASURE_WITH_UNIT (LENGTH_MEASURE( 1.000000000000000082E-05 ), #4, 'distance_accuracy_value', 'NONE');
#33 = EDGE_LOOP ( 'NONE', ( #48, #241 ) ) ;
#34 = APPLICATION_CONTEXT ( 'automotive_design' ) ;
#35 = AXIS2_PLACEMENT_3D ( 'NONE', #194, #138, #3 ) ;
#36 = CARTESIAN_POINT ( 'NONE',  ( -0.06243749999999999994, 0.0000000000000000000, 7.646388452176288915E-18 ) ) ;
#37 = EDGE_CURVE ( 'NONE', #52, #215, #165, .T. ) ;
#38 = DIRECTION ( 'NONE',  ( 1.224646799147353454E-16, 0.0000000000000000000, 1.000000000000000000 ) ) ;
#39 = VECTOR ( 'NONE', #148, 39.37007874015748143 ) ;
#40 = DIRECTION ( 'NONE',  ( -0.1736481776669309696, 2.126576849575780543E-17, 0.9848077530122080203 ) ) ;
#41 = DIRECTION ( 'NONE',  ( -1.224646799147353454E-16, -0.0000000000000000000, -1.000000000000000000 ) ) ;
#42 = CARTESIAN_POINT ( 'NONE',  ( 0.0000000000000000000, 0.0000000000000000000, 1.500000000000000222 ) ) ;
#43 = COLOUR_RGB ( '',0.7921568627450980005, 0.8196078431372548767, 0.9333333333333333481 ) ;
#44 = DIRECTION ( 'NONE',  ( 1.000000000000000000, 0.0000000000000000000, 0.0000000000000000000 ) ) ;
#45 = SURFACE_SIDE_STYLE ('',( #135 ) ) ;
#46 = EDGE_CURVE ( 'NONE', #115, #215, #58, .T. ) ;
#47 = ORIENTED_EDGE ( 'NONE', *, *, #100, .T. ) ;
#48 = ORIENTED_EDGE ( 'NONE', *, *, #207, .T. ) ;
#49 = DIRECTION ( 'NONE',  ( -1.000000000000000000, 0.0000000000000000000, 0.0000000000000000000 ) ) ;
#50 = DIMENSIONAL_EXPONENTS ( 1.000000000000000000, 0.0000000000000000000, 0.0000000000000000000, 0.0000000000000000000, 0.0000000000000000000, 0.0000000000000000000, 0.0000000000000000000 ) ;
#51 = CARTESIAN_POINT ( 'NONE',  ( -0.06249999999999993755, 0.0000000000000000000, 0.5003544551137261154 ) ) ;
#52 = VERTEX_POINT ( 'NONE', #9 ) ;
#53 = ORIENTED_EDGE ( 'NONE', *, *, #151, .F. ) ;
#54 = ORIENTED_EDGE ( 'NONE', *, *, #37, .T. ) ;
#55 = ORIENTED_EDGE ( 'NONE', *, *, #269, .T. ) ;
#56 = FILL_AREA_STYLE_COLOUR ( '', #43 ) ;
#57 = CIRCLE ( 'NONE', #211, 0.06243750000000001382 ) ;
#58 = LINE ( 'NONE', #191, #199 ) ;
#59 = EDGE_CURVE ( 'NONE', #52, #70, #130, .T. ) ;
#60 = FACE_OUTER_BOUND ( 'NONE', #209, .T. ) ;
#61 = FACE_OUTER_BOUND ( 'NONE', #88, .T. ) ;
#62 = AXIS2_PLACEMENT_3D ( 'NONE', #98, #119, #168 ) ;
#63 = FACE_OUTER_BOUND ( 'NONE', #276, .T. ) ;
#64 = CONICAL_SURFACE ( 'NONE', #277, 0.04750000000000064587, 0.7853981633974457255 ) ;
#65 = MECHANICAL_DESIGN_GEOMETRIC_PRESENTATION_REPRESENTATION (  '', ( #169 ), #17 ) ;
#66 = ADVANCED_FACE ( 'NONE', ( #216 ), #171, .T. ) ;
#67 = DIRECTION ( 'NONE',  ( 0.0000000000000000000, 0.0000000000000000000, -1.000000000000000000 ) ) ;
#68 = MECHANICAL_DESIGN_GEOMETRIC_PRESENTATION_REPRESENTATION (  '', ( #97 ), #174 ) ;
#69 =( NAMED_UNIT ( * ) SI_UNIT ( $, .STERADIAN. ) SOLID_ANGLE_UNIT ( ) );
#70 = VERTEX_POINT ( 'NONE', #281 ) ;
#71 = MANIFOLD_SOLID_BREP ( 'Cut-Revolve1', #192 ) ;
#72 = ORIENTED_EDGE ( 'NONE', *, *, #37, .F. ) ;
#73 = SURFACE_SIDE_STYLE ('',( #195 ) ) ;
#74 = CIRCLE ( 'NONE', #263, 0.04750000000000064587 ) ;
#75 = DIRECTION ( 'NONE',  ( 0.0000000000000000000, 0.0000000000000000000, 1.000000000000000000 ) ) ;
#76 = APPLICATION_CONTEXT ( 'automotive_design' ) ;
#77 =( LENGTH_UNIT ( ) NAMED_UNIT ( * ) SI_UNIT ( $, .METRE. ) );
#78 = DIRECTION ( 'NONE',  ( 0.0000000000000000000, 0.0000000000000000000, -1.000000000000000000 ) ) ;
#79 = AXIS2_PLACEMENT_3D ( 'NONE', #131, #298, #136 ) ;
#80 = ORIENTED_EDGE ( 'NONE', *, *, #198, .F. ) ;
#81 = DIRECTION ( 'NONE',  ( 1.000000000000000000, 0.0000000000000000000, 0.0000000000000000000 ) ) ;
#82 = LINE ( 'NONE', #270, #257 ) ;
#83 = ADVANCED_FACE ( 'NONE', ( #61 ), #64, .T. ) ;
#84 = CARTESIAN_POINT ( 'NONE',  ( 6.127574818941428501E-17, 0.0000000000000000000, 0.5003544551137261154 ) ) ;
#85 = AXIS2_PLACEMENT_3D ( 'NONE', #288, #179, #14 ) ;
#86 = PRESENTATION_STYLE_ASSIGNMENT (( #296 ) ) ;
#87 = VERTEX_POINT ( 'NONE', #268 ) ;
#88 = EDGE_LOOP ( 'NONE', ( #159, #80, #156, #28 ) ) ;
#89 = FACE_OUTER_BOUND ( 'NONE', #158, .T. ) ;
#90 = ORIENTED_EDGE ( 'NONE', *, *, #108, .T. ) ;
#91 = ORIENTED_EDGE ( 'NONE', *, *, #188, .T. ) ;
#92 = ORIENTED_EDGE ( 'NONE', *, *, #188, .F. ) ;
#93 = ADVANCED_FACE ( 'NONE', ( #63 ), #102, .T. ) ;
#94 = CARTESIAN_POINT ( 'NONE',  ( 6.123233995736767268E-17, 0.0000000000000000000, 0.5000000000000000000 ) ) ;
#95 =( NAMED_UNIT ( * ) PLANE_ANGLE_UNIT ( ) SI_UNIT ( $, .RADIAN. ) );
#96 = VERTEX_POINT ( 'NONE', #246 ) ;
#97 = STYLED_ITEM ( 'NONE', ( #143 ), #71 ) ;
#98 = CARTESIAN_POINT ( 'NONE',  ( 0.0000000000000000000, 0.0000000000000000000, 0.0000000000000000000 ) ) ;
#99 = FILL_AREA_STYLE ('',( #56 ) ) ;
#100 = EDGE_CURVE ( 'NONE', #70, #52, #272, .T. ) ;
#101 = ORIENTED_EDGE ( 'NONE', *, *, #207, .F. ) ;
#102 = PLANE ( 'NONE',  #286 ) ;
#103 = CARTESIAN_POINT ( 'NONE',  ( 0.04750000000000064587, 5.817072295950006528E-18, 1.500000000000000222 ) ) ;
#104 =( CONVERSION_BASED_UNIT ( 'INCH', #10 ) LENGTH_UNIT ( ) NAMED_UNIT ( #50 ) );
#105 = CONICAL_SURFACE ( 'NONE', #30, 0.06243749999999999301, 0.1745329251994336972 ) ;
#106 = CARTESIAN_POINT ( 'NONE',  ( 0.06250000000000000000, 7.654042494670956004E-18, 1.485000000000000764 ) ) ;
#107 = VERTEX_POINT ( 'NONE', #125 ) ;
#108 = EDGE_CURVE ( 'NONE', #20, #115, #18, .T. ) ;
#109 = ORIENTED_EDGE ( 'NONE', *, *, #151, .T. ) ;
#110 = AXIS2_PLACEMENT_3D ( 'NONE', #116, #259, #284 ) ;
#111 = DIRECTION ( 'NONE',  ( -1.224646799147353454E-16, -0.0000000000000000000, -1.000000000000000000 ) ) ;
#112 =( LENGTH_UNIT ( ) NAMED_UNIT ( * ) SI_UNIT ( $, .METRE. ) );
#113 = DIRECTION ( 'NONE',  ( 1.000000000000000000, 0.0000000000000000000, -0.0000000000000000000 ) ) ;
#114 = ORIENTED_EDGE ( 'NONE', *, *, #21, .F. ) ;
#115 = VERTEX_POINT ( 'NONE', #106 ) ;
#116 = CARTESIAN_POINT ( 'NONE',  ( 0.0000000000000000000, 0.0000000000000000000, 0.0000000000000000000 ) ) ;
#117 = PRODUCT_DEFINITION ( 'UNKNOWN', '', #287, #197 ) ;
#118 = CARTESIAN_POINT ( 'NONE',  ( 0.04750000000000064587, 6.735557395310482421E-18, 1.500000000000000222 ) ) ;
#119 = DIRECTION ( 'NONE',  ( 0.0000000000000000000, 0.0000000000000000000, 1.000000000000000000 ) ) ;
#120 = ORIENTED_EDGE ( 'NONE', *, *, #46, .T. ) ;
#121 = CIRCLE ( 'NONE', #134, 0.04750000000000064587 ) ;
#122 = DIRECTION ( 'NONE',  ( 0.0000000000000000000, 0.0000000000000000000, -1.000000000000000000 ) ) ;
#123 = AXIS2_PLACEMENT_3D ( 'NONE', #155, #236, #113 ) ;
#124 = CARTESIAN_POINT ( 'NONE',  ( 0.0000000000000000000, 0.0000000000000000000, 1.500000000000000222 ) ) ;
#125 = CARTESIAN_POINT ( 'NONE',  ( -0.06243750000000001382, 0.0000000000000000000, 1.529277690435257783E-17 ) ) ;
#126 = ADVANCED_FACE ( 'NONE', ( #226 ), #12, .T. ) ;
#127 = DIRECTION ( 'NONE',  ( -1.224646799147353454E-16, -0.0000000000000000000, -1.000000000000000000 ) ) ;
#128 = DIRECTION ( 'NONE',  ( -1.000000000000000000, 0.0000000000000000000, 1.224646799147353207E-16 ) ) ;
#129 = DIRECTION ( 'NONE',  ( -1.000000000000000000, 0.0000000000000000000, 0.0000000000000000000 ) ) ;
#130 = CIRCLE ( 'NONE', #35, 0.06243749999999999301 ) ;
#131 = CARTESIAN_POINT ( 'NONE',  ( 0.0000000000000000000, 0.0000000000000000000, 1.500000000000000222 ) ) ;
#132 = FACE_OUTER_BOUND ( 'NONE', #33, .T. ) ;
#133 = DIRECTION ( 'NONE',  ( -1.224646799147353454E-16, -0.0000000000000000000, -1.000000000000000000 ) ) ;
#134 = AXIS2_PLACEMENT_3D ( 'NONE', #42, #75, #176 ) ;
#135 = SURFACE_STYLE_FILL_AREA ( #249 ) ;
#136 = DIRECTION ( 'NONE',  ( -1.000000000000000000, 0.0000000000000000000, 0.0000000000000000000 ) ) ;
#137 = APPLICATION_PROTOCOL_DEFINITION ( 'draft international standard', 'automotive_design', 1998, #76 ) ;
#138 = DIRECTION ( 'NONE',  ( -1.224646799147353454E-16, -0.0000000000000000000, -1.000000000000000000 ) ) ;
#139 = EDGE_CURVE ( 'NONE', #96, #107, #140, .T. ) ;
#140 = CIRCLE ( 'NONE', #297, 0.06243750000000001382 ) ;
#141 = ORIENTED_EDGE ( 'NONE', *, *, #240, .F. ) ;
#142 = AXIS2_PLACEMENT_3D ( 'NONE', #230, #67, #252 ) ;
#143 = PRESENTATION_STYLE_ASSIGNMENT (( #260 ) ) ;
#144 = ORIENTED_EDGE ( 'NONE', *, *, #198, .T. ) ;
#145 = CYLINDRICAL_SURFACE ( 'NONE', #85, 0.06243749999999999994 ) ;
#146 = CARTESIAN_POINT ( 'NONE',  ( -0.06243749999999993749, 7.646388452176285834E-18, 0.5000000000000000000 ) ) ;
#147 = ADVANCED_FACE ( 'NONE', ( #60 ), #145, .T. ) ;
#148 = DIRECTION ( 'NONE',  ( -0.0000000000000000000, -0.0000000000000000000, -1.000000000000000000 ) ) ;
#149 = VECTOR ( 'NONE', #41, 39.37007874015748143 ) ;
#150 = LINE ( 'NONE', #36, #149 ) ;
#151 = EDGE_CURVE ( 'NONE', #26, #279, #265, .T. ) ;
#152 = ORIENTED_EDGE ( 'NONE', *, *, #139, .F. ) ;
#153 = CARTESIAN_POINT ( 'NONE',  ( 9.364125142994979186E-34, 0.0000000000000000000, 7.646388452176288915E-18 ) ) ;
#154 = ORIENTED_EDGE ( 'NONE', *, *, #59, .F. ) ;
#155 = CARTESIAN_POINT ( 'NONE',  ( 0.0000000000000000000, 0.0000000000000000000, 0.0000000000000000000 ) ) ;
#156 = ORIENTED_EDGE ( 'NONE', *, *, #21, .T. ) ;
#157 =( CONVERSION_BASED_UNIT ( 'INCH', #182 ) LENGTH_UNIT ( ) NAMED_UNIT ( #204 ) );
#158 = EDGE_LOOP ( 'NONE', ( #261, #90, #170, #114 ) ) ;
#159 = ORIENTED_EDGE ( 'NONE', *, *, #108, .F. ) ;
#160 = DIRECTION ( 'NONE',  ( 0.0000000000000000000, 0.0000000000000000000, -1.000000000000000000 ) ) ;
#161 = CARTESIAN_POINT ( 'NONE',  ( 0.0000000000000000000, 0.0000000000000000000, 1.500000000000000222 ) ) ;
#162 = ORIENTED_EDGE ( 'NONE', *, *, #240, .T. ) ;
#163 = ORIENTED_EDGE ( 'NONE', *, *, #184, .T. ) ;
#164 = PRODUCT_CONTEXT ( 'NONE', #34, 'mechanical' ) ;
#165 = LINE ( 'NONE', #258, #167 ) ;
#166 = CARTESIAN_POINT ( 'NONE',  ( 0.0000000000000000000, 0.0000000000000000000, 1.500000000000000222 ) ) ;
#167 = VECTOR ( 'NONE', #172, 39.37007874015747433 ) ;
#168 = DIRECTION ( 'NONE',  ( 1.000000000000000000, 0.0000000000000000000, 0.0000000000000000000 ) ) ;
#169 = STYLED_ITEM ( 'NONE', ( #86 ), #225 ) ;
#170 = ORIENTED_EDGE ( 'NONE', *, *, #239, .F. ) ;
#171 = CYLINDRICAL_SURFACE ( 'NONE', #110, 0.06243749999999999994 ) ;
#172 = DIRECTION ( 'NONE',  ( 0.1736481776669312194, 0.0000000000000000000, 0.9848077530122080203 ) ) ;
#173 = AXIS2_PLACEMENT_3D ( 'NONE', #5, #122, #31 ) ;
#174 =( GEOMETRIC_REPRESENTATION_CONTEXT ( 3 ) GLOBAL_UNCERTAINTY_ASSIGNED_CONTEXT ( ( #187 ) ) GLOBAL_UNIT_ASSIGNED_CONTEXT ( ( #104, #290, #292 ) ) REPRESENTATION_CONTEXT ( 'NONE', 'WORKASPACE' ) );
#175 = DIRECTION ( 'NONE',  ( -1.000000000000000000, 0.0000000000000000000, 0.0000000000000000000 ) ) ;
#176 = DIRECTION ( 'NONE',  ( 1.000000000000000000, 0.0000000000000000000, 0.0000000000000000000 ) ) ;
#177 = CARTESIAN_POINT ( 'NONE',  ( 9.364125142994979186E-34, 0.0000000000000000000, 7.646388452176288915E-18 ) ) ;
#178 = AXIS2_PLACEMENT_3D ( 'NONE', #227, #273, #49 ) ;
#179 = DIRECTION ( 'NONE',  ( -1.224646799147353454E-16, -0.0000000000000000000, -1.000000000000000000 ) ) ;
#180 = DIRECTION ( 'NONE',  ( 1.000000000000000000, 0.0000000000000000000, 0.0000000000000000000 ) ) ;
#181 = COLOUR_RGB ( '',0.7921568627450980005, 0.8196078431372548767, 0.9333333333333333481 ) ;
#182 = LENGTH_MEASURE_WITH_UNIT ( LENGTH_MEASURE( 0.02539999999999999897 ), #232 );
#183 = ORIENTED_EDGE ( 'NONE', *, *, #184, .F. ) ;
#184 = EDGE_CURVE ( 'NONE', #70, #279, #245, .T. ) ;
#185 = CARTESIAN_POINT ( 'NONE',  ( 6.127574818941428501E-17, 0.0000000000000000000, 0.5003544551137261154 ) ) ;
#186 = FACE_OUTER_BOUND ( 'NONE', #234, .T. ) ;
#187 = UNCERTAINTY_MEASURE_WITH_UNIT (LENGTH_MEASURE( 1.000000000000000082E-05 ), #104, 'distance_accuracy_value', 'NONE');
#188 = EDGE_CURVE ( 'NONE', #70, #107, #150, .T. ) ;
#189 = AXIS2_PLACEMENT_3D ( 'NONE', #84, #25, #295 ) ;
#190 = ORIENTED_EDGE ( 'NONE', *, *, #59, .T. ) ;
#191 = CARTESIAN_POINT ( 'NONE',  ( 0.06250000000000000000, 7.654042494670956004E-18, 1.500000000000000222 ) ) ;
#192 = CLOSED_SHELL ( 'NONE', ( #147, #126, #231, #217, #222, #93, #83, #27, #66, #280 ) ) ;
#193 = CIRCLE ( 'NONE', #142, 0.06250000000000000000 ) ;
#194 = CARTESIAN_POINT ( 'NONE',  ( 6.123233995736767268E-17, 0.0000000000000000000, 0.5000000000000000000 ) ) ;
#195 = SURFACE_STYLE_FILL_AREA ( #99 ) ;
#196 = LINE ( 'NONE', #220, #210 ) ;
#197 = PRODUCT_DEFINITION_CONTEXT ( 'detailed design', #76, 'design' ) ;
#198 = EDGE_CURVE ( 'NONE', #87, #20, #121, .T. ) ;
#199 = VECTOR ( 'NONE', #7, 39.37007874015748143 ) ;
#200 = DIRECTION ( 'NONE',  ( -1.224646799147353454E-16, -0.0000000000000000000, -1.000000000000000000 ) ) ;
#201 =( GEOMETRIC_REPRESENTATION_CONTEXT ( 3 ) GLOBAL_UNCERTAINTY_ASSIGNED_CONTEXT ( ( #254 ) ) GLOBAL_UNIT_ASSIGNED_CONTEXT ( ( #157, #212, #69 ) ) REPRESENTATION_CONTEXT ( 'NONE', 'WORKASPACE' ) );
#202 = FACE_OUTER_BOUND ( 'NONE', #233, .T. ) ;
#203 = ORIENTED_EDGE ( 'NONE', *, *, #256, .T. ) ;
#204 = DIMENSIONAL_EXPONENTS ( 1.000000000000000000, 0.0000000000000000000, 0.0000000000000000000, 0.0000000000000000000, 0.0000000000000000000, 0.0000000000000000000, 0.0000000000000000000 ) ;
#205 = DIRECTION ( 'NONE',  ( 0.0000000000000000000, 0.0000000000000000000, 1.000000000000000000 ) ) ;
#206 = FILL_AREA_STYLE_COLOUR ( '', #181 ) ;
#207 = EDGE_CURVE ( 'NONE', #107, #96, #57, .T. ) ;
#208 = APPLICATION_PROTOCOL_DEFINITION ( 'draft international standard', 'automotive_design', 1998, #34 ) ;
#209 = EDGE_LOOP ( 'NONE', ( #47, #55, #101, #92 ) ) ;
#210 = VECTOR ( 'NONE', #29, 39.37007874015748143 ) ;
#211 = AXIS2_PLACEMENT_3D ( 'NONE', #153, #127, #128 ) ;
#212 =( NAMED_UNIT ( * ) PLANE_ANGLE_UNIT ( ) SI_UNIT ( $, .RADIAN. ) );
#213 = ORIENTED_EDGE ( 'NONE', *, *, #2, .T. ) ;
#214 = ORIENTED_EDGE ( 'NONE', *, *, #289, .T. ) ;
#215 = VERTEX_POINT ( 'NONE', #248 ) ;
#216 = FACE_OUTER_BOUND ( 'NONE', #24, .T. ) ;
#217 = ADVANCED_FACE ( 'NONE', ( #202 ), #228, .T. ) ;
#218 = FACE_OUTER_BOUND ( 'NONE', #15, .T. ) ;
#219 = SHAPE_DEFINITION_REPRESENTATION ( #285, #225 ) ;
#220 = CARTESIAN_POINT ( 'NONE',  ( -0.04750000000000064587, 0.0000000000000000000, 1.500000000000000222 ) ) ;
#221 = DIRECTION ( 'NONE',  ( 1.224646799147353454E-16, 0.0000000000000000000, 1.000000000000000000 ) ) ;
#222 = ADVANCED_FACE ( 'NONE', ( #186 ), #274, .T. ) ;
#223 = DIRECTION ( 'NONE',  ( -1.000000000000000000, 0.0000000000000000000, 1.224646799147353207E-16 ) ) ;
#224 = DIRECTION ( 'NONE',  ( 0.7071067811865456854, 8.659560562354911904E-17, -0.7071067811865493491 ) ) ;
#225 = ADVANCED_BREP_SHAPE_REPRESENTATION ( 'Micro_SFA-125-24', ( #71, #62 ), #201 ) ;
#226 = FACE_OUTER_BOUND ( 'NONE', #267, .T. ) ;
#227 = CARTESIAN_POINT ( 'NONE',  ( 0.0000000000000000000, 0.0000000000000000000, 1.500000000000000222 ) ) ;
#228 = CYLINDRICAL_SURFACE ( 'NONE', #178, 0.06250000000000000000 ) ;
#229 = CONICAL_SURFACE ( 'NONE', #23, 0.04750000000000064587, 0.7853981633974457255 ) ;
#230 = CARTESIAN_POINT ( 'NONE',  ( 0.0000000000000000000, 0.0000000000000000000, 1.485000000000000764 ) ) ;
#231 = ADVANCED_FACE ( 'NONE', ( #89 ), #229, .T. ) ;
#232 =( LENGTH_UNIT ( ) NAMED_UNIT ( * ) SI_UNIT ( $, .METRE. ) );
#233 = EDGE_LOOP ( 'NONE', ( #283, #120, #299, #53 ) ) ;
#234 = EDGE_LOOP ( 'NONE', ( #247, #213, #109, #141 ) ) ;
#235 = PLANE ( 'NONE',  #123 ) ;
#236 = DIRECTION ( 'NONE',  ( 0.0000000000000000000, 0.0000000000000000000, 1.000000000000000000 ) ) ;
#237 = CARTESIAN_POINT ( 'NONE',  ( -0.06250000000000000000, 0.0000000000000000000, 1.485000000000000764 ) ) ;
#238 = DIRECTION ( 'NONE',  ( 1.000000000000000000, 0.0000000000000000000, 0.0000000000000000000 ) ) ;
#239 = EDGE_CURVE ( 'NONE', #26, #115, #193, .T. ) ;
#240 = EDGE_CURVE ( 'NONE', #215, #279, #16, .T. ) ;
#241 = ORIENTED_EDGE ( 'NONE', *, *, #139, .T. ) ;
#242 = CARTESIAN_POINT ( 'NONE',  ( -0.06250000000000000000, 0.0000000000000000000, 1.500000000000000222 ) ) ;
#243 = DIRECTION ( 'NONE',  ( 1.000000000000000000, 0.0000000000000000000, -0.0000000000000000000 ) ) ;
#244 = VECTOR ( 'NONE', #40, 39.37007874015748854 ) ;
#245 = LINE ( 'NONE', #146, #244 ) ;
#246 = CARTESIAN_POINT ( 'NONE',  ( 0.06243750000000001382, 7.646388452176287375E-18, 0.0000000000000000000 ) ) ;
#247 = ORIENTED_EDGE ( 'NONE', *, *, #46, .F. ) ;
#248 = CARTESIAN_POINT ( 'NONE',  ( 0.06250000000000005551, 7.654042494670962167E-18, 0.5003544551137261154 ) ) ;
#249 = FILL_AREA_STYLE ('',( #206 ) ) ;
#250 = AXIS2_PLACEMENT_3D ( 'NONE', #264, #200, #129 ) ;
#251 = AXIS2_PLACEMENT_3D ( 'NONE', #293, #38, #81 ) ;
#252 = DIRECTION ( 'NONE',  ( 1.000000000000000000, 0.0000000000000000000, 0.0000000000000000000 ) ) ;
#253 = ORIENTED_EDGE ( 'NONE', *, *, #269, .F. ) ;
#254 = UNCERTAINTY_MEASURE_WITH_UNIT (LENGTH_MEASURE( 1.000000000000000082E-05 ), #157, 'distance_accuracy_value', 'NONE');
#255 = ORIENTED_EDGE ( 'NONE', *, *, #100, .F. ) ;
#256 = EDGE_CURVE ( 'NONE', #20, #87, #74, .T. ) ;
#257 = VECTOR ( 'NONE', #111, 39.37007874015748143 ) ;
#258 = CARTESIAN_POINT ( 'NONE',  ( 0.06243750000000005546, 0.0000000000000000000, 0.5000000000000000000 ) ) ;
#259 = DIRECTION ( 'NONE',  ( -1.224646799147353454E-16, -0.0000000000000000000, -1.000000000000000000 ) ) ;
#260 = SURFACE_STYLE_USAGE ( .BOTH. , #73 ) ;
#261 = ORIENTED_EDGE ( 'NONE', *, *, #256, .F. ) ;
#262 = AXIS2_PLACEMENT_3D ( 'NONE', #185, #133, #44 ) ;
#263 = AXIS2_PLACEMENT_3D ( 'NONE', #161, #271, #180 ) ;
#264 = CARTESIAN_POINT ( 'NONE',  ( 6.123233995736767268E-17, 0.0000000000000000000, 0.5000000000000000000 ) ) ;
#265 = LINE ( 'NONE', #242, #39 ) ;
#266 = DIRECTION ( 'NONE',  ( -1.224646799147353454E-16, -0.0000000000000000000, -1.000000000000000000 ) ) ;
#267 = EDGE_LOOP ( 'NONE', ( #255, #163, #214, #72 ) ) ;
#268 = CARTESIAN_POINT ( 'NONE',  ( -0.04750000000000064587, 0.0000000000000000000, 1.500000000000000222 ) ) ;
#269 = EDGE_CURVE ( 'NONE', #52, #96, #82, .T. ) ;
#270 = CARTESIAN_POINT ( 'NONE',  ( 0.06243749999999999994, 7.646388452176287375E-18, -7.646388452176288915E-18 ) ) ;
#271 = DIRECTION ( 'NONE',  ( 0.0000000000000000000, 0.0000000000000000000, 1.000000000000000000 ) ) ;
#272 = CIRCLE ( 'NONE', #250, 0.06243749999999999301 ) ;
#273 = DIRECTION ( 'NONE',  ( -0.0000000000000000000, -0.0000000000000000000, -1.000000000000000000 ) ) ;
#274 = CYLINDRICAL_SURFACE ( 'NONE', #79, 0.06250000000000000000 ) ;
#275 = PRODUCT ( 'Micro_SFA-125-24', 'Micro_SFA-125-24', '', ( #164 ) ) ;
#276 = EDGE_LOOP ( 'NONE', ( #144, #203 ) ) ;
#277 = AXIS2_PLACEMENT_3D ( 'NONE', #166, #78, #175 ) ;
#278 = LENGTH_MEASURE_WITH_UNIT ( LENGTH_MEASURE( 0.02539999999999999897 ), #112 );
#279 = VERTEX_POINT ( 'NONE', #51 ) ;
#280 = ADVANCED_FACE ( 'NONE', ( #132 ), #235, .F. ) ;
#281 = CARTESIAN_POINT ( 'NONE',  ( -0.06243749999999993749, 7.650215473423621689E-18, 0.5000000000000000000 ) ) ;
#282 =( NAMED_UNIT ( * ) SI_UNIT ( $, .STERADIAN. ) SOLID_ANGLE_UNIT ( ) );
#283 = ORIENTED_EDGE ( 'NONE', *, *, #239, .T. ) ;
#284 = DIRECTION ( 'NONE',  ( -1.000000000000000000, 0.0000000000000000000, 1.224646799147353700E-16 ) ) ;
#285 = PRODUCT_DEFINITION_SHAPE ( 'NONE', 'NONE',  #117 ) ;
#286 = AXIS2_PLACEMENT_3D ( 'NONE', #124, #205, #243 ) ;
#287 = PRODUCT_DEFINITION_FORMATION_WITH_SPECIFIED_SOURCE ( 'ANY', '', #275, .NOT_KNOWN. ) ;
#288 = CARTESIAN_POINT ( 'NONE',  ( 0.0000000000000000000, 0.0000000000000000000, 0.0000000000000000000 ) ) ;
#289 = EDGE_CURVE ( 'NONE', #279, #215, #294, .T. ) ;
#290 =( NAMED_UNIT ( * ) PLANE_ANGLE_UNIT ( ) SI_UNIT ( $, .RADIAN. ) );
#291 = DIMENSIONAL_EXPONENTS ( 1.000000000000000000, 0.0000000000000000000, 0.0000000000000000000, 0.0000000000000000000, 0.0000000000000000000, 0.0000000000000000000, 0.0000000000000000000 ) ;
#292 =( NAMED_UNIT ( * ) SI_UNIT ( $, .STERADIAN. ) SOLID_ANGLE_UNIT ( ) );
#293 = CARTESIAN_POINT ( 'NONE',  ( 6.123233995736767268E-17, 0.0000000000000000000, 0.5000000000000000000 ) ) ;
#294 = CIRCLE ( 'NONE', #189, 0.06250000000000000000 ) ;
#295 = DIRECTION ( 'NONE',  ( 1.000000000000000000, 0.0000000000000000000, 0.0000000000000000000 ) ) ;
#296 = SURFACE_STYLE_USAGE ( .BOTH. , #45 ) ;
#297 = AXIS2_PLACEMENT_3D ( 'NONE', #177, #266, #223 ) ;
#298 = DIRECTION ( 'NONE',  ( -0.0000000000000000000, -0.0000000000000000000, -1.000000000000000000 ) ) ;
#299 = ORIENTED_EDGE ( 'NONE', *, *, #289, .F. ) ;
ENDSEC;
END-ISO-10303-21;
