ISO-10303-21;
HEADER;
FILE_DESCRIPTION (( 'STEP AP214' ),
    '1' );
FILE_NAME ('48046.STEP',
    '2023-06-22T21:03:39',
    ( '' ),
    ( '' ),
    'SwSTEP 2.0',
    'SolidWorks 2023',
    '' );
FILE_SCHEMA (( 'AUTOMOTIVE_DESIGN' ));
ENDSEC;

DATA;
#1 = VERTEX_POINT ( 'NONE', #137 ) ;
#2 =( NAMED_UNIT ( * ) SI_UNIT ( $, .STERADIAN. ) SOLID_ANGLE_UNIT ( ) );
#3 = DIRECTION ( 'NONE',  ( -0.000000000000000000, -1.000000000000000000, -0.000000000000000000 ) ) ;
#4 = EDGE_CURVE ( 'NONE', #186, #51, #238, .T. ) ;
#5 = FACE_OUTER_BOUND ( 'NONE', #255, .T. ) ;
#6 = SHAPE_DEFINITION_REPRESENTATION ( #113, #150 ) ;
#7 = DIRECTION ( 'NONE',  ( 0.000000000000000000, 0.000000000000000000, -1.000000000000000000 ) ) ;
#8 = STYLED_ITEM ( 'NONE', ( #132 ), #129 ) ;
#9 = UNCERTAINTY_MEASURE_WITH_UNIT (LENGTH_MEASURE( 1.000000000000000082E-05 ), #210, 'distance_accuracy_value', 'NONE');
#10 = CIRCLE ( 'NONE', #289, 0.09375000000000005551 ) ;
#11 = AXIS2_PLACEMENT_3D ( 'NONE', #175, #171, #125 ) ;
#12 = ORIENTED_EDGE ( 'NONE', *, *, #139, .T. ) ;
#13 = DIRECTION ( 'NONE',  ( -3.498990854706722745E-17, 1.000000000000000000, -0.000000000000000000 ) ) ;
#14 =( NAMED_UNIT ( * ) SI_UNIT ( $, .STERADIAN. ) SOLID_ANGLE_UNIT ( ) );
#15 = PRESENTATION_LAYER_ASSIGNMENT (  '', '', ( #284 ) ) ;
#16 = FACE_OUTER_BOUND ( 'NONE', #119, .T. ) ;
#17 = VERTEX_POINT ( 'NONE', #163 ) ;
#18 = DIRECTION ( 'NONE',  ( 1.000000000000000000, 3.498990854706722745E-17, 0.000000000000000000 ) ) ;
#19 = VERTEX_POINT ( 'NONE', #114 ) ;
#20 = SURFACE_STYLE_USAGE ( .BOTH. , #95 ) ;
#21 = DIRECTION ( 'NONE',  ( 0.000000000000000000, 0.000000000000000000, -1.000000000000000000 ) ) ;
#22 = ORIENTED_EDGE ( 'NONE', *, *, #77, .F. ) ;
#23 = MANIFOLD_SOLID_BREP ( 'Revolve - Tool Body (Straight Shanked)', #31 ) ;
#24 = CARTESIAN_POINT ( 'NONE',  ( 0.000000000000000000, 0.000000000000000000, 0.000000000000000000 ) ) ;
#25 = CARTESIAN_POINT ( 'NONE',  ( -6.123233995736766036E-17, 2.500000000000000000, 0.000000000000000000 ) ) ;
#26 = DIRECTION ( 'NONE',  ( 0.000000000000000000, -1.000000000000000000, -0.000000000000000000 ) ) ;
#27 =( GEOMETRIC_REPRESENTATION_CONTEXT ( 3 ) GLOBAL_UNCERTAINTY_ASSIGNED_CONTEXT ( ( #104 ) ) GLOBAL_UNIT_ASSIGNED_CONTEXT ( ( #128, #66, #14 ) ) REPRESENTATION_CONTEXT ( 'NONE', 'WORKASPACE' ) );
#28 =( NAMED_UNIT ( * ) PLANE_ANGLE_UNIT ( ) SI_UNIT ( $, .RADIAN. ) );
#29 = DIRECTION ( 'NONE',  ( 0.000000000000000000, 0.000000000000000000, -1.000000000000000000 ) ) ;
#30 = PRESENTATION_STYLE_ASSIGNMENT (( #293 ) ) ;
#31 = CLOSED_SHELL ( 'NONE', ( #46, #290, #181, #172 ) ) ;
#32 = CIRCLE ( 'NONE', #196, 0.09374999999999998612 ) ;
#33 = ORIENTED_EDGE ( 'NONE', *, *, #57, .F. ) ;
#34 = COLOUR_RGB ( '',0.7921568627450980005, 0.8196078431372548767, 0.9333333333333333481 ) ;
#35 = PRESENTATION_LAYER_ASSIGNMENT (  '', '', ( #8 ) ) ;
#36 = EDGE_CURVE ( 'NONE', #1, #235, #278, .T. ) ;
#37 = SURFACE_STYLE_USAGE ( .BOTH. , #306 ) ;
#38 = FILL_AREA_STYLE_COLOUR ( '', #273 ) ;
#39 = DIMENSIONAL_EXPONENTS ( 1.000000000000000000, 0.000000000000000000, 0.000000000000000000, 0.000000000000000000, 0.000000000000000000, 0.000000000000000000, 0.000000000000000000 ) ;
#40 = CARTESIAN_POINT ( 'NONE',  ( 1.148106374200643401E-17, 0.000000000000000000, 0.09374999999999998612 ) ) ;
#41 =( NAMED_UNIT ( * ) PLANE_ANGLE_UNIT ( ) SI_UNIT ( $, .RADIAN. ) );
#42 = VERTEX_POINT ( 'NONE', #270 ) ;
#43 = SURFACE_STYLE_FILL_AREA ( #303 ) ;
#44 = ORIENTED_EDGE ( 'NONE', *, *, #111, .T. ) ;
#45 = AXIS2_PLACEMENT_3D ( 'NONE', #177, #82, #122 ) ;
#46 = ADVANCED_FACE ( 'NONE', ( #250 ), #287, .T. ) ;
#47 = FACE_OUTER_BOUND ( 'NONE', #131, .T. ) ;
#48 = AXIS2_PLACEMENT_3D ( 'NONE', #262, #286, #144 ) ;
#49 = ORIENTED_EDGE ( 'NONE', *, *, #118, .F. ) ;
#50 = CARTESIAN_POINT ( 'NONE',  ( -0.09375000000000009714, 2.500000000000000000, 0.000000000000000000 ) ) ;
#51 = VERTEX_POINT ( 'NONE', #285 ) ;
#52 = UNCERTAINTY_MEASURE_WITH_UNIT (LENGTH_MEASURE( 1.000000000000000082E-05 ), #222, 'distance_accuracy_value', 'NONE');
#53 = PRESENTATION_STYLE_ASSIGNMENT (( #215 ) ) ;
#54 = AXIS2_PLACEMENT_3D ( 'NONE', #225, #280, #258 ) ;
#55 = FACE_OUTER_BOUND ( 'NONE', #282, .T. ) ;
#56 =( LENGTH_UNIT ( ) NAMED_UNIT ( * ) SI_UNIT ( $, .METRE. ) );
#57 = EDGE_CURVE ( 'NONE', #51, #186, #10, .T. ) ;
#58 = UNCERTAINTY_MEASURE_WITH_UNIT (LENGTH_MEASURE( 1.000000000000000082E-05 ), #276, 'distance_accuracy_value', 'NONE');
#59 = PRESENTATION_LAYER_ASSIGNMENT (  '', '', ( #266 ) ) ;
#60 =( CONVERSION_BASED_UNIT ( 'INCH', #207 ) LENGTH_UNIT ( ) NAMED_UNIT ( #302 ) );
#61 = APPLICATION_PROTOCOL_DEFINITION ( 'draft international standard', 'automotive_design', 1998, #155 ) ;
#62 = ADVANCED_FACE ( 'NONE', ( #103 ), #197, .T. ) ;
#63 = PRESENTATION_LAYER_ASSIGNMENT (  '', '', ( #199 ) ) ;
#64 = ORIENTED_EDGE ( 'NONE', *, *, #36, .T. ) ;
#65 =( LENGTH_UNIT ( ) NAMED_UNIT ( * ) SI_UNIT ( $, .METRE. ) );
#66 =( NAMED_UNIT ( * ) PLANE_ANGLE_UNIT ( ) SI_UNIT ( $, .RADIAN. ) );
#67 = AXIS2_PLACEMENT_3D ( 'NONE', #252, #112, #301 ) ;
#68 = FILL_AREA_STYLE_COLOUR ( '', #105 ) ;
#69 =( LENGTH_UNIT ( ) NAMED_UNIT ( * ) SI_UNIT ( $, .METRE. ) );
#70 = ORIENTED_EDGE ( 'NONE', *, *, #4, .F. ) ;
#71 = LINE ( 'NONE', #50, #218 ) ;
#72 = ORIENTED_EDGE ( 'NONE', *, *, #118, .T. ) ;
#73 =( GEOMETRIC_REPRESENTATION_CONTEXT ( 3 ) GLOBAL_UNCERTAINTY_ASSIGNED_CONTEXT ( ( #257 ) ) GLOBAL_UNIT_ASSIGNED_CONTEXT ( ( #237, #79, #2 ) ) REPRESENTATION_CONTEXT ( 'NONE', 'WORKASPACE' ) );
#74 = LENGTH_MEASURE_WITH_UNIT ( LENGTH_MEASURE( 0.02539999999999999897 ), #283 );
#75 =( NAMED_UNIT ( * ) PLANE_ANGLE_UNIT ( ) SI_UNIT ( $, .RADIAN. ) );
#76 = DIRECTION ( 'NONE',  ( -3.498990854706722745E-17, 1.000000000000000000, -0.000000000000000000 ) ) ;
#77 = EDGE_CURVE ( 'NONE', #17, #42, #195, .T. ) ;
#78 =( NAMED_UNIT ( * ) SI_UNIT ( $, .STERADIAN. ) SOLID_ANGLE_UNIT ( ) );
#79 =( NAMED_UNIT ( * ) PLANE_ANGLE_UNIT ( ) SI_UNIT ( $, .RADIAN. ) );
#80 = DIRECTION ( 'NONE',  ( -1.000000000000000000, 0.000000000000000000, 0.000000000000000000 ) ) ;
#81 = FILL_AREA_STYLE ('',( #130 ) ) ;
#82 = DIRECTION ( 'NONE',  ( -0.000000000000000000, -1.000000000000000000, -0.000000000000000000 ) ) ;
#83 = MECHANICAL_DESIGN_GEOMETRIC_PRESENTATION_REPRESENTATION (  '', ( #284 ), #27 ) ;
#84 = CIRCLE ( 'NONE', #54, 0.09375000000000001388 ) ;
#85 = VERTEX_POINT ( 'NONE', #142 ) ;
#86 = SURFACE_SIDE_STYLE ('',( #43 ) ) ;
#87 = PRODUCT_DEFINITION ( 'UNKNOWN', '', #247, #89 ) ;
#88 = CARTESIAN_POINT ( 'NONE',  ( 0.09374999999999998612, 2.500000000000000000, 1.148106374200644171E-17 ) ) ;
#89 = PRODUCT_DEFINITION_CONTEXT ( 'detailed design', #248, 'design' ) ;
#90 = DIRECTION ( 'NONE',  ( -3.498990854706722745E-17, 1.000000000000000000, -0.000000000000000000 ) ) ;
#91 = ORIENTED_EDGE ( 'NONE', *, *, #57, .T. ) ;
#92 = FILL_AREA_STYLE ('',( #156 ) ) ;
#93 = CARTESIAN_POINT ( 'NONE',  ( 0.09374999999999995837, 2.500000000000000000, 1.148106374200644017E-17 ) ) ;
#94 = EDGE_LOOP ( 'NONE', ( #12, #228, #33, #209 ) ) ;
#95 = SURFACE_SIDE_STYLE ('',( #309 ) ) ;
#96 = AXIS2_PLACEMENT_3D ( 'NONE', #25, #233, #190 ) ;
#97 = DIRECTION ( 'NONE',  ( 0.000000000000000000, 0.000000000000000000, -1.000000000000000000 ) ) ;
#98 = ORIENTED_EDGE ( 'NONE', *, *, #4, .T. ) ;
#99 = CARTESIAN_POINT ( 'NONE',  ( 5.738876719369350386E-35, 0.7500000000000001110, 0.000000000000000000 ) ) ;
#100 = PLANE ( 'NONE',  #67 ) ;
#101 = PRODUCT_RELATED_PRODUCT_CATEGORY ( 'part', '', ( #162 ) ) ;
#102 = DIRECTION ( 'NONE',  ( -1.000000000000000000, 0.000000000000000000, 0.000000000000000000 ) ) ;
#103 = FACE_OUTER_BOUND ( 'NONE', #176, .T. ) ;
#104 = UNCERTAINTY_MEASURE_WITH_UNIT (LENGTH_MEASURE( 1.000000000000000082E-05 ), #128, 'distance_accuracy_value', 'NONE');
#105 = COLOUR_RGB ( '',0.7921568627450980005, 0.8196078431372548767, 0.9333333333333333481 ) ;
#106 = CARTESIAN_POINT ( 'NONE',  ( -6.123233995736766036E-17, 2.500000000000000000, 0.000000000000000000 ) ) ;
#107 = COLOUR_RGB ( '',1.000000000000000000, 0.000000000000000000, 0.000000000000000000 ) ;
#108 = UNCERTAINTY_MEASURE_WITH_UNIT (LENGTH_MEASURE( 1.000000000000000082E-05 ), #188, 'distance_accuracy_value', 'NONE');
#109 = CARTESIAN_POINT ( 'NONE',  ( -7.582401355855259480E-33, 0.7499999999999998890, 0.000000000000000000 ) ) ;
#110 = ORIENTED_EDGE ( 'NONE', *, *, #307, .F. ) ;
#111 = EDGE_CURVE ( 'NONE', #1, #17, #299, .T. ) ;
#112 = DIRECTION ( 'NONE',  ( 0.000000000000000000, 1.000000000000000000, 0.000000000000000000 ) ) ;
#114 = CARTESIAN_POINT ( 'NONE',  ( -0.09374999999999998612, 0.7499999999999998890, 0.000000000000000000 ) ) ;
#113 = PRODUCT_DEFINITION_SHAPE ( 'NONE', 'NONE',  #87 ) ;
#115 = MECHANICAL_DESIGN_GEOMETRIC_PRESENTATION_REPRESENTATION (  '', ( #246 ), #231 ) ;
#116 = VECTOR ( 'NONE', #76, 39.37007874015748143 ) ;
#117 = PRESENTATION_STYLE_ASSIGNMENT (( #20 ) ) ;
#118 = EDGE_CURVE ( 'NONE', #17, #1, #213, .T. ) ;
#119 = EDGE_LOOP ( 'NONE', ( #226, #157, #281, #70 ) ) ;
#120 = CARTESIAN_POINT ( 'NONE',  ( 1.148106374200643555E-17, 0.000000000000000000, 0.09375000000000001388 ) ) ;
#121 =( LENGTH_UNIT ( ) NAMED_UNIT ( * ) SI_UNIT ( $, .METRE. ) );
#122 = DIRECTION ( 'NONE',  ( 0.000000000000000000, 0.000000000000000000, -1.000000000000000000 ) ) ;
#123 = LINE ( 'NONE', #93, #116 ) ;
#124 = DIRECTION ( 'NONE',  ( -0.000000000000000000, -1.000000000000000000, -0.000000000000000000 ) ) ;
#125 = DIRECTION ( 'NONE',  ( 1.000000000000000000, 0.000000000000000000, 0.000000000000000000 ) ) ;
#126 = ADVANCED_FACE ( 'NONE', ( #5 ), #100, .T. ) ;
#127 = AXIS2_PLACEMENT_3D ( 'NONE', #99, #141, #212 ) ;
#128 =( CONVERSION_BASED_UNIT ( 'INCH', #152 ) LENGTH_UNIT ( ) NAMED_UNIT ( #230 ) );
#129 = MANIFOLD_SOLID_BREP ( 'Revolve - Cutting Edge', #305 ) ;
#130 = FILL_AREA_STYLE_COLOUR ( '', #153 ) ;
#131 = EDGE_LOOP ( 'NONE', ( #304, #110 ) ) ;
#132 = PRESENTATION_STYLE_ASSIGNMENT (( #37 ) ) ;
#133 = EDGE_LOOP ( 'NONE', ( #259, #220 ) ) ;
#134 = DIMENSIONAL_EXPONENTS ( 1.000000000000000000, 0.000000000000000000, 0.000000000000000000, 0.000000000000000000, 0.000000000000000000, 0.000000000000000000, 0.000000000000000000 ) ;
#135 = FACE_OUTER_BOUND ( 'NONE', #140, .T. ) ;
#136 = ORIENTED_EDGE ( 'NONE', *, *, #111, .F. ) ;
#137 = CARTESIAN_POINT ( 'NONE',  ( 1.148106374200643401E-17, 0.7500000000000001110, 0.09374999999999998612 ) ) ;
#138 = FILL_AREA_STYLE_COLOUR ( '', #143 ) ;
#139 = EDGE_CURVE ( 'NONE', #19, #85, #201, .T. ) ;
#140 = EDGE_LOOP ( 'NONE', ( #91, #98 ) ) ;
#141 = DIRECTION ( 'NONE',  ( -3.498990854706722745E-17, 1.000000000000000000, 0.000000000000000000 ) ) ;
#142 = CARTESIAN_POINT ( 'NONE',  ( 0.09374999999999998612, 0.7499999999999998890, 1.148106374200644171E-17 ) ) ;
#143 = COLOUR_RGB ( '',1.000000000000000000, 0.000000000000000000, 0.000000000000000000 ) ;
#144 = DIRECTION ( 'NONE',  ( 0.000000000000000000, 0.000000000000000000, -1.000000000000000000 ) ) ;
#145 = CARTESIAN_POINT ( 'NONE',  ( 0.000000000000000000, 0.000000000000000000, -0.09374999999999998612 ) ) ;
#146 = EDGE_CURVE ( 'NONE', #42, #235, #84, .T. ) ;
#147 = DIRECTION ( 'NONE',  ( -0.000000000000000000, -1.000000000000000000, -0.000000000000000000 ) ) ;
#148 = PRESENTATION_STYLE_ASSIGNMENT (( #268 ) ) ;
#149 = DIRECTION ( 'NONE',  ( -0.000000000000000000, -1.000000000000000000, -0.000000000000000000 ) ) ;
#150 = ADVANCED_BREP_SHAPE_REPRESENTATION ( '48046', ( #129, #23, #11 ), #206 ) ;
#151 =( NAMED_UNIT ( * ) PLANE_ANGLE_UNIT ( ) SI_UNIT ( $, .RADIAN. ) );
#152 = LENGTH_MEASURE_WITH_UNIT ( LENGTH_MEASURE( 0.02539999999999999897 ), #56 );
#153 = COLOUR_RGB ( '',1.000000000000000000, 0.000000000000000000, 0.000000000000000000 ) ;
#154 = AXIS2_PLACEMENT_3D ( 'NONE', #200, #275, #18 ) ;
#155 = APPLICATION_CONTEXT ( 'automotive_design' ) ;
#156 = FILL_AREA_STYLE_COLOUR ( '', #34 ) ;
#157 = ORIENTED_EDGE ( 'NONE', *, *, #307, .T. ) ;
#158 =( NAMED_UNIT ( * ) SI_UNIT ( $, .STERADIAN. ) SOLID_ANGLE_UNIT ( ) );
#159 = ORIENTED_EDGE ( 'NONE', *, *, #251, .F. ) ;
#160 = PLANE ( 'NONE',  #127 ) ;
#161 = AXIS2_PLACEMENT_3D ( 'NONE', #295, #124, #7 ) ;
#163 = CARTESIAN_POINT ( 'NONE',  ( 0.000000000000000000, 0.7500000000000001110, -0.09374999999999998612 ) ) ;
#162 = PRODUCT ( '48046', '48046', '', ( #294 ) ) ;
#164 = VECTOR ( 'NONE', #241, 39.37007874015748143 ) ;
#165 =( GEOMETRIC_REPRESENTATION_CONTEXT ( 3 ) GLOBAL_UNCERTAINTY_ASSIGNED_CONTEXT ( ( #58 ) ) GLOBAL_UNIT_ASSIGNED_CONTEXT ( ( #276, #41, #158 ) ) REPRESENTATION_CONTEXT ( 'NONE', 'WORKASPACE' ) );
#166 =( NAMED_UNIT ( * ) SI_UNIT ( $, .STERADIAN. ) SOLID_ANGLE_UNIT ( ) );
#167 = CYLINDRICAL_SURFACE ( 'NONE', #202, 0.09374999999999998612 ) ;
#168 = SURFACE_SIDE_STYLE ('',( #219 ) ) ;
#169 = FILL_AREA_STYLE ('',( #138 ) ) ;
#170 = FILL_AREA_STYLE ('',( #291 ) ) ;
#171 = DIRECTION ( 'NONE',  ( 0.000000000000000000, 0.000000000000000000, 1.000000000000000000 ) ) ;
#172 = ADVANCED_FACE ( 'NONE', ( #135 ), #254, .F. ) ;
#173 = AXIS2_PLACEMENT_3D ( 'NONE', #193, #265, #80 ) ;
#174 = MECHANICAL_DESIGN_GEOMETRIC_PRESENTATION_REPRESENTATION (  '', ( #8 ), #165 ) ;
#175 = CARTESIAN_POINT ( 'NONE',  ( 0.000000000000000000, 0.000000000000000000, 0.000000000000000000 ) ) ;
#176 = EDGE_LOOP ( 'NONE', ( #204, #44, #308, #159 ) ) ;
#177 = CARTESIAN_POINT ( 'NONE',  ( 0.000000000000000000, 0.000000000000000000, 0.000000000000000000 ) ) ;
#178 = MECHANICAL_DESIGN_GEOMETRIC_PRESENTATION_REPRESENTATION (  '', ( #199 ), #198 ) ;
#179 = AXIS2_PLACEMENT_3D ( 'NONE', #24, #26, #21 ) ;
#180 = FACE_OUTER_BOUND ( 'NONE', #133, .T. ) ;
#181 = ADVANCED_FACE ( 'NONE', ( #16 ), #227, .T. ) ;
#182 = SURFACE_STYLE_FILL_AREA ( #92 ) ;
#183 = SURFACE_STYLE_USAGE ( .BOTH. , #86 ) ;
#184 = VECTOR ( 'NONE', #149, 39.37007874015748143 ) ;
#185 = PRESENTATION_LAYER_ASSIGNMENT (  '', '', ( #297 ) ) ;
#186 = VERTEX_POINT ( 'NONE', #88 ) ;
#187 = DIRECTION ( 'NONE',  ( -3.498990854706722745E-17, 1.000000000000000000, -0.000000000000000000 ) ) ;
#188 =( CONVERSION_BASED_UNIT ( 'INCH', #214 ) LENGTH_UNIT ( ) NAMED_UNIT ( #134 ) );
#189 = DIRECTION ( 'NONE',  ( -3.498990854706722745E-17, 1.000000000000000000, -0.000000000000000000 ) ) ;
#190 = DIRECTION ( 'NONE',  ( -1.000000000000000000, 0.000000000000000000, 0.000000000000000000 ) ) ;
#191 = SURFACE_SIDE_STYLE ('',( #217 ) ) ;
#192 =( NAMED_UNIT ( * ) PLANE_ANGLE_UNIT ( ) SI_UNIT ( $, .RADIAN. ) );
#193 = CARTESIAN_POINT ( 'NONE',  ( -6.123233995736766036E-17, 2.500000000000000000, 0.000000000000000000 ) ) ;
#194 = DIRECTION ( 'NONE',  ( -1.000000000000000000, 0.000000000000000000, 0.000000000000000000 ) ) ;
#195 = LINE ( 'NONE', #145, #164 ) ;
#196 = AXIS2_PLACEMENT_3D ( 'NONE', #234, #242, #194 ) ;
#197 = CYLINDRICAL_SURFACE ( 'NONE', #45, 0.09374999999999998612 ) ;
#198 =( GEOMETRIC_REPRESENTATION_CONTEXT ( 3 ) GLOBAL_UNCERTAINTY_ASSIGNED_CONTEXT ( ( #108 ) ) GLOBAL_UNIT_ASSIGNED_CONTEXT ( ( #188, #75, #263 ) ) REPRESENTATION_CONTEXT ( 'NONE', 'WORKASPACE' ) );
#199 = STYLED_ITEM ( 'NONE', ( #117 ), #23 ) ;
#200 = CARTESIAN_POINT ( 'NONE',  ( 0.09374999999999998612, 2.500000000000000000, 0.000000000000000000 ) ) ;
#201 = CIRCLE ( 'NONE', #240, 0.09374999999999998612 ) ;
#202 = AXIS2_PLACEMENT_3D ( 'NONE', #267, #147, #97 ) ;
#203 = PLANE ( 'NONE',  #179 ) ;
#204 = ORIENTED_EDGE ( 'NONE', *, *, #36, .F. ) ;
#205 = DIRECTION ( 'NONE',  ( -1.000000000000000000, 0.000000000000000000, 0.000000000000000000 ) ) ;
#206 =( GEOMETRIC_REPRESENTATION_CONTEXT ( 3 ) GLOBAL_UNCERTAINTY_ASSIGNED_CONTEXT ( ( #277 ) ) GLOBAL_UNIT_ASSIGNED_CONTEXT ( ( #60, #151, #298 ) ) REPRESENTATION_CONTEXT ( 'NONE', 'WORKASPACE' ) );
#207 = LENGTH_MEASURE_WITH_UNIT ( LENGTH_MEASURE( 0.02539999999999999897 ), #288 );
#208 = ADVANCED_FACE ( 'NONE', ( #180 ), #203, .T. ) ;
#209 = ORIENTED_EDGE ( 'NONE', *, *, #256, .F. ) ;
#210 =( CONVERSION_BASED_UNIT ( 'INCH', #229 ) LENGTH_UNIT ( ) NAMED_UNIT ( #260 ) );
#211 = FILL_AREA_STYLE ('',( #68 ) ) ;
#212 = DIRECTION ( 'NONE',  ( -1.000000000000000000, -3.498990854706722745E-17, 0.000000000000000000 ) ) ;
#213 = CIRCLE ( 'NONE', #161, 0.09374999999999998612 ) ;
#214 = LENGTH_MEASURE_WITH_UNIT ( LENGTH_MEASURE( 0.02539999999999999897 ), #121 );
#215 = SURFACE_STYLE_USAGE ( .BOTH. , #191 ) ;
#216 = CARTESIAN_POINT ( 'NONE',  ( 0.000000000000000000, 0.7500000000000001110, 0.000000000000000000 ) ) ;
#217 = SURFACE_STYLE_FILL_AREA ( #169 ) ;
#218 = VECTOR ( 'NONE', #189, 39.37007874015748143 ) ;
#219 = SURFACE_STYLE_FILL_AREA ( #81 ) ;
#220 = ORIENTED_EDGE ( 'NONE', *, *, #251, .T. ) ;
#221 =( GEOMETRIC_REPRESENTATION_CONTEXT ( 3 ) GLOBAL_UNCERTAINTY_ASSIGNED_CONTEXT ( ( #9 ) ) GLOBAL_UNIT_ASSIGNED_CONTEXT ( ( #210, #192, #166 ) ) REPRESENTATION_CONTEXT ( 'NONE', 'WORKASPACE' ) );
#222 =( CONVERSION_BASED_UNIT ( 'INCH', #243 ) LENGTH_UNIT ( ) NAMED_UNIT ( #39 ) );
#223 = LENGTH_MEASURE_WITH_UNIT ( LENGTH_MEASURE( 0.02539999999999999897 ), #65 );
#224 = PRESENTATION_STYLE_ASSIGNMENT (( #183 ) ) ;
#225 = CARTESIAN_POINT ( 'NONE',  ( 0.000000000000000000, 0.000000000000000000, 0.000000000000000000 ) ) ;
#226 = ORIENTED_EDGE ( 'NONE', *, *, #269, .F. ) ;
#227 = CYLINDRICAL_SURFACE ( 'NONE', #232, 0.09375000000000002776 ) ;
#228 = ORIENTED_EDGE ( 'NONE', *, *, #269, .T. ) ;
#229 = LENGTH_MEASURE_WITH_UNIT ( LENGTH_MEASURE( 0.02539999999999999897 ), #69 );
#230 = DIMENSIONAL_EXPONENTS ( 1.000000000000000000, 0.000000000000000000, 0.000000000000000000, 0.000000000000000000, 0.000000000000000000, 0.000000000000000000, 0.000000000000000000 ) ;
#231 =( GEOMETRIC_REPRESENTATION_CONTEXT ( 3 ) GLOBAL_UNCERTAINTY_ASSIGNED_CONTEXT ( ( #52 ) ) GLOBAL_UNIT_ASSIGNED_CONTEXT ( ( #222, #28, #78 ) ) REPRESENTATION_CONTEXT ( 'NONE', 'WORKASPACE' ) );
#232 = AXIS2_PLACEMENT_3D ( 'NONE', #274, #90, #253 ) ;
#233 = DIRECTION ( 'NONE',  ( -3.498990854706722745E-17, 1.000000000000000000, -0.000000000000000000 ) ) ;
#234 = CARTESIAN_POINT ( 'NONE',  ( -7.582401355855259480E-33, 0.7499999999999998890, 0.000000000000000000 ) ) ;
#235 = VERTEX_POINT ( 'NONE', #120 ) ;
#236 = DIMENSIONAL_EXPONENTS ( 1.000000000000000000, 0.000000000000000000, 0.000000000000000000, 0.000000000000000000, 0.000000000000000000, 0.000000000000000000, 0.000000000000000000 ) ;
#237 =( CONVERSION_BASED_UNIT ( 'INCH', #74 ) LENGTH_UNIT ( ) NAMED_UNIT ( #279 ) );
#238 = CIRCLE ( 'NONE', #96, 0.09375000000000005551 ) ;
#239 =( LENGTH_UNIT ( ) NAMED_UNIT ( * ) SI_UNIT ( $, .METRE. ) );
#240 = AXIS2_PLACEMENT_3D ( 'NONE', #109, #187, #205 ) ;
#241 = DIRECTION ( 'NONE',  ( -0.000000000000000000, -1.000000000000000000, -0.000000000000000000 ) ) ;
#242 = DIRECTION ( 'NONE',  ( -3.498990854706722745E-17, 1.000000000000000000, -0.000000000000000000 ) ) ;
#243 = LENGTH_MEASURE_WITH_UNIT ( LENGTH_MEASURE( 0.02539999999999999897 ), #239 );
#244 = ADVANCED_FACE ( 'NONE', ( #55 ), #167, .T. ) ;
#245 = SURFACE_STYLE_FILL_AREA ( #170 ) ;
#246 = STYLED_ITEM ( 'NONE', ( #30 ), #62 ) ;
#247 = PRODUCT_DEFINITION_FORMATION_WITH_SPECIFIED_SOURCE ( 'ANY', '', #162, .NOT_KNOWN. ) ;
#248 = APPLICATION_CONTEXT ( 'automotive_design' ) ;
#249 = MECHANICAL_DESIGN_GEOMETRIC_PRESENTATION_REPRESENTATION (  '', ( #297 ), #73 ) ;
#250 = FACE_OUTER_BOUND ( 'NONE', #94, .T. ) ;
#251 = EDGE_CURVE ( 'NONE', #235, #42, #292, .T. ) ;
#252 = CARTESIAN_POINT ( 'NONE',  ( 0.000000000000000000, 0.7500000000000001110, 0.000000000000000000 ) ) ;
#253 = DIRECTION ( 'NONE',  ( -1.000000000000000000, 0.000000000000000000, 0.000000000000000000 ) ) ;
#254 = PLANE ( 'NONE',  #154 ) ;
#255 = EDGE_LOOP ( 'NONE', ( #49, #136 ) ) ;
#256 = EDGE_CURVE ( 'NONE', #19, #51, #71, .T. ) ;
#257 = UNCERTAINTY_MEASURE_WITH_UNIT (LENGTH_MEASURE( 1.000000000000000082E-05 ), #237, 'distance_accuracy_value', 'NONE');
#258 = DIRECTION ( 'NONE',  ( 0.000000000000000000, 0.000000000000000000, -1.000000000000000000 ) ) ;
#259 = ORIENTED_EDGE ( 'NONE', *, *, #146, .T. ) ;
#260 = DIMENSIONAL_EXPONENTS ( 1.000000000000000000, 0.000000000000000000, 0.000000000000000000, 0.000000000000000000, 0.000000000000000000, 0.000000000000000000, 0.000000000000000000 ) ;
#261 = ORIENTED_EDGE ( 'NONE', *, *, #146, .F. ) ;
#262 = CARTESIAN_POINT ( 'NONE',  ( 0.000000000000000000, 0.000000000000000000, 0.000000000000000000 ) ) ;
#263 =( NAMED_UNIT ( * ) SI_UNIT ( $, .STERADIAN. ) SOLID_ANGLE_UNIT ( ) );
#264 = AXIS2_PLACEMENT_3D ( 'NONE', #216, #3, #29 ) ;
#265 = DIRECTION ( 'NONE',  ( -3.498990854706722745E-17, 1.000000000000000000, -0.000000000000000000 ) ) ;
#266 = STYLED_ITEM ( 'NONE', ( #224 ), #208 ) ;
#267 = CARTESIAN_POINT ( 'NONE',  ( 0.000000000000000000, 0.000000000000000000, 0.000000000000000000 ) ) ;
#268 = SURFACE_STYLE_USAGE ( .BOTH. , #272 ) ;
#269 = EDGE_CURVE ( 'NONE', #85, #186, #123, .T. ) ;
#270 = CARTESIAN_POINT ( 'NONE',  ( 0.000000000000000000, 0.000000000000000000, -0.09375000000000001388 ) ) ;
#271 = APPLICATION_PROTOCOL_DEFINITION ( 'draft international standard', 'automotive_design', 1998, #248 ) ;
#272 = SURFACE_SIDE_STYLE ('',( #245 ) ) ;
#273 = COLOUR_RGB ( '',1.000000000000000000, 0.000000000000000000, 0.000000000000000000 ) ;
#274 = CARTESIAN_POINT ( 'NONE',  ( -6.123233995736766036E-17, 2.500000000000000000, 0.000000000000000000 ) ) ;
#275 = DIRECTION ( 'NONE',  ( 3.498990854706722745E-17, -1.000000000000000000, 0.000000000000000000 ) ) ;
#276 =( CONVERSION_BASED_UNIT ( 'INCH', #223 ) LENGTH_UNIT ( ) NAMED_UNIT ( #236 ) );
#277 = UNCERTAINTY_MEASURE_WITH_UNIT (LENGTH_MEASURE( 1.000000000000000082E-05 ), #60, 'distance_accuracy_value', 'NONE');
#278 = LINE ( 'NONE', #40, #184 ) ;
#279 = DIMENSIONAL_EXPONENTS ( 1.000000000000000000, 0.000000000000000000, 0.000000000000000000, 0.000000000000000000, 0.000000000000000000, 0.000000000000000000, 0.000000000000000000 ) ;
#280 = DIRECTION ( 'NONE',  ( -0.000000000000000000, -1.000000000000000000, -0.000000000000000000 ) ) ;
#281 = ORIENTED_EDGE ( 'NONE', *, *, #256, .T. ) ;
#282 = EDGE_LOOP ( 'NONE', ( #72, #64, #261, #22 ) ) ;
#283 =( LENGTH_UNIT ( ) NAMED_UNIT ( * ) SI_UNIT ( $, .METRE. ) );
#284 = STYLED_ITEM ( 'NONE', ( #148 ), #126 ) ;
#285 = CARTESIAN_POINT ( 'NONE',  ( -0.09375000000000012490, 2.500000000000000000, 0.000000000000000000 ) ) ;
#286 = DIRECTION ( 'NONE',  ( -0.000000000000000000, -1.000000000000000000, -0.000000000000000000 ) ) ;
#287 = CYLINDRICAL_SURFACE ( 'NONE', #173, 0.09375000000000002776 ) ;
#288 =( LENGTH_UNIT ( ) NAMED_UNIT ( * ) SI_UNIT ( $, .METRE. ) );
#289 = AXIS2_PLACEMENT_3D ( 'NONE', #106, #13, #102 ) ;
#290 = ADVANCED_FACE ( 'NONE', ( #47 ), #160, .F. ) ;
#291 = FILL_AREA_STYLE_COLOUR ( '', #107 ) ;
#292 = CIRCLE ( 'NONE', #48, 0.09375000000000001388 ) ;
#293 = SURFACE_STYLE_USAGE ( .BOTH. , #168 ) ;
#294 = PRODUCT_CONTEXT ( 'NONE', #155, 'mechanical' ) ;
#295 = CARTESIAN_POINT ( 'NONE',  ( 0.000000000000000000, 0.7500000000000001110, 0.000000000000000000 ) ) ;
#296 = PRESENTATION_LAYER_ASSIGNMENT (  '', '', ( #246 ) ) ;
#297 = STYLED_ITEM ( 'NONE', ( #53 ), #244 ) ;
#298 =( NAMED_UNIT ( * ) SI_UNIT ( $, .STERADIAN. ) SOLID_ANGLE_UNIT ( ) );
#299 = CIRCLE ( 'NONE', #264, 0.09374999999999998612 ) ;
#300 = MECHANICAL_DESIGN_GEOMETRIC_PRESENTATION_REPRESENTATION (  '', ( #266 ), #221 ) ;
#301 = DIRECTION ( 'NONE',  ( 0.000000000000000000, -0.000000000000000000, 1.000000000000000000 ) ) ;
#302 = DIMENSIONAL_EXPONENTS ( 1.000000000000000000, 0.000000000000000000, 0.000000000000000000, 0.000000000000000000, 0.000000000000000000, 0.000000000000000000, 0.000000000000000000 ) ;
#303 = FILL_AREA_STYLE ('',( #38 ) ) ;
#304 = ORIENTED_EDGE ( 'NONE', *, *, #139, .F. ) ;
#305 = CLOSED_SHELL ( 'NONE', ( #244, #126, #62, #208 ) ) ;
#306 = SURFACE_SIDE_STYLE ('',( #182 ) ) ;
#307 = EDGE_CURVE ( 'NONE', #85, #19, #32, .T. ) ;
#308 = ORIENTED_EDGE ( 'NONE', *, *, #77, .T. ) ;
#309 = SURFACE_STYLE_FILL_AREA ( #211 ) ;
ENDSEC;
END-ISO-10303-21;
