ISO-10303-21;
HEADER;
FILE_DESCRIPTION (( 'STEP AP214' ),
    '1' );
FILE_NAME ('00197.STEP',
    '2023-06-22T14:04:15',
    ( '' ),
    ( '' ),
    'SwSTEP 2.0',
    'SolidWorks 2023',
    '' );
FILE_SCHEMA (( 'AUTOMOTIVE_DESIGN' ));
ENDSEC;

DATA;
#1 = DIRECTION ( 'NONE',  ( 1.000000000000000000, 0.000000000000000000, 0.000000000000000000 ) ) ;
#2 = CARTESIAN_POINT ( 'NONE',  ( 0.000000000000000000, 1.250000000000000000, 0.000000000000000000 ) ) ;
#3 = SURFACE_STYLE_USAGE ( .BOTH. , #76 ) ;
#4 = DIRECTION ( 'NONE',  ( 0.000000000000000000, 0.000000000000000000, -1.000000000000000000 ) ) ;
#5 = LENGTH_MEASURE_WITH_UNIT ( LENGTH_MEASURE( 0.02539999999999999897 ), #225 );
#6 = FACE_OUTER_BOUND ( 'NONE', #215, .T. ) ;
#7 = DIMENSIONAL_EXPONENTS ( 1.000000000000000000, 0.000000000000000000, 0.000000000000000000, 0.000000000000000000, 0.000000000000000000, 0.000000000000000000, 0.000000000000000000 ) ;
#8 = FACE_OUTER_BOUND ( 'NONE', #279, .T. ) ;
#9 =( GEOMETRIC_REPRESENTATION_CONTEXT ( 3 ) GLOBAL_UNCERTAINTY_ASSIGNED_CONTEXT ( ( #226 ) ) GLOBAL_UNIT_ASSIGNED_CONTEXT ( ( #179, #199, #135 ) ) REPRESENTATION_CONTEXT ( 'NONE', 'WORKASPACE' ) );
#10 = DIMENSIONAL_EXPONENTS ( 1.000000000000000000, 0.000000000000000000, 0.000000000000000000, 0.000000000000000000, 0.000000000000000000, 0.000000000000000000, 0.000000000000000000 ) ;
#11 = DIMENSIONAL_EXPONENTS ( 1.000000000000000000, 0.000000000000000000, 0.000000000000000000, 0.000000000000000000, 0.000000000000000000, 0.000000000000000000, 0.000000000000000000 ) ;
#12 = CARTESIAN_POINT ( 'NONE',  ( -0.1250000000000000000, 1.250000000000000000, 0.000000000000000000 ) ) ;
#13 = VECTOR ( 'NONE', #272, 39.37007874015748143 ) ;
#14 = FILL_AREA_STYLE ('',( #35 ) ) ;
#15 = DIRECTION ( 'NONE',  ( -3.498990854706726443E-17, 1.000000000000000000, -0.000000000000000000 ) ) ;
#16 = CARTESIAN_POINT ( 'NONE',  ( 0.000000000000000000, 0.000000000000000000, 0.000000000000000000 ) ) ;
#17 = PRESENTATION_LAYER_ASSIGNMENT (  '', '', ( #42 ) ) ;
#18 = AXIS2_PLACEMENT_3D ( 'NONE', #16, #301, #1 ) ;
#19 = ORIENTED_EDGE ( 'NONE', *, *, #184, .F. ) ;
#20 = EDGE_CURVE ( 'NONE', #109, #141, #107, .T. ) ;
#21 = APPLICATION_PROTOCOL_DEFINITION ( 'draft international standard', 'automotive_design', 1998, #148 ) ;
#22 = ORIENTED_EDGE ( 'NONE', *, *, #20, .T. ) ;
#23 = VECTOR ( 'NONE', #79, 39.37007874015748143 ) ;
#24 = ORIENTED_EDGE ( 'NONE', *, *, #308, .T. ) ;
#25 = FILL_AREA_STYLE ('',( #150 ) ) ;
#26 = CARTESIAN_POINT ( 'NONE',  ( -6.123233995736772199E-17, 3.000000000000000444, 0.000000000000000000 ) ) ;
#27 = DIRECTION ( 'NONE',  ( -1.000000000000000000, 0.000000000000000000, 0.000000000000000000 ) ) ;
#28 =( GEOMETRIC_REPRESENTATION_CONTEXT ( 3 ) GLOBAL_UNCERTAINTY_ASSIGNED_CONTEXT ( ( #183 ) ) GLOBAL_UNIT_ASSIGNED_CONTEXT ( ( #103, #210, #259 ) ) REPRESENTATION_CONTEXT ( 'NONE', 'WORKASPACE' ) );
#29 =( LENGTH_UNIT ( ) NAMED_UNIT ( * ) SI_UNIT ( $, .METRE. ) );
#30 = ADVANCED_FACE ( 'NONE', ( #190 ), #283, .F. ) ;
#31 = CARTESIAN_POINT ( 'NONE',  ( 0.1250000000000000278, 3.000000000000000444, 1.530808498934192125E-17 ) ) ;
#32 = LENGTH_MEASURE_WITH_UNIT ( LENGTH_MEASURE( 0.02539999999999999897 ), #29 );
#33 = CLOSED_SHELL ( 'NONE', ( #63, #134, #112, #155 ) ) ;
#34 = PLANE ( 'NONE',  #216 ) ;
#35 = FILL_AREA_STYLE_COLOUR ( '', #298 ) ;
#36 =( CONVERSION_BASED_UNIT ( 'INCH', #105 ) LENGTH_UNIT ( ) NAMED_UNIT ( #7 ) );
#37 = PRODUCT_DEFINITION ( 'UNKNOWN', '', #198, #157 ) ;
#38 = AXIS2_PLACEMENT_3D ( 'NONE', #251, #163, #299 ) ;
#39 = AXIS2_PLACEMENT_3D ( 'NONE', #196, #290, #268 ) ;
#40 = LINE ( 'NONE', #138, #23 ) ;
#41 = ORIENTED_EDGE ( 'NONE', *, *, #169, .F. ) ;
#42 = STYLED_ITEM ( 'NONE', ( #51 ), #64 ) ;
#43 = VECTOR ( 'NONE', #117, 39.37007874015748143 ) ;
#44 = ORIENTED_EDGE ( 'NONE', *, *, #128, .F. ) ;
#45 = ORIENTED_EDGE ( 'NONE', *, *, #184, .T. ) ;
#46 = CYLINDRICAL_SURFACE ( 'NONE', #172, 0.1250000000000000000 ) ;
#47 = ORIENTED_EDGE ( 'NONE', *, *, #296, .F. ) ;
#48 =( GEOMETRIC_REPRESENTATION_CONTEXT ( 3 ) GLOBAL_UNCERTAINTY_ASSIGNED_CONTEXT ( ( #254 ) ) GLOBAL_UNIT_ASSIGNED_CONTEXT ( ( #208, #244, #124 ) ) REPRESENTATION_CONTEXT ( 'NONE', 'WORKASPACE' ) );
#49 = SURFACE_STYLE_USAGE ( .BOTH. , #293 ) ;
#50 = DIRECTION ( 'NONE',  ( -1.000000000000000000, 0.000000000000000000, 0.000000000000000000 ) ) ;
#51 = PRESENTATION_STYLE_ASSIGNMENT (( #49 ) ) ;
#52 = CARTESIAN_POINT ( 'NONE',  ( 1.530808498934191509E-17, 0.000000000000000000, 0.1250000000000000000 ) ) ;
#53 = CYLINDRICAL_SURFACE ( 'NONE', #140, 0.1250000000000000000 ) ;
#54 = CARTESIAN_POINT ( 'NONE',  ( -6.123233995736772199E-17, 3.000000000000000444, 0.000000000000000000 ) ) ;
#55 = PRESENTATION_LAYER_ASSIGNMENT (  '', '', ( #292 ) ) ;
#56 = DIRECTION ( 'NONE',  ( 0.000000000000000000, 0.000000000000000000, -1.000000000000000000 ) ) ;
#57 =( NAMED_UNIT ( * ) SI_UNIT ( $, .STERADIAN. ) SOLID_ANGLE_UNIT ( ) );
#58 = PLANE ( 'NONE',  #173 ) ;
#59 = DIRECTION ( 'NONE',  ( 0.000000000000000000, 1.000000000000000000, 0.000000000000000000 ) ) ;
#60 = FACE_OUTER_BOUND ( 'NONE', #171, .T. ) ;
#61 = PRODUCT_DEFINITION_SHAPE ( 'NONE', 'NONE',  #37 ) ;
#62 = FILL_AREA_STYLE ('',( #274 ) ) ;
#63 = ADVANCED_FACE ( 'NONE', ( #260 ), #46, .T. ) ;
#64 = MANIFOLD_SOLID_BREP ( 'Revolve - Cutting Edge', #33 ) ;
#65 = UNCERTAINTY_MEASURE_WITH_UNIT (LENGTH_MEASURE( 1.000000000000000082E-05 ), #36, 'distance_accuracy_value', 'NONE');
#66 = MECHANICAL_DESIGN_GEOMETRIC_PRESENTATION_REPRESENTATION (  '', ( #262 ), #48 ) ;
#67 = CARTESIAN_POINT ( 'NONE',  ( 0.000000000000000000, 1.250000000000000000, 0.000000000000000000 ) ) ;
#68 = VERTEX_POINT ( 'NONE', #93 ) ;
#69 = DIRECTION ( 'NONE',  ( -0.000000000000000000, -1.000000000000000000, -0.000000000000000000 ) ) ;
#70 =( GEOMETRIC_REPRESENTATION_CONTEXT ( 3 ) GLOBAL_UNCERTAINTY_ASSIGNED_CONTEXT ( ( #65 ) ) GLOBAL_UNIT_ASSIGNED_CONTEXT ( ( #36, #273, #130 ) ) REPRESENTATION_CONTEXT ( 'NONE', 'WORKASPACE' ) );
#71 = ORIENTED_EDGE ( 'NONE', *, *, #296, .T. ) ;
#72 = CARTESIAN_POINT ( 'NONE',  ( 0.1250000000000000000, 3.000000000000000444, 0.000000000000000000 ) ) ;
#73 = CYLINDRICAL_SURFACE ( 'NONE', #229, 0.1250000000000000278 ) ;
#74 = EDGE_CURVE ( 'NONE', #141, #109, #248, .T. ) ;
#75 = CARTESIAN_POINT ( 'NONE',  ( 0.000000000000000000, 0.000000000000000000, 0.000000000000000000 ) ) ;
#76 = SURFACE_SIDE_STYLE ('',( #146 ) ) ;
#77 = LENGTH_MEASURE_WITH_UNIT ( LENGTH_MEASURE( 0.02539999999999999897 ), #203 );
#78 = PRESENTATION_LAYER_ASSIGNMENT (  '', '', ( #282 ) ) ;
#79 = DIRECTION ( 'NONE',  ( -0.000000000000000000, -1.000000000000000000, -0.000000000000000000 ) ) ;
#80 = ORIENTED_EDGE ( 'NONE', *, *, #230, .T. ) ;
#81 = COLOUR_RGB ( '',1.000000000000000000, 0.000000000000000000, 0.000000000000000000 ) ;
#82 =( LENGTH_UNIT ( ) NAMED_UNIT ( * ) SI_UNIT ( $, .METRE. ) );
#83 =( NAMED_UNIT ( * ) SI_UNIT ( $, .STERADIAN. ) SOLID_ANGLE_UNIT ( ) );
#84 = FACE_OUTER_BOUND ( 'NONE', #110, .T. ) ;
#85 = UNCERTAINTY_MEASURE_WITH_UNIT (LENGTH_MEASURE( 1.000000000000000082E-05 ), #223, 'distance_accuracy_value', 'NONE');
#86 = STYLED_ITEM ( 'NONE', ( #116 ), #112 ) ;
#87 = DIRECTION ( 'NONE',  ( 0.000000000000000000, 0.000000000000000000, -1.000000000000000000 ) ) ;
#88 = ORIENTED_EDGE ( 'NONE', *, *, #212, .T. ) ;
#89 = STYLED_ITEM ( 'NONE', ( #127 ), #155 ) ;
#90 = SURFACE_STYLE_USAGE ( .BOTH. , #217 ) ;
#91 =( GEOMETRIC_REPRESENTATION_CONTEXT ( 3 ) GLOBAL_UNCERTAINTY_ASSIGNED_CONTEXT ( ( #85 ) ) GLOBAL_UNIT_ASSIGNED_CONTEXT ( ( #223, #119, #57 ) ) REPRESENTATION_CONTEXT ( 'NONE', 'WORKASPACE' ) );
#92 = DIRECTION ( 'NONE',  ( 0.000000000000000000, 0.000000000000000000, -1.000000000000000000 ) ) ;
#93 = CARTESIAN_POINT ( 'NONE',  ( 0.000000000000000000, 0.000000000000000000, -0.1250000000000000000 ) ) ;
#94 = UNCERTAINTY_MEASURE_WITH_UNIT (LENGTH_MEASURE( 1.000000000000000082E-05 ), #159, 'distance_accuracy_value', 'NONE');
#95 = FILL_AREA_STYLE_COLOUR ( '', #236 ) ;
#96 = LINE ( 'NONE', #247, #13 ) ;
#97 = DIRECTION ( 'NONE',  ( -1.000000000000000000, 0.000000000000000000, 0.000000000000000000 ) ) ;
#98 = AXIS2_PLACEMENT_3D ( 'NONE', #222, #291, #204 ) ;
#99 = CARTESIAN_POINT ( 'NONE',  ( 1.530808498934191509E-17, 1.250000000000000000, 0.1250000000000000000 ) ) ;
#100 = PLANE ( 'NONE',  #241 ) ;
#101 = COLOUR_RGB ( '',1.000000000000000000, 0.000000000000000000, 0.000000000000000000 ) ;
#102 = SURFACE_SIDE_STYLE ('',( #209 ) ) ;
#103 =( CONVERSION_BASED_UNIT ( 'INCH', #131 ) LENGTH_UNIT ( ) NAMED_UNIT ( #187 ) );
#104 = PRODUCT_RELATED_PRODUCT_CATEGORY ( 'part', '', ( #302 ) ) ;
#105 = LENGTH_MEASURE_WITH_UNIT ( LENGTH_MEASURE( 0.02539999999999999897 ), #211 );
#106 = CARTESIAN_POINT ( 'NONE',  ( 0.000000000000000000, 0.000000000000000000, 0.000000000000000000 ) ) ;
#107 = CIRCLE ( 'NONE', #132, 0.1250000000000000000 ) ;
#108 = ORIENTED_EDGE ( 'NONE', *, *, #243, .F. ) ;
#109 = VERTEX_POINT ( 'NONE', #267 ) ;
#110 = EDGE_LOOP ( 'NONE', ( #257, #168 ) ) ;
#111 = VERTEX_POINT ( 'NONE', #31 ) ;
#112 = ADVANCED_FACE ( 'NONE', ( #238 ), #53, .T. ) ;
#113 = PRODUCT_CONTEXT ( 'NONE', #148, 'mechanical' ) ;
#114 = DIRECTION ( 'NONE',  ( 1.000000000000000000, 3.498990854706726443E-17, 0.000000000000000000 ) ) ;
#115 = APPLICATION_CONTEXT ( 'automotive_design' ) ;
#116 = PRESENTATION_STYLE_ASSIGNMENT (( #123 ) ) ;
#117 = DIRECTION ( 'NONE',  ( -3.498990854706726443E-17, 1.000000000000000000, -0.000000000000000000 ) ) ;
#118 = MECHANICAL_DESIGN_GEOMETRIC_PRESENTATION_REPRESENTATION (  '', ( #42 ), #91 ) ;
#119 =( NAMED_UNIT ( * ) PLANE_ANGLE_UNIT ( ) SI_UNIT ( $, .RADIAN. ) );
#120 = AXIS2_PLACEMENT_3D ( 'NONE', #26, #240, #97 ) ;
#121 = CARTESIAN_POINT ( 'NONE',  ( -0.1250000000000001110, 3.000000000000000444, 0.000000000000000000 ) ) ;
#122 = CYLINDRICAL_SURFACE ( 'NONE', #120, 0.1250000000000000278 ) ;
#123 = SURFACE_STYLE_USAGE ( .BOTH. , #285 ) ;
#124 =( NAMED_UNIT ( * ) SI_UNIT ( $, .STERADIAN. ) SOLID_ANGLE_UNIT ( ) );
#125 = CLOSED_SHELL ( 'NONE', ( #224, #275, #304, #30 ) ) ;
#126 = CARTESIAN_POINT ( 'NONE',  ( 0.1250000000000000278, 1.250000000000000000, 1.530808498934192125E-17 ) ) ;
#127 = PRESENTATION_STYLE_ASSIGNMENT (( #295 ) ) ;
#128 = EDGE_CURVE ( 'NONE', #68, #237, #186, .T. ) ;
#129 = APPLICATION_PROTOCOL_DEFINITION ( 'draft international standard', 'automotive_design', 1998, #115 ) ;
#130 =( NAMED_UNIT ( * ) SI_UNIT ( $, .STERADIAN. ) SOLID_ANGLE_UNIT ( ) );
#131 = LENGTH_MEASURE_WITH_UNIT ( LENGTH_MEASURE( 0.02539999999999999897 ), #220 );
#132 = AXIS2_PLACEMENT_3D ( 'NONE', #2, #69, #87 ) ;
#133 = AXIS2_PLACEMENT_3D ( 'NONE', #200, #181, #4 ) ;
#134 = ADVANCED_FACE ( 'NONE', ( #84 ), #100, .T. ) ;
#135 =( NAMED_UNIT ( * ) SI_UNIT ( $, .STERADIAN. ) SOLID_ANGLE_UNIT ( ) );
#136 = DIRECTION ( 'NONE',  ( 0.000000000000000000, -0.000000000000000000, 1.000000000000000000 ) ) ;
#137 = DIMENSIONAL_EXPONENTS ( 1.000000000000000000, 0.000000000000000000, 0.000000000000000000, 0.000000000000000000, 0.000000000000000000, 0.000000000000000000, 0.000000000000000000 ) ;
#138 = CARTESIAN_POINT ( 'NONE',  ( 0.000000000000000000, 0.000000000000000000, -0.1250000000000000000 ) ) ;
#139 = VERTEX_POINT ( 'NONE', #231 ) ;
#140 = AXIS2_PLACEMENT_3D ( 'NONE', #277, #162, #253 ) ;
#141 = VERTEX_POINT ( 'NONE', #99 ) ;
#142 = ORIENTED_EDGE ( 'NONE', *, *, #243, .T. ) ;
#143 = VERTEX_POINT ( 'NONE', #12 ) ;
#144 = CIRCLE ( 'NONE', #39, 0.1250000000000000555 ) ;
#145 = EDGE_LOOP ( 'NONE', ( #19, #258, #232, #165 ) ) ;
#146 = SURFACE_STYLE_FILL_AREA ( #271 ) ;
#147 = SURFACE_STYLE_FILL_AREA ( #25 ) ;
#148 = APPLICATION_CONTEXT ( 'automotive_design' ) ;
#149 = DIRECTION ( 'NONE',  ( -3.498990854706726443E-17, 1.000000000000000000, -0.000000000000000000 ) ) ;
#150 = FILL_AREA_STYLE_COLOUR ( '', #197 ) ;
#151 = PRESENTATION_STYLE_ASSIGNMENT (( #3 ) ) ;
#152 = CARTESIAN_POINT ( 'NONE',  ( 0.000000000000000000, 1.250000000000000000, 0.000000000000000000 ) ) ;
#153 = DIRECTION ( 'NONE',  ( -3.498990854706726443E-17, 1.000000000000000000, 0.000000000000000000 ) ) ;
#154 = SHAPE_DEFINITION_REPRESENTATION ( #61, #234 ) ;
#155 = ADVANCED_FACE ( 'NONE', ( #60 ), #34, .T. ) ;
#156 = PRESENTATION_STYLE_ASSIGNMENT (( #252 ) ) ;
#157 = PRODUCT_DEFINITION_CONTEXT ( 'detailed design', #115, 'design' ) ;
#158 =( GEOMETRIC_REPRESENTATION_CONTEXT ( 3 ) GLOBAL_UNCERTAINTY_ASSIGNED_CONTEXT ( ( #246 ) ) GLOBAL_UNIT_ASSIGNED_CONTEXT ( ( #195, #219, #182 ) ) REPRESENTATION_CONTEXT ( 'NONE', 'WORKASPACE' ) );
#159 =( CONVERSION_BASED_UNIT ( 'INCH', #297 ) LENGTH_UNIT ( ) NAMED_UNIT ( #10 ) );
#160 =( NAMED_UNIT ( * ) PLANE_ANGLE_UNIT ( ) SI_UNIT ( $, .RADIAN. ) );
#161 = EDGE_CURVE ( 'NONE', #143, #284, #255, .T. ) ;
#162 = DIRECTION ( 'NONE',  ( -0.000000000000000000, -1.000000000000000000, -0.000000000000000000 ) ) ;
#163 = DIRECTION ( 'NONE',  ( -0.000000000000000000, -1.000000000000000000, -0.000000000000000000 ) ) ;
#164 = PRESENTATION_STYLE_ASSIGNMENT (( #90 ) ) ;
#165 = ORIENTED_EDGE ( 'NONE', *, *, #213, .F. ) ;
#166 = MECHANICAL_DESIGN_GEOMETRIC_PRESENTATION_REPRESENTATION (  '', ( #292 ), #70 ) ;
#167 = AXIS2_PLACEMENT_3D ( 'NONE', #288, #176, #27 ) ;
#168 = ORIENTED_EDGE ( 'NONE', *, *, #74, .F. ) ;
#169 = EDGE_CURVE ( 'NONE', #109, #68, #40, .T. ) ;
#170 = MANIFOLD_SOLID_BREP ( 'Revolve - Tool Body (Straight Shanked)', #125 ) ;
#171 = EDGE_LOOP ( 'NONE', ( #303, #261 ) ) ;
#172 = AXIS2_PLACEMENT_3D ( 'NONE', #75, #177, #56 ) ;
#173 = AXIS2_PLACEMENT_3D ( 'NONE', #294, #153, #202 ) ;
#174 = DIRECTION ( 'NONE',  ( -3.498990854706726443E-17, 1.000000000000000000, -0.000000000000000000 ) ) ;
#175 = FILL_AREA_STYLE_COLOUR ( '', #205 ) ;
#176 = DIRECTION ( 'NONE',  ( -3.498990854706726443E-17, 1.000000000000000000, -0.000000000000000000 ) ) ;
#177 = DIRECTION ( 'NONE',  ( -0.000000000000000000, -1.000000000000000000, -0.000000000000000000 ) ) ;
#178 =( GEOMETRIC_REPRESENTATION_CONTEXT ( 3 ) GLOBAL_UNCERTAINTY_ASSIGNED_CONTEXT ( ( #94 ) ) GLOBAL_UNIT_ASSIGNED_CONTEXT ( ( #159, #160, #83 ) ) REPRESENTATION_CONTEXT ( 'NONE', 'WORKASPACE' ) );
#179 =( CONVERSION_BASED_UNIT ( 'INCH', #77 ) LENGTH_UNIT ( ) NAMED_UNIT ( #289 ) );
#180 = VECTOR ( 'NONE', #174, 39.37007874015748143 ) ;
#181 = DIRECTION ( 'NONE',  ( -0.000000000000000000, -1.000000000000000000, -0.000000000000000000 ) ) ;
#182 =( NAMED_UNIT ( * ) SI_UNIT ( $, .STERADIAN. ) SOLID_ANGLE_UNIT ( ) );
#183 = UNCERTAINTY_MEASURE_WITH_UNIT (LENGTH_MEASURE( 1.000000000000000082E-05 ), #103, 'distance_accuracy_value', 'NONE');
#184 = EDGE_CURVE ( 'NONE', #141, #237, #96, .T. ) ;
#185 = SURFACE_SIDE_STYLE ('',( #227 ) ) ;
#186 = CIRCLE ( 'NONE', #38, 0.1250000000000000000 ) ;
#187 = DIMENSIONAL_EXPONENTS ( 1.000000000000000000, 0.000000000000000000, 0.000000000000000000, 0.000000000000000000, 0.000000000000000000, 0.000000000000000000, 0.000000000000000000 ) ;
#188 = AXIS2_PLACEMENT_3D ( 'NONE', #67, #15, #256 ) ;
#189 = DIRECTION ( 'NONE',  ( 0.000000000000000000, -1.000000000000000000, -0.000000000000000000 ) ) ;
#190 = FACE_OUTER_BOUND ( 'NONE', #235, .T. ) ;
#191 = FILL_AREA_STYLE ('',( #305 ) ) ;
#192 = PRESENTATION_LAYER_ASSIGNMENT (  '', '', ( #86 ) ) ;
#193 = EDGE_LOOP ( 'NONE', ( #22, #45, #44, #41 ) ) ;
#194 = ORIENTED_EDGE ( 'NONE', *, *, #212, .F. ) ;
#195 =( CONVERSION_BASED_UNIT ( 'INCH', #207 ) LENGTH_UNIT ( ) NAMED_UNIT ( #11 ) );
#196 = CARTESIAN_POINT ( 'NONE',  ( -6.123233995736772199E-17, 3.000000000000000444, 0.000000000000000000 ) ) ;
#197 = COLOUR_RGB ( '',1.000000000000000000, 0.000000000000000000, 0.000000000000000000 ) ;
#198 = PRODUCT_DEFINITION_FORMATION_WITH_SPECIFIED_SOURCE ( 'ANY', '', #302, .NOT_KNOWN. ) ;
#199 =( NAMED_UNIT ( * ) PLANE_ANGLE_UNIT ( ) SI_UNIT ( $, .RADIAN. ) );
#200 = CARTESIAN_POINT ( 'NONE',  ( 0.000000000000000000, 0.000000000000000000, 0.000000000000000000 ) ) ;
#201 = SURFACE_STYLE_FILL_AREA ( #264 ) ;
#202 = DIRECTION ( 'NONE',  ( -1.000000000000000000, -3.498990854706726443E-17, 0.000000000000000000 ) ) ;
#203 =( LENGTH_UNIT ( ) NAMED_UNIT ( * ) SI_UNIT ( $, .METRE. ) );
#204 = DIRECTION ( 'NONE',  ( -1.000000000000000000, 0.000000000000000000, 0.000000000000000000 ) ) ;
#205 = COLOUR_RGB ( '',0.7921568627450980005, 0.8196078431372548767, 0.9333333333333333481 ) ;
#206 = PRESENTATION_LAYER_ASSIGNMENT (  '', '', ( #262 ) ) ;
#207 = LENGTH_MEASURE_WITH_UNIT ( LENGTH_MEASURE( 0.02539999999999999897 ), #287 );
#208 =( CONVERSION_BASED_UNIT ( 'INCH', #32 ) LENGTH_UNIT ( ) NAMED_UNIT ( #137 ) );
#209 = SURFACE_STYLE_FILL_AREA ( #62 ) ;
#210 =( NAMED_UNIT ( * ) PLANE_ANGLE_UNIT ( ) SI_UNIT ( $, .RADIAN. ) );
#211 =( LENGTH_UNIT ( ) NAMED_UNIT ( * ) SI_UNIT ( $, .METRE. ) );
#212 = EDGE_CURVE ( 'NONE', #111, #139, #307, .T. ) ;
#213 = EDGE_CURVE ( 'NONE', #237, #68, #270, .T. ) ;
#214 = ORIENTED_EDGE ( 'NONE', *, *, #161, .T. ) ;
#215 = EDGE_LOOP ( 'NONE', ( #218, #306 ) ) ;
#216 = AXIS2_PLACEMENT_3D ( 'NONE', #106, #189, #278 ) ;
#217 = SURFACE_SIDE_STYLE ('',( #281 ) ) ;
#218 = ORIENTED_EDGE ( 'NONE', *, *, #161, .F. ) ;
#219 =( NAMED_UNIT ( * ) PLANE_ANGLE_UNIT ( ) SI_UNIT ( $, .RADIAN. ) );
#220 =( LENGTH_UNIT ( ) NAMED_UNIT ( * ) SI_UNIT ( $, .METRE. ) );
#221 = AXIS2_PLACEMENT_3D ( 'NONE', #152, #245, #92 ) ;
#222 = CARTESIAN_POINT ( 'NONE',  ( -6.123233995736772199E-17, 3.000000000000000444, 0.000000000000000000 ) ) ;
#223 =( CONVERSION_BASED_UNIT ( 'INCH', #5 ) LENGTH_UNIT ( ) NAMED_UNIT ( #266 ) );
#224 = ADVANCED_FACE ( 'NONE', ( #8 ), #122, .T. ) ;
#225 =( LENGTH_UNIT ( ) NAMED_UNIT ( * ) SI_UNIT ( $, .METRE. ) );
#226 = UNCERTAINTY_MEASURE_WITH_UNIT (LENGTH_MEASURE( 1.000000000000000082E-05 ), #179, 'distance_accuracy_value', 'NONE');
#227 = SURFACE_STYLE_FILL_AREA ( #14 ) ;
#228 = MECHANICAL_DESIGN_GEOMETRIC_PRESENTATION_REPRESENTATION (  '', ( #86 ), #9 ) ;
#229 = AXIS2_PLACEMENT_3D ( 'NONE', #54, #149, #50 ) ;
#230 = EDGE_CURVE ( 'NONE', #284, #143, #249, .T. ) ;
#231 = CARTESIAN_POINT ( 'NONE',  ( -0.1250000000000001388, 3.000000000000000444, 0.000000000000000000 ) ) ;
#232 = ORIENTED_EDGE ( 'NONE', *, *, #169, .T. ) ;
#233 = ORIENTED_EDGE ( 'NONE', *, *, #308, .F. ) ;
#234 = ADVANCED_BREP_SHAPE_REPRESENTATION ( '00197', ( #64, #170, #18 ), #28 ) ;
#235 = EDGE_LOOP ( 'NONE', ( #71, #88 ) ) ;
#236 = COLOUR_RGB ( '',0.7921568627450980005, 0.8196078431372548767, 0.9333333333333333481 ) ;
#237 = VERTEX_POINT ( 'NONE', #52 ) ;
#238 = FACE_OUTER_BOUND ( 'NONE', #145, .T. ) ;
#239 = LINE ( 'NONE', #242, #43 ) ;
#240 = DIRECTION ( 'NONE',  ( -3.498990854706726443E-17, 1.000000000000000000, -0.000000000000000000 ) ) ;
#241 = AXIS2_PLACEMENT_3D ( 'NONE', #250, #59, #136 ) ;
#242 = CARTESIAN_POINT ( 'NONE',  ( 0.1249999999999999584, 3.000000000000000444, 1.530808498934191817E-17 ) ) ;
#243 = EDGE_CURVE ( 'NONE', #143, #139, #265, .T. ) ;
#244 =( NAMED_UNIT ( * ) PLANE_ANGLE_UNIT ( ) SI_UNIT ( $, .RADIAN. ) );
#245 = DIRECTION ( 'NONE',  ( -0.000000000000000000, -1.000000000000000000, -0.000000000000000000 ) ) ;
#246 = UNCERTAINTY_MEASURE_WITH_UNIT (LENGTH_MEASURE( 1.000000000000000082E-05 ), #195, 'distance_accuracy_value', 'NONE');
#247 = CARTESIAN_POINT ( 'NONE',  ( 1.530808498934191509E-17, 0.000000000000000000, 0.1250000000000000000 ) ) ;
#248 = CIRCLE ( 'NONE', #221, 0.1250000000000000000 ) ;
#249 = CIRCLE ( 'NONE', #167, 0.1250000000000000000 ) ;
#250 = CARTESIAN_POINT ( 'NONE',  ( 0.000000000000000000, 1.250000000000000000, 0.000000000000000000 ) ) ;
#251 = CARTESIAN_POINT ( 'NONE',  ( 0.000000000000000000, 0.000000000000000000, 0.000000000000000000 ) ) ;
#252 = SURFACE_STYLE_USAGE ( .BOTH. , #185 ) ;
#253 = DIRECTION ( 'NONE',  ( 0.000000000000000000, 0.000000000000000000, -1.000000000000000000 ) ) ;
#254 = UNCERTAINTY_MEASURE_WITH_UNIT (LENGTH_MEASURE( 1.000000000000000082E-05 ), #208, 'distance_accuracy_value', 'NONE');
#255 = CIRCLE ( 'NONE', #188, 0.1250000000000000000 ) ;
#256 = DIRECTION ( 'NONE',  ( -1.000000000000000000, 0.000000000000000000, 0.000000000000000000 ) ) ;
#257 = ORIENTED_EDGE ( 'NONE', *, *, #20, .F. ) ;
#258 = ORIENTED_EDGE ( 'NONE', *, *, #74, .T. ) ;
#259 =( NAMED_UNIT ( * ) SI_UNIT ( $, .STERADIAN. ) SOLID_ANGLE_UNIT ( ) );
#260 = FACE_OUTER_BOUND ( 'NONE', #193, .T. ) ;
#261 = ORIENTED_EDGE ( 'NONE', *, *, #213, .T. ) ;
#262 = STYLED_ITEM ( 'NONE', ( #151 ), #170 ) ;
#263 = FACE_OUTER_BOUND ( 'NONE', #309, .T. ) ;
#264 = FILL_AREA_STYLE ('',( #175 ) ) ;
#265 = LINE ( 'NONE', #121, #180 ) ;
#266 = DIMENSIONAL_EXPONENTS ( 1.000000000000000000, 0.000000000000000000, 0.000000000000000000, 0.000000000000000000, 0.000000000000000000, 0.000000000000000000, 0.000000000000000000 ) ;
#267 = CARTESIAN_POINT ( 'NONE',  ( 0.000000000000000000, 1.250000000000000000, -0.1250000000000000000 ) ) ;
#268 = DIRECTION ( 'NONE',  ( -1.000000000000000000, 0.000000000000000000, 0.000000000000000000 ) ) ;
#269 = PRESENTATION_LAYER_ASSIGNMENT (  '', '', ( #89 ) ) ;
#270 = CIRCLE ( 'NONE', #133, 0.1250000000000000000 ) ;
#271 = FILL_AREA_STYLE ('',( #95 ) ) ;
#272 = DIRECTION ( 'NONE',  ( -0.000000000000000000, -1.000000000000000000, -0.000000000000000000 ) ) ;
#273 =( NAMED_UNIT ( * ) PLANE_ANGLE_UNIT ( ) SI_UNIT ( $, .RADIAN. ) );
#274 = FILL_AREA_STYLE_COLOUR ( '', #101 ) ;
#275 = ADVANCED_FACE ( 'NONE', ( #6 ), #58, .F. ) ;
#276 = MECHANICAL_DESIGN_GEOMETRIC_PRESENTATION_REPRESENTATION (  '', ( #89 ), #178 ) ;
#277 = CARTESIAN_POINT ( 'NONE',  ( 0.000000000000000000, 0.000000000000000000, 0.000000000000000000 ) ) ;
#278 = DIRECTION ( 'NONE',  ( 0.000000000000000000, 0.000000000000000000, -1.000000000000000000 ) ) ;
#279 = EDGE_LOOP ( 'NONE', ( #214, #24, #47, #108 ) ) ;
#280 = DIRECTION ( 'NONE',  ( 3.498990854706726443E-17, -1.000000000000000000, 0.000000000000000000 ) ) ;
#281 = SURFACE_STYLE_FILL_AREA ( #191 ) ;
#282 = STYLED_ITEM ( 'NONE', ( #164 ), #63 ) ;
#283 = PLANE ( 'NONE',  #300 ) ;
#284 = VERTEX_POINT ( 'NONE', #126 ) ;
#285 = SURFACE_SIDE_STYLE ('',( #147 ) ) ;
#286 = MECHANICAL_DESIGN_GEOMETRIC_PRESENTATION_REPRESENTATION (  '', ( #282 ), #158 ) ;
#287 =( LENGTH_UNIT ( ) NAMED_UNIT ( * ) SI_UNIT ( $, .METRE. ) );
#288 = CARTESIAN_POINT ( 'NONE',  ( 0.000000000000000000, 1.250000000000000000, 0.000000000000000000 ) ) ;
#289 = DIMENSIONAL_EXPONENTS ( 1.000000000000000000, 0.000000000000000000, 0.000000000000000000, 0.000000000000000000, 0.000000000000000000, 0.000000000000000000, 0.000000000000000000 ) ;
#290 = DIRECTION ( 'NONE',  ( -3.498990854706726443E-17, 1.000000000000000000, -0.000000000000000000 ) ) ;
#291 = DIRECTION ( 'NONE',  ( -3.498990854706726443E-17, 1.000000000000000000, -0.000000000000000000 ) ) ;
#292 = STYLED_ITEM ( 'NONE', ( #156 ), #134 ) ;
#293 = SURFACE_SIDE_STYLE ('',( #201 ) ) ;
#294 = CARTESIAN_POINT ( 'NONE',  ( 7.651835625825817976E-35, 1.250000000000000000, 0.000000000000000000 ) ) ;
#295 = SURFACE_STYLE_USAGE ( .BOTH. , #102 ) ;
#296 = EDGE_CURVE ( 'NONE', #139, #111, #144, .T. ) ;
#297 = LENGTH_MEASURE_WITH_UNIT ( LENGTH_MEASURE( 0.02539999999999999897 ), #82 );
#298 = COLOUR_RGB ( '',1.000000000000000000, 0.000000000000000000, 0.000000000000000000 ) ;
#299 = DIRECTION ( 'NONE',  ( 0.000000000000000000, 0.000000000000000000, -1.000000000000000000 ) ) ;
#300 = AXIS2_PLACEMENT_3D ( 'NONE', #72, #280, #114 ) ;
#301 = DIRECTION ( 'NONE',  ( 0.000000000000000000, 0.000000000000000000, 1.000000000000000000 ) ) ;
#302 = PRODUCT ( '00197', '00197', '', ( #113 ) ) ;
#303 = ORIENTED_EDGE ( 'NONE', *, *, #128, .T. ) ;
#304 = ADVANCED_FACE ( 'NONE', ( #263 ), #73, .T. ) ;
#305 = FILL_AREA_STYLE_COLOUR ( '', #81 ) ;
#306 = ORIENTED_EDGE ( 'NONE', *, *, #230, .F. ) ;
#307 = CIRCLE ( 'NONE', #98, 0.1250000000000000555 ) ;
#308 = EDGE_CURVE ( 'NONE', #284, #111, #239, .T. ) ;
#309 = EDGE_LOOP ( 'NONE', ( #233, #80, #142, #194 ) ) ;
ENDSEC;
END-ISO-10303-21;
