ISO-10303-21;
HEADER;
FILE_DESCRIPTION (( 'STEP AP214' ),
    '1' );
FILE_NAME ('Micro_GEM-250-3.STEP',
    '2021-09-01T20:16:46',
    ( '' ),
    ( '' ),
    'SwSTEP 2.0',
    'SolidWorks 2020',
    '' );
FILE_SCHEMA (( 'AUTOMOTIVE_DESIGN' ));
ENDSEC;

DATA;
#1 = CIRCLE ( 'NONE', #258, 0.1250000000000000000 ) ;
#2 = CARTESIAN_POINT ( 'NONE',  ( 0.0000000000000000000, 0.0000000000000000000, 2.500000000000000000 ) ) ;
#3 = STYLED_ITEM ( 'NONE', ( #218 ), #105 ) ;
#4 = FACE_OUTER_BOUND ( 'NONE', #33, .T. ) ;
#5 = CYLINDRICAL_SURFACE ( 'NONE', #179, 0.1250000000000000000 ) ;
#6 = PLANE ( 'NONE',  #80 ) ;
#7 = CARTESIAN_POINT ( 'NONE',  ( 0.0000000000000000000, 0.0000000000000000000, 2.500000000000000000 ) ) ;
#8 = DIRECTION ( 'NONE',  ( -1.000000000000000000, 0.0000000000000000000, 0.0000000000000000000 ) ) ;
#9 = CONICAL_SURFACE ( 'NONE', #215, 0.1248749999999999999, 0.1745329251994339192 ) ;
#10 = AXIS2_PLACEMENT_3D ( 'NONE', #235, #11, #8 ) ;
#11 = DIRECTION ( 'NONE',  ( 0.0000000000000000000, 0.0000000000000000000, -1.000000000000000000 ) ) ;
#12 = LENGTH_MEASURE_WITH_UNIT ( LENGTH_MEASURE( 0.02539999999999999897 ), #51 );
#13 = CARTESIAN_POINT ( 'NONE',  ( 0.0000000000000000000, 0.0000000000000000000, 0.0000000000000000000 ) ) ;
#14 = DIRECTION ( 'NONE',  ( -1.224646799147353207E-16, -0.0000000000000000000, -1.000000000000000000 ) ) ;
#15 = ADVANCED_FACE ( 'NONE', ( #216 ), #9, .T. ) ;
#16 =( NAMED_UNIT ( * ) PLANE_ANGLE_UNIT ( ) SI_UNIT ( $, .RADIAN. ) );
#17 = ORIENTED_EDGE ( 'NONE', *, *, #264, .F. ) ;
#18 = ORIENTED_EDGE ( 'NONE', *, *, #251, .T. ) ;
#19 = CIRCLE ( 'NONE', #38, 0.1250000000000000000 ) ;
#20 = ORIENTED_EDGE ( 'NONE', *, *, #244, .F. ) ;
#21 = ORIENTED_EDGE ( 'NONE', *, *, #34, .F. ) ;
#22 = DIRECTION ( 'NONE',  ( 1.000000000000000000, 0.0000000000000000000, 0.0000000000000000000 ) ) ;
#23 = DIRECTION ( 'NONE',  ( -1.000000000000000000, 0.0000000000000000000, 0.0000000000000000000 ) ) ;
#24 = FACE_OUTER_BOUND ( 'NONE', #221, .T. ) ;
#25 = DIRECTION ( 'NONE',  ( -1.000000000000000000, 0.0000000000000000000, 0.0000000000000000000 ) ) ;
#26 = DIRECTION ( 'NONE',  ( 0.0000000000000000000, 0.0000000000000000000, 1.000000000000000000 ) ) ;
#27 = ORIENTED_EDGE ( 'NONE', *, *, #130, .T. ) ;
#28 = LINE ( 'NONE', #260, #180 ) ;
#29 = AXIS2_PLACEMENT_3D ( 'NONE', #141, #26, #45 ) ;
#30 = MECHANICAL_DESIGN_GEOMETRIC_PRESENTATION_REPRESENTATION (  '', ( #3 ), #294 ) ;
#31 = ORIENTED_EDGE ( 'NONE', *, *, #231, .T. ) ;
#32 = EDGE_CURVE ( 'NONE', #291, #35, #109, .T. ) ;
#33 = EDGE_LOOP ( 'NONE', ( #178, #85, #192, #243 ) ) ;
#34 = EDGE_CURVE ( 'NONE', #271, #108, #169, .T. ) ;
#35 = VERTEX_POINT ( 'NONE', #60 ) ;
#36 = EDGE_LOOP ( 'NONE', ( #172, #201, #268, #195 ) ) ;
#37 = FILL_AREA_STYLE_COLOUR ( '', #288 ) ;
#38 = AXIS2_PLACEMENT_3D ( 'NONE', #112, #185, #282 ) ;
#39 = CARTESIAN_POINT ( 'NONE',  ( 9.184850993605150903E-17, 0.0000000000000000000, 0.7500000000000001110 ) ) ;
#40 = DIMENSIONAL_EXPONENTS ( 1.000000000000000000, 0.0000000000000000000, 0.0000000000000000000, 0.0000000000000000000, 0.0000000000000000000, 0.0000000000000000000, 0.0000000000000000000 ) ;
#41 = CARTESIAN_POINT ( 'NONE',  ( 0.0000000000000000000, 0.0000000000000000000, 2.500000000000000000 ) ) ;
#42 = EDGE_CURVE ( 'NONE', #108, #271, #1, .T. ) ;
#43 = DIRECTION ( 'NONE',  ( -1.224646799147353207E-16, -0.0000000000000000000, -1.000000000000000000 ) ) ;
#44 = DIRECTION ( 'NONE',  ( -1.224646799147353207E-16, -0.0000000000000000000, -1.000000000000000000 ) ) ;
#45 = DIRECTION ( 'NONE',  ( 1.000000000000000000, 0.0000000000000000000, 0.0000000000000000000 ) ) ;
#46 = FILL_AREA_STYLE ('',( #256 ) ) ;
#47 = LENGTH_MEASURE_WITH_UNIT ( LENGTH_MEASURE( 0.02539999999999999897 ), #73 );
#48 = AXIS2_PLACEMENT_3D ( 'NONE', #168, #70, #257 ) ;
#49 = PRESENTATION_LAYER_ASSIGNMENT (  '', '', ( #102 ) ) ;
#50 = DIRECTION ( 'NONE',  ( -1.224646799147353207E-16, -0.0000000000000000000, -1.000000000000000000 ) ) ;
#51 =( LENGTH_UNIT ( ) NAMED_UNIT ( * ) SI_UNIT ( $, .METRE. ) );
#52 = CIRCLE ( 'NONE', #163, 0.1100000000000001948 ) ;
#53 = PRODUCT_DEFINITION_FORMATION_WITH_SPECIFIED_SOURCE ( 'ANY', '', #202, .NOT_KNOWN. ) ;
#54 = ADVANCED_FACE ( 'NONE', ( #156 ), #253, .T. ) ;
#55 = VERTEX_POINT ( 'NONE', #86 ) ;
#56 = CIRCLE ( 'NONE', #72, 0.1248749999999999999 ) ;
#57 = EDGE_LOOP ( 'NONE', ( #219, #18, #151, #17 ) ) ;
#58 = ORIENTED_EDGE ( 'NONE', *, *, #117, .F. ) ;
#59 = APPLICATION_CONTEXT ( 'automotive_design' ) ;
#60 = CARTESIAN_POINT ( 'NONE',  ( 0.1248749999999999999, 1.529277690435257475E-17, 0.0000000000000000000 ) ) ;
#61 = DIRECTION ( 'NONE',  ( 1.224646799147353207E-16, 0.0000000000000000000, 1.000000000000000000 ) ) ;
#62 = UNCERTAINTY_MEASURE_WITH_UNIT (LENGTH_MEASURE( 1.000000000000000082E-05 ), #76, 'distance_accuracy_value', 'NONE');
#63 = DIRECTION ( 'NONE',  ( 0.0000000000000000000, 0.0000000000000000000, 1.000000000000000000 ) ) ;
#64 = DIRECTION ( 'NONE',  ( -1.000000000000000000, 0.0000000000000000000, 1.224646799147353454E-16 ) ) ;
#65 = CYLINDRICAL_SURFACE ( 'NONE', #225, 0.1250000000000000000 ) ;
#66 = VECTOR ( 'NONE', #100, 39.37007874015748143 ) ;
#67 = LINE ( 'NONE', #147, #148 ) ;
#68 = CLOSED_SHELL ( 'NONE', ( #165, #15, #54, #95, #167, #69, #233, #289, #122, #87 ) ) ;
#69 = ADVANCED_FACE ( 'NONE', ( #89 ), #6, .T. ) ;
#70 = DIRECTION ( 'NONE',  ( 1.224646799147353207E-16, 0.0000000000000000000, 1.000000000000000000 ) ) ;
#71 = DIRECTION ( 'NONE',  ( 0.1736481776669314137, 0.0000000000000000000, 0.9848077530122077983 ) ) ;
#72 = AXIS2_PLACEMENT_3D ( 'NONE', #145, #213, #191 ) ;
#73 =( LENGTH_UNIT ( ) NAMED_UNIT ( * ) SI_UNIT ( $, .METRE. ) );
#74 = CARTESIAN_POINT ( 'NONE',  ( -0.1250000000000000000, 0.0000000000000000000, 2.485000000000000320 ) ) ;
#75 = EDGE_CURVE ( 'NONE', #107, #177, #159, .T. ) ;
#76 =( CONVERSION_BASED_UNIT ( 'INCH', #12 ) LENGTH_UNIT ( ) NAMED_UNIT ( #186 ) );
#77 = ORIENTED_EDGE ( 'NONE', *, *, #75, .T. ) ;
#78 = PRODUCT_RELATED_PRODUCT_CATEGORY ( 'part', '', ( #202 ) ) ;
#79 = ORIENTED_EDGE ( 'NONE', *, *, #184, .F. ) ;
#80 = AXIS2_PLACEMENT_3D ( 'NONE', #2, #182, #206 ) ;
#81 = AXIS2_PLACEMENT_3D ( 'NONE', #263, #50, #99 ) ;
#82 =( CONVERSION_BASED_UNIT ( 'INCH', #245 ) LENGTH_UNIT ( ) NAMED_UNIT ( #40 ) );
#83 = EDGE_LOOP ( 'NONE', ( #299, #127, #79, #173 ) ) ;
#84 = DIRECTION ( 'NONE',  ( -1.224646799147353207E-16, -0.0000000000000000000, -1.000000000000000000 ) ) ;
#85 = ORIENTED_EDGE ( 'NONE', *, *, #171, .T. ) ;
#86 = CARTESIAN_POINT ( 'NONE',  ( 0.1250000000000000000, 1.530808498934191509E-17, 2.485000000000000320 ) ) ;
#87 = ADVANCED_FACE ( 'NONE', ( #279 ), #224, .F. ) ;
#88 = CYLINDRICAL_SURFACE ( 'NONE', #91, 0.1248749999999999999 ) ;
#89 = FACE_OUTER_BOUND ( 'NONE', #222, .T. ) ;
#90 = CARTESIAN_POINT ( 'NONE',  ( 0.0000000000000000000, 0.0000000000000000000, 2.485000000000000320 ) ) ;
#91 = AXIS2_PLACEMENT_3D ( 'NONE', #157, #158, #187 ) ;
#92 = DIRECTION ( 'NONE',  ( -0.0000000000000000000, -0.0000000000000000000, -1.000000000000000000 ) ) ;
#93 = EDGE_CURVE ( 'NONE', #200, #108, #207, .T. ) ;
#94 = LINE ( 'NONE', #96, #66 ) ;
#95 = ADVANCED_FACE ( 'NONE', ( #181 ), #5, .T. ) ;
#96 = CARTESIAN_POINT ( 'NONE',  ( 0.1100000000000001948, 1.347111479062090784E-17, 2.500000000000000000 ) ) ;
#97 = CIRCLE ( 'NONE', #133, 0.1248749999999999999 ) ;
#98 = CARTESIAN_POINT ( 'NONE',  ( -0.1248749999999999999, 0.0000000000000000000, 3.058555380870514950E-17 ) ) ;
#99 = DIRECTION ( 'NONE',  ( -1.000000000000000000, 0.0000000000000000000, 1.224646799147353454E-16 ) ) ;
#100 = DIRECTION ( 'NONE',  ( 0.7071067811865499042, 8.659560562354961208E-17, -0.7071067811865451302 ) ) ;
#101 = ORIENTED_EDGE ( 'NONE', *, *, #193, .T. ) ;
#102 = STYLED_ITEM ( 'NONE', ( #166 ), #196 ) ;
#103 = DIRECTION ( 'NONE',  ( 0.0000000000000000000, 0.0000000000000000000, 1.000000000000000000 ) ) ;
#104 = ORIENTED_EDGE ( 'NONE', *, *, #93, .F. ) ;
#105 = ADVANCED_BREP_SHAPE_REPRESENTATION ( 'Micro_GEM-250-3', ( #196, #199 ), #259 ) ;
#106 = APPLICATION_PROTOCOL_DEFINITION ( 'draft international standard', 'automotive_design', 1998, #59 ) ;
#107 = VERTEX_POINT ( 'NONE', #255 ) ;
#108 = VERTEX_POINT ( 'NONE', #248 ) ;
#109 = LINE ( 'NONE', #126, #132 ) ;
#110 = ORIENTED_EDGE ( 'NONE', *, *, #93, .T. ) ;
#111 = PRODUCT_DEFINITION_CONTEXT ( 'detailed design', #296, 'design' ) ;
#112 = CARTESIAN_POINT ( 'NONE',  ( 0.0000000000000000000, 0.0000000000000000000, 2.485000000000000320 ) ) ;
#113 = MECHANICAL_DESIGN_GEOMETRIC_PRESENTATION_REPRESENTATION (  '', ( #102 ), #119 ) ;
#114 = LINE ( 'NONE', #209, #208 ) ;
#115 = CARTESIAN_POINT ( 'NONE',  ( 9.184850993605150903E-17, 0.0000000000000000000, 0.7500000000000001110 ) ) ;
#116 = DIRECTION ( 'NONE',  ( 0.0000000000000000000, 0.0000000000000000000, 1.000000000000000000 ) ) ;
#117 = EDGE_CURVE ( 'NONE', #177, #107, #52, .T. ) ;
#118 = DIRECTION ( 'NONE',  ( 0.0000000000000000000, 0.0000000000000000000, -1.000000000000000000 ) ) ;
#119 =( GEOMETRIC_REPRESENTATION_CONTEXT ( 3 ) GLOBAL_UNCERTAINTY_ASSIGNED_CONTEXT ( ( #249 ) ) GLOBAL_UNIT_ASSIGNED_CONTEXT ( ( #120, #265, #210 ) ) REPRESENTATION_CONTEXT ( 'NONE', 'WORKASPACE' ) );
#120 =( CONVERSION_BASED_UNIT ( 'INCH', #47 ) LENGTH_UNIT ( ) NAMED_UNIT ( #144 ) );
#121 = ORIENTED_EDGE ( 'NONE', *, *, #217, .T. ) ;
#122 = ADVANCED_FACE ( 'NONE', ( #4 ), #136, .T. ) ;
#123 = DIRECTION ( 'NONE',  ( -0.7071067811865499042, 0.0000000000000000000, -0.7071067811865451302 ) ) ;
#124 = CARTESIAN_POINT ( 'NONE',  ( 0.1248750000000000970, 0.0000000000000000000, 0.7500000000000001110 ) ) ;
#125 = SURFACE_SIDE_STYLE ('',( #188 ) ) ;
#126 = CARTESIAN_POINT ( 'NONE',  ( 0.1248749999999999999, 1.529277690435257475E-17, -1.529277690435257475E-17 ) ) ;
#127 = ORIENTED_EDGE ( 'NONE', *, *, #244, .T. ) ;
#128 = SURFACE_STYLE_USAGE ( .BOTH. , #194 ) ;
#129 = EDGE_LOOP ( 'NONE', ( #20, #58, #121, #220 ) ) ;
#130 = EDGE_CURVE ( 'NONE', #55, #271, #114, .T. ) ;
#131 = DIRECTION ( 'NONE',  ( 1.000000000000000000, 0.0000000000000000000, 0.0000000000000000000 ) ) ;
#132 = VECTOR ( 'NONE', #14, 39.37007874015748143 ) ;
#133 = AXIS2_PLACEMENT_3D ( 'NONE', #115, #250, #25 ) ;
#134 = SHAPE_DEFINITION_REPRESENTATION ( #277, #105 ) ;
#135 = ORIENTED_EDGE ( 'NONE', *, *, #274, .T. ) ;
#136 = CYLINDRICAL_SURFACE ( 'NONE', #247, 0.1248749999999999999 ) ;
#137 = DIRECTION ( 'NONE',  ( -1.000000000000000000, 0.0000000000000000000, 0.0000000000000000000 ) ) ;
#138 = CIRCLE ( 'NONE', #276, 0.1248749999999999999 ) ;
#139 = DIRECTION ( 'NONE',  ( 0.0000000000000000000, 0.0000000000000000000, -1.000000000000000000 ) ) ;
#140 = CARTESIAN_POINT ( 'NONE',  ( 0.0000000000000000000, 0.0000000000000000000, 0.0000000000000000000 ) ) ;
#141 = CARTESIAN_POINT ( 'NONE',  ( 0.0000000000000000000, 0.0000000000000000000, 2.500000000000000000 ) ) ;
#142 = DIRECTION ( 'NONE',  ( -1.000000000000000000, 0.0000000000000000000, 0.0000000000000000000 ) ) ;
#143 = CIRCLE ( 'NONE', #81, 0.1248749999999999999 ) ;
#144 = DIMENSIONAL_EXPONENTS ( 1.000000000000000000, 0.0000000000000000000, 0.0000000000000000000, 0.0000000000000000000, 0.0000000000000000000, 0.0000000000000000000, 0.0000000000000000000 ) ;
#145 = CARTESIAN_POINT ( 'NONE',  ( 1.872825028598994811E-33, 0.0000000000000000000, 1.529277690435257475E-17 ) ) ;
#146 = CARTESIAN_POINT ( 'NONE',  ( 9.184850993605150903E-17, 0.0000000000000000000, 0.7500000000000001110 ) ) ;
#147 = CARTESIAN_POINT ( 'NONE',  ( -0.1100000000000001948, 0.0000000000000000000, 2.500000000000000000 ) ) ;
#148 = VECTOR ( 'NONE', #123, 39.37007874015748143 ) ;
#149 = CARTESIAN_POINT ( 'NONE',  ( -0.1248749999999999166, 1.530043094684724646E-17, 0.7500000000000001110 ) ) ;
#150 =( NAMED_UNIT ( * ) PLANE_ANGLE_UNIT ( ) SI_UNIT ( $, .RADIAN. ) );
#151 = ORIENTED_EDGE ( 'NONE', *, *, #42, .T. ) ;
#152 = FILL_AREA_STYLE ('',( #37 ) ) ;
#153 = EDGE_LOOP ( 'NONE', ( #197, #27, #154, #104 ) ) ;
#154 = ORIENTED_EDGE ( 'NONE', *, *, #42, .F. ) ;
#155 = CARTESIAN_POINT ( 'NONE',  ( 9.193532640014472135E-17, 0.0000000000000000000, 0.7507089102274522308 ) ) ;
#156 = FACE_OUTER_BOUND ( 'NONE', #83, .T. ) ;
#157 = CARTESIAN_POINT ( 'NONE',  ( 0.0000000000000000000, 0.0000000000000000000, 0.0000000000000000000 ) ) ;
#158 = DIRECTION ( 'NONE',  ( -1.224646799147353207E-16, -0.0000000000000000000, -1.000000000000000000 ) ) ;
#159 = CIRCLE ( 'NONE', #29, 0.1100000000000001948 ) ;
#160 = DIRECTION ( 'NONE',  ( -1.000000000000000000, 0.0000000000000000000, 0.0000000000000000000 ) ) ;
#161 = CARTESIAN_POINT ( 'NONE',  ( -0.1100000000000001948, 0.0000000000000000000, 2.500000000000000000 ) ) ;
#162 = CARTESIAN_POINT ( 'NONE',  ( 0.1248750000000000970, 0.0000000000000000000, 0.7500000000000001110 ) ) ;
#163 = AXIS2_PLACEMENT_3D ( 'NONE', #41, #63, #228 ) ;
#164 = SURFACE_STYLE_USAGE ( .BOTH. , #125 ) ;
#165 = ADVANCED_FACE ( 'NONE', ( #183 ), #88, .T. ) ;
#166 = PRESENTATION_STYLE_ASSIGNMENT (( #164 ) ) ;
#167 = ADVANCED_FACE ( 'NONE', ( #24 ), #65, .T. ) ;
#168 = CARTESIAN_POINT ( 'NONE',  ( 9.184850993605150903E-17, 0.0000000000000000000, 0.7500000000000001110 ) ) ;
#169 = CIRCLE ( 'NONE', #269, 0.1250000000000000000 ) ;
#170 = ORIENTED_EDGE ( 'NONE', *, *, #32, .T. ) ;
#171 = EDGE_CURVE ( 'NONE', #291, #246, #97, .T. ) ;
#172 = ORIENTED_EDGE ( 'NONE', *, *, #251, .F. ) ;
#173 = ORIENTED_EDGE ( 'NONE', *, *, #217, .F. ) ;
#174 = CIRCLE ( 'NONE', #239, 0.1250000000000000000 ) ;
#175 = ORIENTED_EDGE ( 'NONE', *, *, #261, .T. ) ;
#176 = PRODUCT_DEFINITION ( 'UNKNOWN', '', #53, #111 ) ;
#177 = VERTEX_POINT ( 'NONE', #161 ) ;
#178 = ORIENTED_EDGE ( 'NONE', *, *, #32, .F. ) ;
#179 = AXIS2_PLACEMENT_3D ( 'NONE', #226, #283, #23 ) ;
#180 = VECTOR ( 'NONE', #230, 39.37007874015748143 ) ;
#181 = FACE_OUTER_BOUND ( 'NONE', #153, .T. ) ;
#182 = DIRECTION ( 'NONE',  ( 0.0000000000000000000, 0.0000000000000000000, 1.000000000000000000 ) ) ;
#183 = FACE_OUTER_BOUND ( 'NONE', #238, .T. ) ;
#184 = EDGE_CURVE ( 'NONE', #200, #55, #174, .T. ) ;
#185 = DIRECTION ( 'NONE',  ( 0.0000000000000000000, 0.0000000000000000000, -1.000000000000000000 ) ) ;
#186 = DIMENSIONAL_EXPONENTS ( 1.000000000000000000, 0.0000000000000000000, 0.0000000000000000000, 0.0000000000000000000, 0.0000000000000000000, 0.0000000000000000000, 0.0000000000000000000 ) ;
#187 = DIRECTION ( 'NONE',  ( -1.000000000000000000, 0.0000000000000000000, 1.224646799147353454E-16 ) ) ;
#188 = SURFACE_STYLE_FILL_AREA ( #46 ) ;
#189 = DIRECTION ( 'NONE',  ( -0.1736481776669312194, 2.126576849575783625E-17, 0.9848077530122080203 ) ) ;
#190 = CARTESIAN_POINT ( 'NONE',  ( 0.1250000000000000833, 1.530808498934192433E-17, 0.7507089102274522308 ) ) ;
#191 = DIRECTION ( 'NONE',  ( -1.000000000000000000, 0.0000000000000000000, 1.224646799147353454E-16 ) ) ;
#192 = ORIENTED_EDGE ( 'NONE', *, *, #266, .T. ) ;
#193 = EDGE_CURVE ( 'NONE', #55, #200, #19, .T. ) ;
#194 = SURFACE_SIDE_STYLE ('',( #267 ) ) ;
#195 = ORIENTED_EDGE ( 'NONE', *, *, #34, .T. ) ;
#196 = MANIFOLD_SOLID_BREP ( 'Cut-Revolve1', #68 ) ;
#197 = ORIENTED_EDGE ( 'NONE', *, *, #184, .T. ) ;
#198 = AXIS2_PLACEMENT_3D ( 'NONE', #140, #116, #252 ) ;
#199 = AXIS2_PLACEMENT_3D ( 'NONE', #13, #103, #297 ) ;
#200 = VERTEX_POINT ( 'NONE', #74 ) ;
#201 = ORIENTED_EDGE ( 'NONE', *, *, #171, .F. ) ;
#202 = PRODUCT ( 'Micro_GEM-250-3', 'Micro_GEM-250-3', '', ( #242 ) ) ;
#203 = CARTESIAN_POINT ( 'NONE',  ( -0.1250000000000000000, 0.0000000000000000000, 2.500000000000000000 ) ) ;
#204 = CONICAL_SURFACE ( 'NONE', #10, 0.1100000000000001948, 0.7853981633974517207 ) ;
#205 = DIRECTION ( 'NONE',  ( 1.000000000000000000, 0.0000000000000000000, 0.0000000000000000000 ) ) ;
#206 = DIRECTION ( 'NONE',  ( 1.000000000000000000, 0.0000000000000000000, -0.0000000000000000000 ) ) ;
#207 = LINE ( 'NONE', #203, #281 ) ;
#208 = VECTOR ( 'NONE', #92, 39.37007874015748143 ) ;
#209 = CARTESIAN_POINT ( 'NONE',  ( 0.1250000000000000000, 1.530808498934191509E-17, 2.500000000000000000 ) ) ;
#210 =( NAMED_UNIT ( * ) SI_UNIT ( $, .STERADIAN. ) SOLID_ANGLE_UNIT ( ) );
#211 = FACE_OUTER_BOUND ( 'NONE', #129, .T. ) ;
#212 = COLOUR_RGB ( '',0.7921568627450980005, 0.8196078431372548767, 0.9333333333333333481 ) ;
#213 = DIRECTION ( 'NONE',  ( -1.224646799147353207E-16, -0.0000000000000000000, -1.000000000000000000 ) ) ;
#214 =( LENGTH_UNIT ( ) NAMED_UNIT ( * ) SI_UNIT ( $, .METRE. ) );
#215 = AXIS2_PLACEMENT_3D ( 'NONE', #39, #61, #131 ) ;
#216 = FACE_OUTER_BOUND ( 'NONE', #57, .T. ) ;
#217 = EDGE_CURVE ( 'NONE', #177, #200, #67, .T. ) ;
#218 = PRESENTATION_STYLE_ASSIGNMENT (( #128 ) ) ;
#219 = ORIENTED_EDGE ( 'NONE', *, *, #231, .F. ) ;
#220 = ORIENTED_EDGE ( 'NONE', *, *, #193, .F. ) ;
#221 = EDGE_LOOP ( 'NONE', ( #240, #101, #110, #21 ) ) ;
#222 = EDGE_LOOP ( 'NONE', ( #241, #77 ) ) ;
#223 = DIRECTION ( 'NONE',  ( -0.0000000000000000000, -0.0000000000000000000, -1.000000000000000000 ) ) ;
#224 = PLANE ( 'NONE',  #198 ) ;
#225 = AXIS2_PLACEMENT_3D ( 'NONE', #7, #223, #160 ) ;
#226 = CARTESIAN_POINT ( 'NONE',  ( 0.0000000000000000000, 0.0000000000000000000, 2.500000000000000000 ) ) ;
#227 = CARTESIAN_POINT ( 'NONE',  ( 0.0000000000000000000, 0.0000000000000000000, 0.0000000000000000000 ) ) ;
#228 = DIRECTION ( 'NONE',  ( 1.000000000000000000, 0.0000000000000000000, 0.0000000000000000000 ) ) ;
#229 = CONICAL_SURFACE ( 'NONE', #48, 0.1248749999999999999, 0.1745329251994339192 ) ;
#230 = DIRECTION ( 'NONE',  ( -1.224646799147353207E-16, -0.0000000000000000000, -1.000000000000000000 ) ) ;
#231 = EDGE_CURVE ( 'NONE', #246, #291, #138, .T. ) ;
#232 = LINE ( 'NONE', #124, #254 ) ;
#233 = ADVANCED_FACE ( 'NONE', ( #211 ), #204, .T. ) ;
#234 = VECTOR ( 'NONE', #189, 39.37007874015747433 ) ;
#235 = CARTESIAN_POINT ( 'NONE',  ( 0.0000000000000000000, 0.0000000000000000000, 2.500000000000000000 ) ) ;
#236 = FACE_OUTER_BOUND ( 'NONE', #36, .T. ) ;
#237 =( NAMED_UNIT ( * ) SI_UNIT ( $, .STERADIAN. ) SOLID_ANGLE_UNIT ( ) );
#238 = EDGE_LOOP ( 'NONE', ( #31, #170, #292, #270 ) ) ;
#239 = AXIS2_PLACEMENT_3D ( 'NONE', #90, #118, #22 ) ;
#240 = ORIENTED_EDGE ( 'NONE', *, *, #130, .F. ) ;
#241 = ORIENTED_EDGE ( 'NONE', *, *, #117, .T. ) ;
#242 = PRODUCT_CONTEXT ( 'NONE', #59, 'mechanical' ) ;
#243 = ORIENTED_EDGE ( 'NONE', *, *, #274, .F. ) ;
#244 = EDGE_CURVE ( 'NONE', #107, #55, #94, .T. ) ;
#245 = LENGTH_MEASURE_WITH_UNIT ( LENGTH_MEASURE( 0.02539999999999999897 ), #214 );
#246 = VERTEX_POINT ( 'NONE', #149 ) ;
#247 = AXIS2_PLACEMENT_3D ( 'NONE', #227, #43, #64 ) ;
#248 = CARTESIAN_POINT ( 'NONE',  ( -0.1249999999999999167, 0.0000000000000000000, 0.7507089102274522308 ) ) ;
#249 = UNCERTAINTY_MEASURE_WITH_UNIT (LENGTH_MEASURE( 1.000000000000000082E-05 ), #120, 'distance_accuracy_value', 'NONE');
#250 = DIRECTION ( 'NONE',  ( -1.224646799147353207E-16, -0.0000000000000000000, -1.000000000000000000 ) ) ;
#251 = EDGE_CURVE ( 'NONE', #246, #108, #286, .T. ) ;
#252 = DIRECTION ( 'NONE',  ( 1.000000000000000000, 0.0000000000000000000, -0.0000000000000000000 ) ) ;
#253 = CONICAL_SURFACE ( 'NONE', #293, 0.1100000000000001948, 0.7853981633974517207 ) ;
#254 = VECTOR ( 'NONE', #71, 39.37007874015748143 ) ;
#255 = CARTESIAN_POINT ( 'NONE',  ( 0.1100000000000001948, 1.438959988998141146E-17, 2.500000000000000000 ) ) ;
#256 = FILL_AREA_STYLE_COLOUR ( '', #212 ) ;
#257 = DIRECTION ( 'NONE',  ( 1.000000000000000000, 0.0000000000000000000, 0.0000000000000000000 ) ) ;
#258 = AXIS2_PLACEMENT_3D ( 'NONE', #155, #44, #205 ) ;
#259 =( GEOMETRIC_REPRESENTATION_CONTEXT ( 3 ) GLOBAL_UNCERTAINTY_ASSIGNED_CONTEXT ( ( #62 ) ) GLOBAL_UNIT_ASSIGNED_CONTEXT ( ( #76, #16, #272 ) ) REPRESENTATION_CONTEXT ( 'NONE', 'WORKASPACE' ) );
#260 = CARTESIAN_POINT ( 'NONE',  ( -0.1248749999999999999, 0.0000000000000000000, 1.529277690435257475E-17 ) ) ;
#261 = EDGE_CURVE ( 'NONE', #275, #35, #143, .T. ) ;
#262 = UNCERTAINTY_MEASURE_WITH_UNIT (LENGTH_MEASURE( 1.000000000000000082E-05 ), #82, 'distance_accuracy_value', 'NONE');
#263 = CARTESIAN_POINT ( 'NONE',  ( 1.872825028598994811E-33, 0.0000000000000000000, 1.529277690435257475E-17 ) ) ;
#264 = EDGE_CURVE ( 'NONE', #291, #271, #232, .T. ) ;
#265 =( NAMED_UNIT ( * ) PLANE_ANGLE_UNIT ( ) SI_UNIT ( $, .RADIAN. ) );
#266 = EDGE_CURVE ( 'NONE', #246, #275, #28, .T. ) ;
#267 = SURFACE_STYLE_FILL_AREA ( #152 ) ;
#268 = ORIENTED_EDGE ( 'NONE', *, *, #264, .T. ) ;
#269 = AXIS2_PLACEMENT_3D ( 'NONE', #298, #84, #273 ) ;
#270 = ORIENTED_EDGE ( 'NONE', *, *, #266, .F. ) ;
#271 = VERTEX_POINT ( 'NONE', #190 ) ;
#272 =( NAMED_UNIT ( * ) SI_UNIT ( $, .STERADIAN. ) SOLID_ANGLE_UNIT ( ) );
#273 = DIRECTION ( 'NONE',  ( 1.000000000000000000, 0.0000000000000000000, 0.0000000000000000000 ) ) ;
#274 = EDGE_CURVE ( 'NONE', #35, #275, #56, .T. ) ;
#275 = VERTEX_POINT ( 'NONE', #98 ) ;
#276 = AXIS2_PLACEMENT_3D ( 'NONE', #146, #287, #142 ) ;
#277 = PRODUCT_DEFINITION_SHAPE ( 'NONE', 'NONE',  #176 ) ;
#278 = CARTESIAN_POINT ( 'NONE',  ( 0.0000000000000000000, 0.0000000000000000000, 2.500000000000000000 ) ) ;
#279 = FACE_OUTER_BOUND ( 'NONE', #295, .T. ) ;
#280 = DIRECTION ( 'NONE',  ( -0.0000000000000000000, -0.0000000000000000000, -1.000000000000000000 ) ) ;
#281 = VECTOR ( 'NONE', #280, 39.37007874015748143 ) ;
#282 = DIRECTION ( 'NONE',  ( 1.000000000000000000, 0.0000000000000000000, 0.0000000000000000000 ) ) ;
#283 = DIRECTION ( 'NONE',  ( -0.0000000000000000000, -0.0000000000000000000, -1.000000000000000000 ) ) ;
#284 = CARTESIAN_POINT ( 'NONE',  ( -0.1248749999999999166, 1.529277690435257475E-17, 0.7500000000000001110 ) ) ;
#285 = PRESENTATION_LAYER_ASSIGNMENT (  '', '', ( #3 ) ) ;
#286 = LINE ( 'NONE', #284, #234 ) ;
#287 = DIRECTION ( 'NONE',  ( -1.224646799147353207E-16, -0.0000000000000000000, -1.000000000000000000 ) ) ;
#288 = COLOUR_RGB ( '',0.7921568627450980005, 0.8196078431372548767, 0.9333333333333333481 ) ;
#289 = ADVANCED_FACE ( 'NONE', ( #236 ), #229, .T. ) ;
#290 = APPLICATION_PROTOCOL_DEFINITION ( 'draft international standard', 'automotive_design', 1998, #296 ) ;
#291 = VERTEX_POINT ( 'NONE', #162 ) ;
#292 = ORIENTED_EDGE ( 'NONE', *, *, #261, .F. ) ;
#293 = AXIS2_PLACEMENT_3D ( 'NONE', #278, #139, #137 ) ;
#294 =( GEOMETRIC_REPRESENTATION_CONTEXT ( 3 ) GLOBAL_UNCERTAINTY_ASSIGNED_CONTEXT ( ( #262 ) ) GLOBAL_UNIT_ASSIGNED_CONTEXT ( ( #82, #150, #237 ) ) REPRESENTATION_CONTEXT ( 'NONE', 'WORKASPACE' ) );
#295 = EDGE_LOOP ( 'NONE', ( #175, #135 ) ) ;
#296 = APPLICATION_CONTEXT ( 'automotive_design' ) ;
#297 = DIRECTION ( 'NONE',  ( 1.000000000000000000, 0.0000000000000000000, 0.0000000000000000000 ) ) ;
#298 = CARTESIAN_POINT ( 'NONE',  ( 9.193532640014472135E-17, 0.0000000000000000000, 0.7507089102274522308 ) ) ;
#299 = ORIENTED_EDGE ( 'NONE', *, *, #75, .F. ) ;
ENDSEC;
END-ISO-10303-21;
