ISO-10303-21;
HEADER;
FILE_DESCRIPTION (( 'STEP AP214' ),
    '1' );
FILE_NAME ('Micro_GEMM-050-4.STEP',
    '2021-09-01T21:38:04',
    ( '' ),
    ( '' ),
    'SwSTEP 2.0',
    'SolidWorks 2020',
    '' );
FILE_SCHEMA (( 'AUTOMOTIVE_DESIGN' ));
ENDSEC;

DATA;
#1 = VERTEX_POINT ( 'NONE', #141 ) ;
#2 = AXIS2_PLACEMENT_3D ( 'NONE', #192, #175, #264 ) ;
#3 = PRESENTATION_STYLE_ASSIGNMENT (( #211 ) ) ;
#4 = EDGE_CURVE ( 'NONE', #227, #1, #205, .T. ) ;
#5 = FILL_AREA_STYLE ('',( #73 ) ) ;
#6 = CARTESIAN_POINT ( 'NONE',  ( -0.09832657499999998552, 0.0000000000000000000, 2.408306506897443024E-17 ) ) ;
#7 = CARTESIAN_POINT ( 'NONE',  ( 0.0000000000000000000, 0.0000000000000000000, 0.0000000000000000000 ) ) ;
#8 = DIRECTION ( 'NONE',  ( -1.000000000000000000, 0.0000000000000000000, 1.224646799147353207E-16 ) ) ;
#9 = CARTESIAN_POINT ( 'NONE',  ( 1.474662427518848307E-33, 0.0000000000000000000, 1.204153253448721512E-17 ) ) ;
#10 = CARTESIAN_POINT ( 'NONE',  ( 0.1031100000000002570, 1.354581824536888722E-17, 2.244094000000000033 ) ) ;
#11 = PRODUCT_DEFINITION_SHAPE ( 'NONE', 'NONE',  #256 ) ;
#12 = ORIENTED_EDGE ( 'NONE', *, *, #99, .F. ) ;
#13 =( CONVERSION_BASED_UNIT ( 'INCH', #177 ) LENGTH_UNIT ( ) NAMED_UNIT ( #274 ) );
#14 = UNCERTAINTY_MEASURE_WITH_UNIT (LENGTH_MEASURE( 1.000000000000000082E-05 ), #13, 'distance_accuracy_value', 'NONE');
#15 = ORIENTED_EDGE ( 'NONE', *, *, #70, .F. ) ;
#16 = VECTOR ( 'NONE', #210, 39.37007874015748143 ) ;
#17 = CARTESIAN_POINT ( 'NONE',  ( 0.1031100000000002570, 1.262733314600838667E-17, 2.244094000000000033 ) ) ;
#18 = ORIENTED_EDGE ( 'NONE', *, *, #4, .F. ) ;
#19 = EDGE_LOOP ( 'NONE', ( #248, #88, #204, #251 ) ) ;
#20 = CARTESIAN_POINT ( 'NONE',  ( 0.0000000000000000000, 0.0000000000000000000, 2.244094000000000033 ) ) ;
#21 = VERTEX_POINT ( 'NONE', #188 ) ;
#22 = DIRECTION ( 'NONE',  ( -1.224646799147353207E-16, -0.0000000000000000000, -1.000000000000000000 ) ) ;
#23 = SURFACE_STYLE_FILL_AREA ( #72 ) ;
#24 = CARTESIAN_POINT ( 'NONE',  ( -0.09832657499999997164, 0.0000000000000000000, 1.204153253448721204E-17 ) ) ;
#25 = CARTESIAN_POINT ( 'NONE',  ( 0.1181100000000000899, 1.446430334472940009E-17, 0.6240083785322699805 ) ) ;
#26 = ADVANCED_FACE ( 'NONE', ( #69 ), #165, .T. ) ;
#27 = MECHANICAL_DESIGN_GEOMETRIC_PRESENTATION_REPRESENTATION (  '', ( #232 ), #279 ) ;
#28 = PRODUCT_DEFINITION_FORMATION_WITH_SPECIFIED_SOURCE ( 'ANY', '', #240, .NOT_KNOWN. ) ;
#29 =( NAMED_UNIT ( * ) SI_UNIT ( $, .STERADIAN. ) SOLID_ANGLE_UNIT ( ) );
#30 =( LENGTH_UNIT ( ) NAMED_UNIT ( * ) SI_UNIT ( $, .METRE. ) );
#31 = ADVANCED_BREP_SHAPE_REPRESENTATION ( 'Micro_GEMM-050-4', ( #270, #139 ), #60 ) ;
#32 = VECTOR ( 'NONE', #160, 39.37007874015748143 ) ;
#33 = VERTEX_POINT ( 'NONE', #225 ) ;
#34 = CARTESIAN_POINT ( 'NONE',  ( 0.0000000000000000000, 0.0000000000000000000, 2.244094000000000033 ) ) ;
#35 = PRODUCT_DEFINITION_CONTEXT ( 'detailed design', #197, 'design' ) ;
#36 = EDGE_LOOP ( 'NONE', ( #185, #220, #63, #15 ) ) ;
#37 = AXIS2_PLACEMENT_3D ( 'NONE', #151, #261, #82 ) ;
#38 = EDGE_LOOP ( 'NONE', ( #113, #269 ) ) ;
#39 = DIRECTION ( 'NONE',  ( -0.0000000000000000000, -0.0000000000000000000, -1.000000000000000000 ) ) ;
#40 = EDGE_CURVE ( 'NONE', #203, #144, #120, .T. ) ;
#41 = VERTEX_POINT ( 'NONE', #6 ) ;
#42 = COLOUR_RGB ( '',0.7921568627450980005, 0.8196078431372548767, 0.9333333333333333481 ) ;
#43 = DIRECTION ( 'NONE',  ( 1.224646799147353207E-16, 0.0000000000000000000, 1.000000000000000000 ) ) ;
#44 = EDGE_CURVE ( 'NONE', #33, #162, #206, .T. ) ;
#45 =( NAMED_UNIT ( * ) PLANE_ANGLE_UNIT ( ) SI_UNIT ( $, .RADIAN. ) );
#46 = AXIS2_PLACEMENT_3D ( 'NONE', #20, #116, #208 ) ;
#47 = DIMENSIONAL_EXPONENTS ( 1.000000000000000000, 0.0000000000000000000, 0.0000000000000000000, 0.0000000000000000000, 0.0000000000000000000, 0.0000000000000000000, 0.0000000000000000000 ) ;
#48 = CARTESIAN_POINT ( 'NONE',  ( 6.267877029184060992E-17, 0.0000000000000000000, 0.5118110000000000159 ) ) ;
#49 = DIRECTION ( 'NONE',  ( 1.000000000000000000, 0.0000000000000000000, -0.0000000000000000000 ) ) ;
#50 = DIRECTION ( 'NONE',  ( -1.224646799147353207E-16, -0.0000000000000000000, -1.000000000000000000 ) ) ;
#51 = AXIS2_PLACEMENT_3D ( 'NONE', #52, #107, #292 ) ;
#52 = CARTESIAN_POINT ( 'NONE',  ( 0.0000000000000000000, 0.0000000000000000000, 2.244094000000000033 ) ) ;
#53 = AXIS2_PLACEMENT_3D ( 'NONE', #48, #147, #234 ) ;
#54 = DIRECTION ( 'NONE',  ( -1.000000000000000000, 0.0000000000000000000, 1.224646799147353207E-16 ) ) ;
#55 = FACE_OUTER_BOUND ( 'NONE', #246, .T. ) ;
#56 = ADVANCED_FACE ( 'NONE', ( #101 ), #129, .F. ) ;
#57 = APPLICATION_PROTOCOL_DEFINITION ( 'draft international standard', 'automotive_design', 1998, #197 ) ;
#58 = CARTESIAN_POINT ( 'NONE',  ( 0.0000000000000000000, 0.0000000000000000000, 2.244094000000000033 ) ) ;
#59 = AXIS2_PLACEMENT_3D ( 'NONE', #258, #285, #195 ) ;
#60 =( GEOMETRIC_REPRESENTATION_CONTEXT ( 3 ) GLOBAL_UNCERTAINTY_ASSIGNED_CONTEXT ( ( #14 ) ) GLOBAL_UNIT_ASSIGNED_CONTEXT ( ( #13, #45, #98 ) ) REPRESENTATION_CONTEXT ( 'NONE', 'WORKASPACE' ) );
#61 = ADVANCED_FACE ( 'NONE', ( #104 ), #127, .T. ) ;
#62 = DIRECTION ( 'NONE',  ( 0.0000000000000000000, 0.0000000000000000000, -1.000000000000000000 ) ) ;
#63 = ORIENTED_EDGE ( 'NONE', *, *, #109, .T. ) ;
#64 = DIRECTION ( 'NONE',  ( -1.000000000000000000, 0.0000000000000000000, 0.0000000000000000000 ) ) ;
#65 = ORIENTED_EDGE ( 'NONE', *, *, #4, .T. ) ;
#66 = ORIENTED_EDGE ( 'NONE', *, *, #239, .F. ) ;
#67 = AXIS2_PLACEMENT_3D ( 'NONE', #112, #209, #96 ) ;
#68 = DIRECTION ( 'NONE',  ( -1.224646799147353207E-16, -0.0000000000000000000, -1.000000000000000000 ) ) ;
#69 = FACE_OUTER_BOUND ( 'NONE', #19, .T. ) ;
#70 = EDGE_CURVE ( 'NONE', #227, #277, #260, .T. ) ;
#71 = DIRECTION ( 'NONE',  ( 1.000000000000000000, 0.0000000000000000000, 0.0000000000000000000 ) ) ;
#72 = FILL_AREA_STYLE ('',( #255 ) ) ;
#73 = FILL_AREA_STYLE_COLOUR ( '', #42 ) ;
#74 = AXIS2_PLACEMENT_3D ( 'NONE', #132, #43, #71 ) ;
#75 = LENGTH_MEASURE_WITH_UNIT ( LENGTH_MEASURE( 0.02539999999999999897 ), #190 );
#76 = FACE_OUTER_BOUND ( 'NONE', #166, .T. ) ;
#77 = SURFACE_SIDE_STYLE ('',( #286 ) ) ;
#78 = CLOSED_SHELL ( 'NONE', ( #61, #272, #146, #233, #26, #131, #80, #171, #125, #56 ) ) ;
#79 = DIRECTION ( 'NONE',  ( 1.000000000000000000, 0.0000000000000000000, 0.0000000000000000000 ) ) ;
#80 = ADVANCED_FACE ( 'NONE', ( #55 ), #143, .T. ) ;
#81 = AXIS2_PLACEMENT_3D ( 'NONE', #174, #287, #79 ) ;
#82 = DIRECTION ( 'NONE',  ( 1.000000000000000000, 0.0000000000000000000, -0.0000000000000000000 ) ) ;
#83 = DIRECTION ( 'NONE',  ( -1.000000000000000000, 0.0000000000000000000, 1.224646799147353207E-16 ) ) ;
#84 = DIRECTION ( 'NONE',  ( -1.000000000000000000, 0.0000000000000000000, 1.224646799147353207E-16 ) ) ;
#85 = CARTESIAN_POINT ( 'NONE',  ( -0.1031100000000002570, 0.0000000000000000000, 2.244094000000000033 ) ) ;
#86 = AXIS2_PLACEMENT_3D ( 'NONE', #194, #153, #8 ) ;
#87 = EDGE_CURVE ( 'NONE', #144, #203, #212, .T. ) ;
#88 = ORIENTED_EDGE ( 'NONE', *, *, #99, .T. ) ;
#89 = CYLINDRICAL_SURFACE ( 'NONE', #100, 0.1181100000000000066 ) ;
#90 = ORIENTED_EDGE ( 'NONE', *, *, #92, .F. ) ;
#91 = ORIENTED_EDGE ( 'NONE', *, *, #182, .T. ) ;
#92 = EDGE_CURVE ( 'NONE', #115, #21, #122, .T. ) ;
#93 = ORIENTED_EDGE ( 'NONE', *, *, #239, .T. ) ;
#94 = AXIS2_PLACEMENT_3D ( 'NONE', #237, #62, #297 ) ;
#95 = EDGE_LOOP ( 'NONE', ( #242, #65, #159, #253 ) ) ;
#96 = DIRECTION ( 'NONE',  ( 1.000000000000000000, 0.0000000000000000000, 0.0000000000000000000 ) ) ;
#97 = CONICAL_SURFACE ( 'NONE', #53, 0.09832657499999997164, 0.1745329251994339748 ) ;
#98 =( NAMED_UNIT ( * ) SI_UNIT ( $, .STERADIAN. ) SOLID_ANGLE_UNIT ( ) );
#99 = EDGE_CURVE ( 'NONE', #21, #115, #179, .T. ) ;
#100 = AXIS2_PLACEMENT_3D ( 'NONE', #34, #183, #64 ) ;
#101 = FACE_OUTER_BOUND ( 'NONE', #186, .T. ) ;
#102 = SURFACE_STYLE_USAGE ( .BOTH. , #77 ) ;
#103 = EDGE_CURVE ( 'NONE', #1, #41, #189, .T. ) ;
#104 = FACE_OUTER_BOUND ( 'NONE', #95, .T. ) ;
#105 = PRESENTATION_LAYER_ASSIGNMENT (  '', '', ( #232 ) ) ;
#106 = CARTESIAN_POINT ( 'NONE',  ( 6.267877029184060992E-17, 0.0000000000000000000, 0.5118110000000000159 ) ) ;
#107 = DIRECTION ( 'NONE',  ( 0.0000000000000000000, 0.0000000000000000000, 1.000000000000000000 ) ) ;
#108 = ORIENTED_EDGE ( 'NONE', *, *, #114, .T. ) ;
#109 = EDGE_CURVE ( 'NONE', #162, #277, #191, .T. ) ;
#110 = VECTOR ( 'NONE', #134, 39.37007874015748854 ) ;
#111 = ORIENTED_EDGE ( 'NONE', *, *, #44, .F. ) ;
#112 = CARTESIAN_POINT ( 'NONE',  ( 7.641898634106744880E-17, 0.0000000000000000000, 0.6240083785322699805 ) ) ;
#113 = ORIENTED_EDGE ( 'NONE', *, *, #40, .T. ) ;
#114 = EDGE_CURVE ( 'NONE', #227, #33, #207, .T. ) ;
#115 = VERTEX_POINT ( 'NONE', #198 ) ;
#116 = DIRECTION ( 'NONE',  ( 0.0000000000000000000, 0.0000000000000000000, 1.000000000000000000 ) ) ;
#117 = EDGE_LOOP ( 'NONE', ( #164, #298, #275, #136 ) ) ;
#118 = LINE ( 'NONE', #24, #16 ) ;
#119 = SURFACE_SIDE_STYLE ('',( #23 ) ) ;
#120 = CIRCLE ( 'NONE', #46, 0.1031100000000002570 ) ;
#121 = DIRECTION ( 'NONE',  ( -0.1736481776669312471, 2.126576849575783933E-17, 0.9848077530122077983 ) ) ;
#122 = CIRCLE ( 'NONE', #81, 0.1181100000000000066 ) ;
#123 = CARTESIAN_POINT ( 'NONE',  ( 0.1181100000000000066, 1.446430334472939084E-17, 2.244094000000000033 ) ) ;
#124 = AXIS2_PLACEMENT_3D ( 'NONE', #252, #39, #142 ) ;
#125 = ADVANCED_FACE ( 'NONE', ( #241 ), #291, .T. ) ;
#126 = DIRECTION ( 'NONE',  ( -1.000000000000000000, 0.0000000000000000000, 0.0000000000000000000 ) ) ;
#127 = CYLINDRICAL_SURFACE ( 'NONE', #86, 0.09832657499999997164 ) ;
#128 = ORIENTED_EDGE ( 'NONE', *, *, #187, .T. ) ;
#129 = PLANE ( 'NONE',  #37 ) ;
#130 = CARTESIAN_POINT ( 'NONE',  ( 0.0000000000000000000, 0.0000000000000000000, 0.0000000000000000000 ) ) ;
#131 = ADVANCED_FACE ( 'NONE', ( #178 ), #265, .T. ) ;
#132 = CARTESIAN_POINT ( 'NONE',  ( 6.267877029184060992E-17, 0.0000000000000000000, 0.5118110000000000159 ) ) ;
#133 = PRODUCT_CONTEXT ( 'NONE', #231, 'mechanical' ) ;
#134 = DIRECTION ( 'NONE',  ( -0.7071067811865358044, 0.0000000000000000000, -0.7071067811865590080 ) ) ;
#135 = UNCERTAINTY_MEASURE_WITH_UNIT (LENGTH_MEASURE( 1.000000000000000082E-05 ), #170, 'distance_accuracy_value', 'NONE');
#136 = ORIENTED_EDGE ( 'NONE', *, *, #150, .F. ) ;
#137 = LINE ( 'NONE', #17, #267 ) ;
#138 = CONICAL_SURFACE ( 'NONE', #94, 0.1031100000000002570, 0.7853981633974318477 ) ;
#139 = AXIS2_PLACEMENT_3D ( 'NONE', #130, #158, #244 ) ;
#140 = ORIENTED_EDGE ( 'NONE', *, *, #114, .F. ) ;
#141 = CARTESIAN_POINT ( 'NONE',  ( 0.09832657499999998552, 1.204153253448721512E-17, 1.895600338963814870E-33 ) ) ;
#142 = DIRECTION ( 'NONE',  ( -1.000000000000000000, 0.0000000000000000000, 0.0000000000000000000 ) ) ;
#143 = CONICAL_SURFACE ( 'NONE', #2, 0.1031100000000002570, 0.7853981633974318477 ) ;
#144 = VERTEX_POINT ( 'NONE', #10 ) ;
#145 = LINE ( 'NONE', #222, #32 ) ;
#146 = ADVANCED_FACE ( 'NONE', ( #76 ), #138, .T. ) ;
#147 = DIRECTION ( 'NONE',  ( 1.224646799147353207E-16, 0.0000000000000000000, 1.000000000000000000 ) ) ;
#148 = DIRECTION ( 'NONE',  ( 0.0000000000000000000, 0.0000000000000000000, 1.000000000000000000 ) ) ;
#149 = CARTESIAN_POINT ( 'NONE',  ( 1.474662427518848307E-33, 0.0000000000000000000, 1.204153253448721512E-17 ) ) ;
#150 = EDGE_CURVE ( 'NONE', #115, #162, #145, .T. ) ;
#151 = CARTESIAN_POINT ( 'NONE',  ( 0.0000000000000000000, 0.0000000000000000000, 0.0000000000000000000 ) ) ;
#152 = AXIS2_PLACEMENT_3D ( 'NONE', #106, #219, #126 ) ;
#153 = DIRECTION ( 'NONE',  ( -1.224646799147353207E-16, -0.0000000000000000000, -1.000000000000000000 ) ) ;
#154 = SHAPE_DEFINITION_REPRESENTATION ( #11, #31 ) ;
#155 = DIRECTION ( 'NONE',  ( 0.0000000000000000000, 0.0000000000000000000, -1.000000000000000000 ) ) ;
#156 = ORIENTED_EDGE ( 'NONE', *, *, #70, .T. ) ;
#157 = AXIS2_PLACEMENT_3D ( 'NONE', #9, #235, #84 ) ;
#158 = DIRECTION ( 'NONE',  ( 0.0000000000000000000, 0.0000000000000000000, 1.000000000000000000 ) ) ;
#159 = ORIENTED_EDGE ( 'NONE', *, *, #296, .F. ) ;
#160 = DIRECTION ( 'NONE',  ( -0.0000000000000000000, -0.0000000000000000000, -1.000000000000000000 ) ) ;
#161 = UNCERTAINTY_MEASURE_WITH_UNIT (LENGTH_MEASURE( 1.000000000000000082E-05 ), #262, 'distance_accuracy_value', 'NONE');
#162 = VERTEX_POINT ( 'NONE', #254 ) ;
#163 = CIRCLE ( 'NONE', #196, 0.09832657499999998552 ) ;
#164 = ORIENTED_EDGE ( 'NONE', *, *, #92, .T. ) ;
#165 = CYLINDRICAL_SURFACE ( 'NONE', #124, 0.1181100000000000066 ) ;
#166 = EDGE_LOOP ( 'NONE', ( #224, #93, #90, #223 ) ) ;
#167 = LINE ( 'NONE', #85, #110 ) ;
#168 = CONICAL_SURFACE ( 'NONE', #74, 0.09832657499999997164, 0.1745329251994339748 ) ;
#169 = MECHANICAL_DESIGN_GEOMETRIC_PRESENTATION_REPRESENTATION (  '', ( #250 ), #180 ) ;
#170 =( CONVERSION_BASED_UNIT ( 'INCH', #75 ) LENGTH_UNIT ( ) NAMED_UNIT ( #214 ) );
#171 = ADVANCED_FACE ( 'NONE', ( #273 ), #168, .T. ) ;
#172 =( LENGTH_UNIT ( ) NAMED_UNIT ( * ) SI_UNIT ( $, .METRE. ) );
#173 = DIRECTION ( 'NONE',  ( 1.000000000000000000, 0.0000000000000000000, 0.0000000000000000000 ) ) ;
#174 = CARTESIAN_POINT ( 'NONE',  ( 0.0000000000000000000, 0.0000000000000000000, 2.229093999999999465 ) ) ;
#175 = DIRECTION ( 'NONE',  ( 0.0000000000000000000, 0.0000000000000000000, -1.000000000000000000 ) ) ;
#176 = APPLICATION_PROTOCOL_DEFINITION ( 'draft international standard', 'automotive_design', 1998, #231 ) ;
#177 = LENGTH_MEASURE_WITH_UNIT ( LENGTH_MEASURE( 0.02539999999999999897 ), #30 );
#178 = FACE_OUTER_BOUND ( 'NONE', #38, .T. ) ;
#179 = CIRCLE ( 'NONE', #249, 0.1181100000000000066 ) ;
#180 =( GEOMETRIC_REPRESENTATION_CONTEXT ( 3 ) GLOBAL_UNCERTAINTY_ASSIGNED_CONTEXT ( ( #161 ) ) GLOBAL_UNIT_ASSIGNED_CONTEXT ( ( #262, #293, #29 ) ) REPRESENTATION_CONTEXT ( 'NONE', 'WORKASPACE' ) );
#181 = EDGE_LOOP ( 'NONE', ( #111, #140, #156, #199 ) ) ;
#182 = EDGE_CURVE ( 'NONE', #203, #115, #167, .T. ) ;
#183 = DIRECTION ( 'NONE',  ( -0.0000000000000000000, -0.0000000000000000000, -1.000000000000000000 ) ) ;
#184 = ORIENTED_EDGE ( 'NONE', *, *, #40, .F. ) ;
#185 = ORIENTED_EDGE ( 'NONE', *, *, #229, .F. ) ;
#186 = EDGE_LOOP ( 'NONE', ( #276, #271 ) ) ;
#187 = EDGE_CURVE ( 'NONE', #33, #41, #118, .T. ) ;
#188 = CARTESIAN_POINT ( 'NONE',  ( 0.1181100000000000066, 1.446430334472939084E-17, 2.229093999999999465 ) ) ;
#189 = CIRCLE ( 'NONE', #157, 0.09832657499999998552 ) ;
#190 =( LENGTH_UNIT ( ) NAMED_UNIT ( * ) SI_UNIT ( $, .METRE. ) );
#191 = CIRCLE ( 'NONE', #59, 0.1181100000000000066 ) ;
#192 = CARTESIAN_POINT ( 'NONE',  ( 0.0000000000000000000, 0.0000000000000000000, 2.244094000000000033 ) ) ;
#193 = CARTESIAN_POINT ( 'NONE',  ( -0.09832657499999990225, 1.204153253448721204E-17, 0.5118110000000000159 ) ) ;
#194 = CARTESIAN_POINT ( 'NONE',  ( 0.0000000000000000000, 0.0000000000000000000, 0.0000000000000000000 ) ) ;
#195 = DIRECTION ( 'NONE',  ( 1.000000000000000000, 0.0000000000000000000, 0.0000000000000000000 ) ) ;
#196 = AXIS2_PLACEMENT_3D ( 'NONE', #149, #236, #54 ) ;
#197 = APPLICATION_CONTEXT ( 'automotive_design' ) ;
#198 = CARTESIAN_POINT ( 'NONE',  ( -0.1181100000000000066, 0.0000000000000000000, 2.229093999999999465 ) ) ;
#199 = ORIENTED_EDGE ( 'NONE', *, *, #266, .T. ) ;
#200 = CARTESIAN_POINT ( 'NONE',  ( 0.09832657500000004103, 0.0000000000000000000, 0.5118110000000000159 ) ) ;
#201 = CIRCLE ( 'NONE', #67, 0.1181100000000000066 ) ;
#202 = FACE_OUTER_BOUND ( 'NONE', #117, .T. ) ;
#203 = VERTEX_POINT ( 'NONE', #228 ) ;
#204 = ORIENTED_EDGE ( 'NONE', *, *, #150, .T. ) ;
#205 = LINE ( 'NONE', #299, #215 ) ;
#206 = LINE ( 'NONE', #193, #221 ) ;
#207 = CIRCLE ( 'NONE', #152, 0.09832657499999997164 ) ;
#208 = DIRECTION ( 'NONE',  ( 1.000000000000000000, 0.0000000000000000000, 0.0000000000000000000 ) ) ;
#209 = DIRECTION ( 'NONE',  ( -1.224646799147353207E-16, -0.0000000000000000000, -1.000000000000000000 ) ) ;
#210 = DIRECTION ( 'NONE',  ( -1.224646799147353207E-16, -0.0000000000000000000, -1.000000000000000000 ) ) ;
#211 = SURFACE_STYLE_USAGE ( .BOTH. , #119 ) ;
#212 = CIRCLE ( 'NONE', #51, 0.1031100000000002570 ) ;
#213 = LINE ( 'NONE', #123, #218 ) ;
#214 = DIMENSIONAL_EXPONENTS ( 1.000000000000000000, 0.0000000000000000000, 0.0000000000000000000, 0.0000000000000000000, 0.0000000000000000000, 0.0000000000000000000, 0.0000000000000000000 ) ;
#215 = VECTOR ( 'NONE', #68, 39.37007874015748143 ) ;
#216 = CARTESIAN_POINT ( 'NONE',  ( 0.09832657500000004103, 0.0000000000000000000, 0.5118110000000000159 ) ) ;
#217 = AXIS2_PLACEMENT_3D ( 'NONE', #7, #50, #83 ) ;
#218 = VECTOR ( 'NONE', #284, 39.37007874015748143 ) ;
#219 = DIRECTION ( 'NONE',  ( -1.224646799147353207E-16, -0.0000000000000000000, -1.000000000000000000 ) ) ;
#220 = ORIENTED_EDGE ( 'NONE', *, *, #44, .T. ) ;
#221 = VECTOR ( 'NONE', #121, 39.37007874015748143 ) ;
#222 = CARTESIAN_POINT ( 'NONE',  ( -0.1181100000000000066, 0.0000000000000000000, 2.244094000000000033 ) ) ;
#223 = ORIENTED_EDGE ( 'NONE', *, *, #182, .F. ) ;
#224 = ORIENTED_EDGE ( 'NONE', *, *, #87, .F. ) ;
#225 = CARTESIAN_POINT ( 'NONE',  ( -0.09832657499999990225, 1.325291793960830067E-17, 0.5118110000000000159 ) ) ;
#226 = PRESENTATION_LAYER_ASSIGNMENT (  '', '', ( #250 ) ) ;
#227 = VERTEX_POINT ( 'NONE', #200 ) ;
#228 = CARTESIAN_POINT ( 'NONE',  ( -0.1031100000000002570, 0.0000000000000000000, 2.244094000000000033 ) ) ;
#229 = EDGE_CURVE ( 'NONE', #33, #227, #243, .T. ) ;
#230 = DIRECTION ( 'NONE',  ( 0.7071067811865358044, 8.659560562354788645E-17, -0.7071067811865590080 ) ) ;
#231 = APPLICATION_CONTEXT ( 'automotive_design' ) ;
#232 = STYLED_ITEM ( 'NONE', ( #280 ), #270 ) ;
#233 = ADVANCED_FACE ( 'NONE', ( #202 ), #89, .T. ) ;
#234 = DIRECTION ( 'NONE',  ( 1.000000000000000000, 0.0000000000000000000, 0.0000000000000000000 ) ) ;
#235 = DIRECTION ( 'NONE',  ( -1.224646799147353207E-16, -0.0000000000000000000, -1.000000000000000000 ) ) ;
#236 = DIRECTION ( 'NONE',  ( -1.224646799147353207E-16, -0.0000000000000000000, -1.000000000000000000 ) ) ;
#237 = CARTESIAN_POINT ( 'NONE',  ( 0.0000000000000000000, 0.0000000000000000000, 2.244094000000000033 ) ) ;
#238 = CARTESIAN_POINT ( 'NONE',  ( 0.0000000000000000000, 0.0000000000000000000, 2.229093999999999465 ) ) ;
#239 = EDGE_CURVE ( 'NONE', #144, #21, #137, .T. ) ;
#240 = PRODUCT ( 'Micro_GEMM-050-4', 'Micro_GEMM-050-4', '', ( #133 ) ) ;
#241 = FACE_OUTER_BOUND ( 'NONE', #295, .T. ) ;
#242 = ORIENTED_EDGE ( 'NONE', *, *, #229, .T. ) ;
#243 = CIRCLE ( 'NONE', #283, 0.09832657499999997164 ) ;
#244 = DIRECTION ( 'NONE',  ( 1.000000000000000000, 0.0000000000000000000, 0.0000000000000000000 ) ) ;
#245 = DIRECTION ( 'NONE',  ( -1.000000000000000000, 0.0000000000000000000, 0.0000000000000000000 ) ) ;
#246 = EDGE_LOOP ( 'NONE', ( #66, #184, #91, #12 ) ) ;
#247 = CARTESIAN_POINT ( 'NONE',  ( 6.267877029184060992E-17, 0.0000000000000000000, 0.5118110000000000159 ) ) ;
#248 = ORIENTED_EDGE ( 'NONE', *, *, #278, .F. ) ;
#249 = AXIS2_PLACEMENT_3D ( 'NONE', #238, #155, #173 ) ;
#250 = STYLED_ITEM ( 'NONE', ( #3 ), #31 ) ;
#251 = ORIENTED_EDGE ( 'NONE', *, *, #266, .F. ) ;
#252 = CARTESIAN_POINT ( 'NONE',  ( 0.0000000000000000000, 0.0000000000000000000, 2.244094000000000033 ) ) ;
#253 = ORIENTED_EDGE ( 'NONE', *, *, #187, .F. ) ;
#254 = CARTESIAN_POINT ( 'NONE',  ( -0.1181099999999999373, 0.0000000000000000000, 0.6240083785322699805 ) ) ;
#255 = FILL_AREA_STYLE_COLOUR ( '', #290 ) ;
#256 = PRODUCT_DEFINITION ( 'UNKNOWN', '', #28, #35 ) ;
#257 =( NAMED_UNIT ( * ) PLANE_ANGLE_UNIT ( ) SI_UNIT ( $, .RADIAN. ) );
#258 = CARTESIAN_POINT ( 'NONE',  ( 7.641898634106744880E-17, 0.0000000000000000000, 0.6240083785322699805 ) ) ;
#259 =( NAMED_UNIT ( * ) SI_UNIT ( $, .STERADIAN. ) SOLID_ANGLE_UNIT ( ) );
#260 = LINE ( 'NONE', #216, #263 ) ;
#261 = DIRECTION ( 'NONE',  ( 0.0000000000000000000, 0.0000000000000000000, 1.000000000000000000 ) ) ;
#262 =( CONVERSION_BASED_UNIT ( 'INCH', #268 ) LENGTH_UNIT ( ) NAMED_UNIT ( #47 ) );
#263 = VECTOR ( 'NONE', #288, 39.37007874015748143 ) ;
#264 = DIRECTION ( 'NONE',  ( -1.000000000000000000, 0.0000000000000000000, 0.0000000000000000000 ) ) ;
#265 = PLANE ( 'NONE',  #289 ) ;
#266 = EDGE_CURVE ( 'NONE', #277, #162, #201, .T. ) ;
#267 = VECTOR ( 'NONE', #230, 39.37007874015748854 ) ;
#268 = LENGTH_MEASURE_WITH_UNIT ( LENGTH_MEASURE( 0.02539999999999999897 ), #172 );
#269 = ORIENTED_EDGE ( 'NONE', *, *, #87, .T. ) ;
#270 = MANIFOLD_SOLID_BREP ( 'Cut-Revolve1', #78 ) ;
#271 = ORIENTED_EDGE ( 'NONE', *, *, #103, .T. ) ;
#272 = ADVANCED_FACE ( 'NONE', ( #282 ), #97, .T. ) ;
#273 = FACE_OUTER_BOUND ( 'NONE', #181, .T. ) ;
#274 = DIMENSIONAL_EXPONENTS ( 1.000000000000000000, 0.0000000000000000000, 0.0000000000000000000, 0.0000000000000000000, 0.0000000000000000000, 0.0000000000000000000, 0.0000000000000000000 ) ;
#275 = ORIENTED_EDGE ( 'NONE', *, *, #109, .F. ) ;
#276 = ORIENTED_EDGE ( 'NONE', *, *, #296, .T. ) ;
#277 = VERTEX_POINT ( 'NONE', #25 ) ;
#278 = EDGE_CURVE ( 'NONE', #21, #277, #213, .T. ) ;
#279 =( GEOMETRIC_REPRESENTATION_CONTEXT ( 3 ) GLOBAL_UNCERTAINTY_ASSIGNED_CONTEXT ( ( #135 ) ) GLOBAL_UNIT_ASSIGNED_CONTEXT ( ( #170, #257, #259 ) ) REPRESENTATION_CONTEXT ( 'NONE', 'WORKASPACE' ) );
#280 = PRESENTATION_STYLE_ASSIGNMENT (( #102 ) ) ;
#281 = PRODUCT_RELATED_PRODUCT_CATEGORY ( 'part', '', ( #240 ) ) ;
#282 = FACE_OUTER_BOUND ( 'NONE', #36, .T. ) ;
#283 = AXIS2_PLACEMENT_3D ( 'NONE', #247, #22, #245 ) ;
#284 = DIRECTION ( 'NONE',  ( -0.0000000000000000000, -0.0000000000000000000, -1.000000000000000000 ) ) ;
#285 = DIRECTION ( 'NONE',  ( -1.224646799147353207E-16, -0.0000000000000000000, -1.000000000000000000 ) ) ;
#286 = SURFACE_STYLE_FILL_AREA ( #5 ) ;
#287 = DIRECTION ( 'NONE',  ( 0.0000000000000000000, 0.0000000000000000000, -1.000000000000000000 ) ) ;
#288 = DIRECTION ( 'NONE',  ( 0.1736481776669314692, 0.0000000000000000000, 0.9848077530122077983 ) ) ;
#289 = AXIS2_PLACEMENT_3D ( 'NONE', #58, #148, #49 ) ;
#290 = COLOUR_RGB ( '',0.7921568627450980005, 0.8196078431372548767, 0.9333333333333333481 ) ;
#291 = CYLINDRICAL_SURFACE ( 'NONE', #217, 0.09832657499999997164 ) ;
#292 = DIRECTION ( 'NONE',  ( 1.000000000000000000, 0.0000000000000000000, 0.0000000000000000000 ) ) ;
#293 =( NAMED_UNIT ( * ) PLANE_ANGLE_UNIT ( ) SI_UNIT ( $, .RADIAN. ) );
#294 = ORIENTED_EDGE ( 'NONE', *, *, #103, .F. ) ;
#295 = EDGE_LOOP ( 'NONE', ( #18, #108, #128, #294 ) ) ;
#296 = EDGE_CURVE ( 'NONE', #41, #1, #163, .T. ) ;
#297 = DIRECTION ( 'NONE',  ( -1.000000000000000000, 0.0000000000000000000, 0.0000000000000000000 ) ) ;
#298 = ORIENTED_EDGE ( 'NONE', *, *, #278, .T. ) ;
#299 = CARTESIAN_POINT ( 'NONE',  ( 0.09832657499999997164, 1.204153253448721204E-17, -1.204153253448721204E-17 ) ) ;
ENDSEC;
END-ISO-10303-21;
