ISO-10303-21;
HEADER;
FILE_DESCRIPTION (( 'STEP AP214' ),
    '1' );
FILE_NAME ('83298.STEP',
    '2023-06-30T23:01:51',
    ( '' ),
    ( '' ),
    'SwSTEP 2.0',
    'SolidWorks 2023',
    '' );
FILE_SCHEMA (( 'AUTOMOTIVE_DESIGN' ));
ENDSEC;

DATA;
#1 = CYLINDRICAL_SURFACE ( 'NONE', #293, 0.2499999999999999167 ) ;
#2 =( CONVERSION_BASED_UNIT ( 'INCH', #241 ) LENGTH_UNIT ( ) NAMED_UNIT ( #99 ) );
#3 = STYLED_ITEM ( 'NONE', ( #365 ), #341 ) ;
#4 = ORIENTED_EDGE ( 'NONE', *, *, #259, .T. ) ;
#5 = PRESENTATION_STYLE_ASSIGNMENT (( #191 ) ) ;
#6 = ORIENTED_EDGE ( 'NONE', *, *, #315, .F. ) ;
#7 = LENGTH_MEASURE_WITH_UNIT ( LENGTH_MEASURE( 0.02539999999999999897 ), #311 );
#8 =( LENGTH_UNIT ( ) NAMED_UNIT ( * ) SI_UNIT ( $, .METRE. ) );
#9 = CLOSED_SHELL ( 'NONE', ( #358, #263, #253, #195 ) ) ;
#10 = VERTEX_POINT ( 'NONE', #302 ) ;
#11 = FILL_AREA_STYLE ('',( #339 ) ) ;
#12 = AXIS2_PLACEMENT_3D ( 'NONE', #321, #354, #20 ) ;
#13 = EDGE_CURVE ( 'NONE', #151, #186, #226, .T. ) ;
#14 = VERTEX_POINT ( 'NONE', #39 ) ;
#15 = DIMENSIONAL_EXPONENTS ( 1.000000000000000000, 0.000000000000000000, 0.000000000000000000, 0.000000000000000000, 0.000000000000000000, 0.000000000000000000, 0.000000000000000000 ) ;
#16 = SHAPE_DEFINITION_REPRESENTATION ( #164, #136 ) ;
#17 = AXIS2_PLACEMENT_3D ( 'NONE', #133, #237, #162 ) ;
#18 = UNCERTAINTY_MEASURE_WITH_UNIT (LENGTH_MEASURE( 1.000000000000000082E-05 ), #207, 'distance_accuracy_value', 'NONE');
#19 = DIRECTION ( 'NONE',  ( -1.000000000000000000, 0.000000000000000000, 0.000000000000000000 ) ) ;
#20 = DIRECTION ( 'NONE',  ( 0.000000000000000000, -0.000000000000000000, 1.000000000000000000 ) ) ;
#21 = AXIS2_PLACEMENT_3D ( 'NONE', #176, #360, #76 ) ;
#22 = PRODUCT_DEFINITION ( 'UNKNOWN', '', #54, #70 ) ;
#23 = LENGTH_MEASURE_WITH_UNIT ( LENGTH_MEASURE( 0.02539999999999999897 ), #107 );
#24 =( NAMED_UNIT ( * ) PLANE_ANGLE_UNIT ( ) SI_UNIT ( $, .RADIAN. ) );
#25 = CARTESIAN_POINT ( 'NONE',  ( 0.000000000000000000, 1.625000000000000000, 0.000000000000000000 ) ) ;
#26 =( LENGTH_UNIT ( ) NAMED_UNIT ( * ) SI_UNIT ( $, .METRE. ) );
#27 = CIRCLE ( 'NONE', #320, 0.2500000000000000000 ) ;
#28 = COLOUR_RGB ( '',1.000000000000000000, 0.000000000000000000, 0.000000000000000000 ) ;
#29 = DIRECTION ( 'NONE',  ( -0.000000000000000000, -1.000000000000000000, -0.000000000000000000 ) ) ;
#30 = UNCERTAINTY_MEASURE_WITH_UNIT (LENGTH_MEASURE( 1.000000000000000082E-05 ), #258, 'distance_accuracy_value', 'NONE');
#31 = SURFACE_STYLE_USAGE ( .BOTH. , #183 ) ;
#32 = DIRECTION ( 'NONE',  ( 0.000000000000000000, 0.000000000000000000, -1.000000000000000000 ) ) ;
#33 = DIRECTION ( 'NONE',  ( -0.000000000000000000, -1.000000000000000000, -0.000000000000000000 ) ) ;
#34 = ORIENTED_EDGE ( 'NONE', *, *, #315, .T. ) ;
#35 = CARTESIAN_POINT ( 'NONE',  ( -0.2499999999999994726, 1.625000000000000000, 0.000000000000000000 ) ) ;
#36 = DIRECTION ( 'NONE',  ( -1.224646799147353207E-16, 1.000000000000000000, -0.000000000000000000 ) ) ;
#37 = APPLICATION_CONTEXT ( 'automotive_design' ) ;
#38 = VECTOR ( 'NONE', #356, 39.37007874015748143 ) ;
#39 = CARTESIAN_POINT ( 'NONE',  ( -0.2500000000000001110, 4.000000000000000000, 0.000000000000000000 ) ) ;
#40 = DIRECTION ( 'NONE',  ( 1.000000000000000000, 0.000000000000000000, 0.000000000000000000 ) ) ;
#41 = ORIENTED_EDGE ( 'NONE', *, *, #42, .F. ) ;
#42 = EDGE_CURVE ( 'NONE', #314, #142, #153, .T. ) ;
#43 = AXIS2_PLACEMENT_3D ( 'NONE', #112, #91, #348 ) ;
#44 = LINE ( 'NONE', #196, #192 ) ;
#45 = EDGE_CURVE ( 'NONE', #314, #120, #44, .T. ) ;
#46 = DIMENSIONAL_EXPONENTS ( 1.000000000000000000, 0.000000000000000000, 0.000000000000000000, 0.000000000000000000, 0.000000000000000000, 0.000000000000000000, 0.000000000000000000 ) ;
#47 = UNCERTAINTY_MEASURE_WITH_UNIT (LENGTH_MEASURE( 1.000000000000000082E-05 ), #225, 'distance_accuracy_value', 'NONE');
#48 = CARTESIAN_POINT ( 'NONE',  ( 1.683889348827610999E-16, 1.625000000000000000, 0.000000000000000000 ) ) ;
#49 =( NAMED_UNIT ( * ) SI_UNIT ( $, .STERADIAN. ) SOLID_ANGLE_UNIT ( ) );
#50 = DIRECTION ( 'NONE',  ( 1.224646799147353207E-16, -0.000000000000000000, 1.000000000000000000 ) ) ;
#51 =( NAMED_UNIT ( * ) PLANE_ANGLE_UNIT ( ) SI_UNIT ( $, .RADIAN. ) );
#52 = ADVANCED_FACE ( 'NONE', ( #189 ), #166, .T. ) ;
#53 = CARTESIAN_POINT ( 'NONE',  ( -0.2499999999999999167, 4.000000000000000000, 0.000000000000000000 ) ) ;
#54 = PRODUCT_DEFINITION_FORMATION_WITH_SPECIFIED_SOURCE ( 'ANY', '', #340, .NOT_KNOWN. ) ;
#55 = FACE_OUTER_BOUND ( 'NONE', #352, .T. ) ;
#56 = MANIFOLD_SOLID_BREP ( 'Revolve - Cutting Edge', #64 ) ;
#57 = DIRECTION ( 'NONE',  ( 0.000000000000000000, 0.000000000000000000, -1.000000000000000000 ) ) ;
#58 = ORIENTED_EDGE ( 'NONE', *, *, #210, .T. ) ;
#59 = STYLED_ITEM ( 'NONE', ( #5 ), #52 ) ;
#60 = ORIENTED_EDGE ( 'NONE', *, *, #308, .T. ) ;
#61 = VERTEX_POINT ( 'NONE', #273 ) ;
#62 = FILL_AREA_STYLE ('',( #217 ) ) ;
#63 = LINE ( 'NONE', #347, #38 ) ;
#64 = CLOSED_SHELL ( 'NONE', ( #108, #200, #341, #152, #52 ) ) ;
#65 = ORIENTED_EDGE ( 'NONE', *, *, #308, .F. ) ;
#66 = DIMENSIONAL_EXPONENTS ( 1.000000000000000000, 0.000000000000000000, 0.000000000000000000, 0.000000000000000000, 0.000000000000000000, 0.000000000000000000, 0.000000000000000000 ) ;
#67 = LENGTH_MEASURE_WITH_UNIT ( LENGTH_MEASURE( 0.02539999999999999897 ), #8 );
#68 =( NAMED_UNIT ( * ) SI_UNIT ( $, .STERADIAN. ) SOLID_ANGLE_UNIT ( ) );
#69 =( CONVERSION_BASED_UNIT ( 'INCH', #67 ) LENGTH_UNIT ( ) NAMED_UNIT ( #317 ) );
#70 = PRODUCT_DEFINITION_CONTEXT ( 'detailed design', #37, 'design' ) ;
#71 = DIRECTION ( 'NONE',  ( 0.000000000000000000, 0.000000000000000000, -1.000000000000000000 ) ) ;
#72 = MECHANICAL_DESIGN_GEOMETRIC_PRESENTATION_REPRESENTATION (  '', ( #59 ), #156 ) ;
#73 = AXIS2_PLACEMENT_3D ( 'NONE', #362, #204, #323 ) ;
#74 = FACE_OUTER_BOUND ( 'NONE', #343, .T. ) ;
#75 = EDGE_CURVE ( 'NONE', #337, #223, #265, .T. ) ;
#76 = DIRECTION ( 'NONE',  ( 0.000000000000000000, 0.000000000000000000, -1.000000000000000000 ) ) ;
#77 = SURFACE_SIDE_STYLE ('',( #322 ) ) ;
#78 = LINE ( 'NONE', #266, #345 ) ;
#79 = DIRECTION ( 'NONE',  ( -1.224646799147353207E-16, 1.000000000000000000, -0.000000000000000000 ) ) ;
#80 = DIRECTION ( 'NONE',  ( -1.000000000000000000, 0.000000000000000000, 0.000000000000000000 ) ) ;
#81 =( CONVERSION_BASED_UNIT ( 'INCH', #325 ) LENGTH_UNIT ( ) NAMED_UNIT ( #177 ) );
#82 = MECHANICAL_DESIGN_GEOMETRIC_PRESENTATION_REPRESENTATION (  '', ( #193 ), #331 ) ;
#83 = FILL_AREA_STYLE_COLOUR ( '', #28 ) ;
#84 = FILL_AREA_STYLE ('',( #187 ) ) ;
#85 = CARTESIAN_POINT ( 'NONE',  ( 0.000000000000000000, 0.2500000000000000000, 0.000000000000000000 ) ) ;
#86 = PLANE ( 'NONE',  #306 ) ;
#87 = CARTESIAN_POINT ( 'NONE',  ( 0.2500000000000000000, 0.2500000000000000000, 0.000000000000000000 ) ) ;
#88 = CIRCLE ( 'NONE', #43, 0.2499999999999999722 ) ;
#89 = PRESENTATION_STYLE_ASSIGNMENT (( #113 ) ) ;
#90 = EDGE_CURVE ( 'NONE', #120, #14, #174, .T. ) ;
#91 = DIRECTION ( 'NONE',  ( -1.224646799147353207E-16, 1.000000000000000000, -0.000000000000000000 ) ) ;
#92 = ORIENTED_EDGE ( 'NONE', *, *, #155, .F. ) ;
#93 = FACE_OUTER_BOUND ( 'NONE', #94, .T. ) ;
#94 = EDGE_LOOP ( 'NONE', ( #6, #283, #4, #65, #245 ) ) ;
#95 = PRESENTATION_LAYER_ASSIGNMENT (  '', '', ( #59 ) ) ;
#96 = EDGE_LOOP ( 'NONE', ( #190, #194, #309, #122 ) ) ;
#97 = EDGE_CURVE ( 'NONE', #165, #61, #27, .T. ) ;
#98 = PRODUCT_CONTEXT ( 'NONE', #180, 'mechanical' ) ;
#99 = DIMENSIONAL_EXPONENTS ( 1.000000000000000000, 0.000000000000000000, 0.000000000000000000, 0.000000000000000000, 0.000000000000000000, 0.000000000000000000, 0.000000000000000000 ) ;
#100 = SURFACE_SIDE_STYLE ('',( #148 ) ) ;
#101 = CARTESIAN_POINT ( 'NONE',  ( 0.000000000000000000, 0.2500000000000000000, 0.000000000000000000 ) ) ;
#102 = DIRECTION ( 'NONE',  ( 1.000000000000000000, 0.000000000000000000, 0.000000000000000000 ) ) ;
#103 = ORIENTED_EDGE ( 'NONE', *, *, #210, .F. ) ;
#104 = COLOUR_RGB ( '',0.7921568627450980005, 0.8196078431372548767, 0.9333333333333333481 ) ;
#105 = UNCERTAINTY_MEASURE_WITH_UNIT (LENGTH_MEASURE( 1.000000000000000082E-05 ), #69, 'distance_accuracy_value', 'NONE');
#106 = CYLINDRICAL_SURFACE ( 'NONE', #73, 0.2499999999999998057 ) ;
#107 =( LENGTH_UNIT ( ) NAMED_UNIT ( * ) SI_UNIT ( $, .METRE. ) );
#108 = ADVANCED_FACE ( 'NONE', ( #303 ), #234, .T. ) ;
#109 = CIRCLE ( 'NONE', #21, 0.2500000000000000000 ) ;
#110 = CARTESIAN_POINT ( 'NONE',  ( 3.061616997868383018E-17, 0.2500000000000000000, 0.2500000000000000000 ) ) ;
#111 = UNCERTAINTY_MEASURE_WITH_UNIT (LENGTH_MEASURE( 1.000000000000000082E-05 ), #2, 'distance_accuracy_value', 'NONE');
#112 = CARTESIAN_POINT ( 'NONE',  ( -1.224646799147352714E-16, 4.000000000000000000, 0.000000000000000000 ) ) ;
#113 = SURFACE_STYLE_USAGE ( .BOTH. , #244 ) ;
#114 = DIRECTION ( 'NONE',  ( -1.000000000000000000, -1.224646799147353207E-16, 0.000000000000000000 ) ) ;
#115 = PRESENTATION_STYLE_ASSIGNMENT (( #31 ) ) ;
#116 = AXIS2_PLACEMENT_3D ( 'NONE', #25, #333, #135 ) ;
#117 = ORIENTED_EDGE ( 'NONE', *, *, #300, .F. ) ;
#118 = DIRECTION ( 'NONE',  ( 1.000000000000000000, 0.000000000000000000, -1.224646799147353207E-16 ) ) ;
#119 = AXIS2_PLACEMENT_3D ( 'NONE', #48, #264, #19 ) ;
#120 = VERTEX_POINT ( 'NONE', #269 ) ;
#121 = DIRECTION ( 'NONE',  ( -1.224646799147353207E-16, 1.000000000000000000, -0.000000000000000000 ) ) ;
#122 = ORIENTED_EDGE ( 'NONE', *, *, #13, .T. ) ;
#123 =( NAMED_UNIT ( * ) PLANE_ANGLE_UNIT ( ) SI_UNIT ( $, .RADIAN. ) );
#124 = EDGE_CURVE ( 'NONE', #223, #337, #129, .T. ) ;
#125 = MECHANICAL_DESIGN_GEOMETRIC_PRESENTATION_REPRESENTATION (  '', ( #167 ), #344 ) ;
#126 = PLANE ( 'NONE',  #12 ) ;
#127 = DIRECTION ( 'NONE',  ( -0.000000000000000000, -1.000000000000000000, -0.000000000000000000 ) ) ;
#128 = SURFACE_SIDE_STYLE ('',( #350 ) ) ;
#129 = CIRCLE ( 'NONE', #116, 0.2499999999999998335 ) ;
#130 = VECTOR ( 'NONE', #270, 39.37007874015748143 ) ;
#131 = FACE_OUTER_BOUND ( 'NONE', #304, .T. ) ;
#132 = FILL_AREA_STYLE_COLOUR ( '', #141 ) ;
#133 = CARTESIAN_POINT ( 'NONE',  ( -3.061616997868383018E-17, 0.2500000000000000000, 0.000000000000000000 ) ) ;
#134 = DIRECTION ( 'NONE',  ( -0.000000000000000000, -1.000000000000000000, -0.000000000000000000 ) ) ;
#135 = DIRECTION ( 'NONE',  ( 0.000000000000000000, 0.000000000000000000, -1.000000000000000000 ) ) ;
#136 = ADVANCED_BREP_SHAPE_REPRESENTATION ( '83298', ( #56, #279, #255 ), #202 ) ;
#137 = CARTESIAN_POINT ( 'NONE',  ( 0.2499999999999998335, 4.000000000000000000, 0.000000000000000000 ) ) ;
#138 =( LENGTH_UNIT ( ) NAMED_UNIT ( * ) SI_UNIT ( $, .METRE. ) );
#139 = SURFACE_SIDE_STYLE ('',( #249 ) ) ;
#140 = MECHANICAL_DESIGN_GEOMETRIC_PRESENTATION_REPRESENTATION (  '', ( #292 ), #254 ) ;
#141 = COLOUR_RGB ( '',1.000000000000000000, 0.000000000000000000, 0.000000000000000000 ) ;
#142 = VERTEX_POINT ( 'NONE', #35 ) ;
#143 = DIRECTION ( 'NONE',  ( -1.000000000000000000, 0.000000000000000000, 0.000000000000000000 ) ) ;
#144 = ORIENTED_EDGE ( 'NONE', *, *, #228, .T. ) ;
#145 = CARTESIAN_POINT ( 'NONE',  ( 0.000000000000000000, 1.625000000000000000, 0.000000000000000000 ) ) ;
#146 = ORIENTED_EDGE ( 'NONE', *, *, #124, .F. ) ;
#147 =( NAMED_UNIT ( * ) PLANE_ANGLE_UNIT ( ) SI_UNIT ( $, .RADIAN. ) );
#148 = SURFACE_STYLE_FILL_AREA ( #62 ) ;
#149 = AXIS2_PLACEMENT_3D ( 'NONE', #346, #276, #57 ) ;
#150 =( GEOMETRIC_REPRESENTATION_CONTEXT ( 3 ) GLOBAL_UNCERTAINTY_ASSIGNED_CONTEXT ( ( #209 ) ) GLOBAL_UNIT_ASSIGNED_CONTEXT ( ( #301, #147, #68 ) ) REPRESENTATION_CONTEXT ( 'NONE', 'WORKASPACE' ) );
#151 = VERTEX_POINT ( 'NONE', #87 ) ;
#152 = ADVANCED_FACE ( 'NONE', ( #93 ), #370, .T. ) ;
#153 = CIRCLE ( 'NONE', #160, 0.2499999999999996669 ) ;
#154 = PRESENTATION_LAYER_ASSIGNMENT (  '', '', ( #316 ) ) ;
#155 = EDGE_CURVE ( 'NONE', #142, #14, #327, .T. ) ;
#156 =( GEOMETRIC_REPRESENTATION_CONTEXT ( 3 ) GLOBAL_UNCERTAINTY_ASSIGNED_CONTEXT ( ( #47 ) ) GLOBAL_UNIT_ASSIGNED_CONTEXT ( ( #225, #123, #185 ) ) REPRESENTATION_CONTEXT ( 'NONE', 'WORKASPACE' ) );
#157 = DIRECTION ( 'NONE',  ( -0.000000000000000000, -1.000000000000000000, -0.000000000000000000 ) ) ;
#158 = FILL_AREA_STYLE_COLOUR ( '', #299 ) ;
#159 = LENGTH_MEASURE_WITH_UNIT ( LENGTH_MEASURE( 0.02539999999999999897 ), #138 );
#160 = AXIS2_PLACEMENT_3D ( 'NONE', #257, #121, #143 ) ;
#161 =( GEOMETRIC_REPRESENTATION_CONTEXT ( 3 ) GLOBAL_UNCERTAINTY_ASSIGNED_CONTEXT ( ( #111 ) ) GLOBAL_UNIT_ASSIGNED_CONTEXT ( ( #2, #334, #367 ) ) REPRESENTATION_CONTEXT ( 'NONE', 'WORKASPACE' ) );
#162 = DIRECTION ( 'NONE',  ( -1.000000000000000000, 0.000000000000000000, 0.000000000000000000 ) ) ;
#163 = DIRECTION ( 'NONE',  ( -1.000000000000000000, 0.000000000000000000, 0.000000000000000000 ) ) ;
#164 = PRODUCT_DEFINITION_SHAPE ( 'NONE', 'NONE',  #22 ) ;
#165 = VERTEX_POINT ( 'NONE', #335 ) ;
#166 = SPHERICAL_SURFACE ( 'NONE', #246, 0.2500000000000000000 ) ;
#167 = STYLED_ITEM ( 'NONE', ( #355 ), #56 ) ;
#168 = EDGE_LOOP ( 'NONE', ( #284, #34, #248, #103, #169 ) ) ;
#169 = ORIENTED_EDGE ( 'NONE', *, *, #259, .F. ) ;
#170 = ORIENTED_EDGE ( 'NONE', *, *, #45, .T. ) ;
#171 = AXIS2_PLACEMENT_3D ( 'NONE', #137, #182, #243 ) ;
#172 = EDGE_LOOP ( 'NONE', ( #349, #60, #58, #221 ) ) ;
#173 = EDGE_CURVE ( 'NONE', #186, #165, #239, .T. ) ;
#174 = CIRCLE ( 'NONE', #361, 0.2499999999999999722 ) ;
#175 = MECHANICAL_DESIGN_GEOMETRIC_PRESENTATION_REPRESENTATION (  '', ( #316 ), #272 ) ;
#176 = CARTESIAN_POINT ( 'NONE',  ( 0.000000000000000000, 0.2500000000000000000, 0.000000000000000000 ) ) ;
#177 = DIMENSIONAL_EXPONENTS ( 1.000000000000000000, 0.000000000000000000, 0.000000000000000000, 0.000000000000000000, 0.000000000000000000, 0.000000000000000000, 0.000000000000000000 ) ;
#178 = CARTESIAN_POINT ( 'NONE',  ( 0.000000000000000000, 1.625000000000000000, -0.2499999999999998335 ) ) ;
#179 = CARTESIAN_POINT ( 'NONE',  ( -3.061616997868383018E-17, 0.2500000000000000000, 0.000000000000000000 ) ) ;
#180 = APPLICATION_CONTEXT ( 'automotive_design' ) ;
#181 = MECHANICAL_DESIGN_GEOMETRIC_PRESENTATION_REPRESENTATION (  '', ( #213 ), #150 ) ;
#182 = DIRECTION ( 'NONE',  ( 1.224646799147353207E-16, -1.000000000000000000, 0.000000000000000000 ) ) ;
#183 = SURFACE_SIDE_STYLE ('',( #296 ) ) ;
#184 =( LENGTH_UNIT ( ) NAMED_UNIT ( * ) SI_UNIT ( $, .METRE. ) );
#185 =( NAMED_UNIT ( * ) SI_UNIT ( $, .STERADIAN. ) SOLID_ANGLE_UNIT ( ) );
#186 = VERTEX_POINT ( 'NONE', #110 ) ;
#187 = FILL_AREA_STYLE_COLOUR ( '', #329 ) ;
#188 = PRODUCT_RELATED_PRODUCT_CATEGORY ( 'part', '', ( #340 ) ) ;
#189 = FACE_OUTER_BOUND ( 'NONE', #172, .T. ) ;
#190 = ORIENTED_EDGE ( 'NONE', *, *, #173, .T. ) ;
#191 = SURFACE_STYLE_USAGE ( .BOTH. , #139 ) ;
#192 = VECTOR ( 'NONE', #36, 39.37007874015748143 ) ;
#193 = STYLED_ITEM ( 'NONE', ( #89 ), #200 ) ;
#194 = ORIENTED_EDGE ( 'NONE', *, *, #97, .T. ) ;
#195 = ADVANCED_FACE ( 'NONE', ( #55 ), #211, .F. ) ;
#196 = CARTESIAN_POINT ( 'NONE',  ( 0.2499999999999996669, 4.000000000000000000, 3.061616997868380553E-17 ) ) ;
#197 = COLOUR_RGB ( '',1.000000000000000000, 0.000000000000000000, 0.000000000000000000 ) ;
#198 =( NAMED_UNIT ( * ) SI_UNIT ( $, .STERADIAN. ) SOLID_ANGLE_UNIT ( ) );
#199 = FILL_AREA_STYLE ('',( #132 ) ) ;
#200 = ADVANCED_FACE ( 'NONE', ( #330 ), #1, .T. ) ;
#201 = DIRECTION ( 'NONE',  ( 0.000000000000000000, 0.000000000000000000, -1.000000000000000000 ) ) ;
#202 =( GEOMETRIC_REPRESENTATION_CONTEXT ( 3 ) GLOBAL_UNCERTAINTY_ASSIGNED_CONTEXT ( ( #105 ) ) GLOBAL_UNIT_ASSIGNED_CONTEXT ( ( #69, #290, #220 ) ) REPRESENTATION_CONTEXT ( 'NONE', 'WORKASPACE' ) );
#203 = PRESENTATION_LAYER_ASSIGNMENT (  '', '', ( #193 ) ) ;
#204 = DIRECTION ( 'NONE',  ( -1.224646799147353207E-16, 1.000000000000000000, -0.000000000000000000 ) ) ;
#205 = CARTESIAN_POINT ( 'NONE',  ( -1.224646799147352714E-16, 4.000000000000000000, 0.000000000000000000 ) ) ;
#206 = DIRECTION ( 'NONE',  ( -1.224646799147353207E-16, 1.000000000000000000, -0.000000000000000000 ) ) ;
#207 =( CONVERSION_BASED_UNIT ( 'INCH', #23 ) LENGTH_UNIT ( ) NAMED_UNIT ( #291 ) );
#208 = MECHANICAL_DESIGN_GEOMETRIC_PRESENTATION_REPRESENTATION (  '', ( #3 ), #161 ) ;
#209 = UNCERTAINTY_MEASURE_WITH_UNIT (LENGTH_MEASURE( 1.000000000000000082E-05 ), #301, 'distance_accuracy_value', 'NONE');
#210 = EDGE_CURVE ( 'NONE', #10, #151, #109, .T. ) ;
#211 = PLANE ( 'NONE',  #171 ) ;
#212 = SURFACE_STYLE_USAGE ( .BOTH. , #238 ) ;
#213 = STYLED_ITEM ( 'NONE', ( #115 ), #152 ) ;
#214 = CIRCLE ( 'NONE', #227, 0.2500000000000000000 ) ;
#215 = ORIENTED_EDGE ( 'NONE', *, *, #45, .F. ) ;
#216 = ORIENTED_EDGE ( 'NONE', *, *, #300, .T. ) ;
#217 = FILL_AREA_STYLE_COLOUR ( '', #104 ) ;
#218 = ORIENTED_EDGE ( 'NONE', *, *, #42, .T. ) ;
#219 = CIRCLE ( 'NONE', #17, 0.2500000000000000000 ) ;
#220 =( NAMED_UNIT ( * ) SI_UNIT ( $, .STERADIAN. ) SOLID_ANGLE_UNIT ( ) );
#221 = ORIENTED_EDGE ( 'NONE', *, *, #282, .T. ) ;
#222 = FILL_AREA_STYLE ('',( #281 ) ) ;
#223 = VERTEX_POINT ( 'NONE', #178 ) ;
#224 =( NAMED_UNIT ( * ) PLANE_ANGLE_UNIT ( ) SI_UNIT ( $, .RADIAN. ) );
#225 =( CONVERSION_BASED_UNIT ( 'INCH', #7 ) LENGTH_UNIT ( ) NAMED_UNIT ( #46 ) );
#226 = CIRCLE ( 'NONE', #149, 0.2500000000000000000 ) ;
#227 = AXIS2_PLACEMENT_3D ( 'NONE', #101, #288, #201 ) ;
#228 = EDGE_CURVE ( 'NONE', #142, #314, #278, .T. ) ;
#229 = PRESENTATION_STYLE_ASSIGNMENT (( #230 ) ) ;
#230 = SURFACE_STYLE_USAGE ( .BOTH. , #128 ) ;
#231 = CARTESIAN_POINT ( 'NONE',  ( 3.061616997868381785E-17, 1.625000000000000000, 0.2499999999999998335 ) ) ;
#232 = AXIS2_PLACEMENT_3D ( 'NONE', #205, #79, #163 ) ;
#233 = FACE_OUTER_BOUND ( 'NONE', #256, .T. ) ;
#234 = SPHERICAL_SURFACE ( 'NONE', #298, 0.2500000000000000000 ) ;
#235 = DIRECTION ( 'NONE',  ( 0.000000000000000000, 0.000000000000000000, -1.000000000000000000 ) ) ;
#236 = SURFACE_STYLE_USAGE ( .BOTH. , #77 ) ;
#237 = DIRECTION ( 'NONE',  ( 0.000000000000000000, 0.000000000000000000, -1.000000000000000000 ) ) ;
#238 = SURFACE_SIDE_STYLE ('',( #295 ) ) ;
#239 = CIRCLE ( 'NONE', #326, 0.2500000000000000000 ) ;
#240 = DIRECTION ( 'NONE',  ( 1.000000000000000000, 0.000000000000000000, 0.000000000000000000 ) ) ;
#241 = LENGTH_MEASURE_WITH_UNIT ( LENGTH_MEASURE( 0.02539999999999999897 ), #357 );
#242 = UNCERTAINTY_MEASURE_WITH_UNIT (LENGTH_MEASURE( 1.000000000000000082E-05 ), #81, 'distance_accuracy_value', 'NONE');
#243 = DIRECTION ( 'NONE',  ( 1.000000000000000000, 1.224646799147353207E-16, 0.000000000000000000 ) ) ;
#244 = SURFACE_SIDE_STYLE ('',( #275 ) ) ;
#245 = ORIENTED_EDGE ( 'NONE', *, *, #173, .F. ) ;
#246 = AXIS2_PLACEMENT_3D ( 'NONE', #251, #342, #40 ) ;
#247 = ORIENTED_EDGE ( 'NONE', *, *, #90, .F. ) ;
#248 = ORIENTED_EDGE ( 'NONE', *, *, #13, .F. ) ;
#249 = SURFACE_STYLE_FILL_AREA ( #222 ) ;
#250 = ORIENTED_EDGE ( 'NONE', *, *, #90, .T. ) ;
#251 = CARTESIAN_POINT ( 'NONE',  ( -3.061616997868383018E-17, 0.2500000000000000000, 0.000000000000000000 ) ) ;
#252 = EDGE_LOOP ( 'NONE', ( #280, #41 ) ) ;
#253 = ADVANCED_FACE ( 'NONE', ( #233 ), #106, .T. ) ;
#254 =( GEOMETRIC_REPRESENTATION_CONTEXT ( 3 ) GLOBAL_UNCERTAINTY_ASSIGNED_CONTEXT ( ( #30 ) ) GLOBAL_UNIT_ASSIGNED_CONTEXT ( ( #258, #224, #198 ) ) REPRESENTATION_CONTEXT ( 'NONE', 'WORKASPACE' ) );
#255 = AXIS2_PLACEMENT_3D ( 'NONE', #310, #351, #102 ) ;
#256 = EDGE_LOOP ( 'NONE', ( #215, #218, #277, #247 ) ) ;
#257 = CARTESIAN_POINT ( 'NONE',  ( 1.683889348827610999E-16, 1.625000000000000000, 0.000000000000000000 ) ) ;
#258 =( CONVERSION_BASED_UNIT ( 'INCH', #260 ) LENGTH_UNIT ( ) NAMED_UNIT ( #66 ) );
#259 = EDGE_CURVE ( 'NONE', #223, #10, #78, .T. ) ;
#260 = LENGTH_MEASURE_WITH_UNIT ( LENGTH_MEASURE( 0.02539999999999999897 ), #359 );
#261 = PRESENTATION_LAYER_ASSIGNMENT (  '', '', ( #167 ) ) ;
#262 = AXIS2_PLACEMENT_3D ( 'NONE', #268, #157, #32 ) ;
#263 = ADVANCED_FACE ( 'NONE', ( #373 ), #86, .F. ) ;
#264 = DIRECTION ( 'NONE',  ( -1.224646799147353207E-16, 1.000000000000000000, -0.000000000000000000 ) ) ;
#265 = CIRCLE ( 'NONE', #305, 0.2499999999999998335 ) ;
#266 = CARTESIAN_POINT ( 'NONE',  ( 0.000000000000000000, 0.000000000000000000, -0.2499999999999999167 ) ) ;
#267 = FILL_AREA_STYLE ('',( #83 ) ) ;
#268 = CARTESIAN_POINT ( 'NONE',  ( 0.000000000000000000, 0.000000000000000000, 0.000000000000000000 ) ) ;
#269 = CARTESIAN_POINT ( 'NONE',  ( 0.2499999999999998335, 4.000000000000000000, 3.061616997868381785E-17 ) ) ;
#270 = DIRECTION ( 'NONE',  ( -1.224646799147353207E-16, 1.000000000000000000, -0.000000000000000000 ) ) ;
#271 = COLOUR_RGB ( '',1.000000000000000000, 0.000000000000000000, 0.000000000000000000 ) ;
#272 =( GEOMETRIC_REPRESENTATION_CONTEXT ( 3 ) GLOBAL_UNCERTAINTY_ASSIGNED_CONTEXT ( ( #242 ) ) GLOBAL_UNIT_ASSIGNED_CONTEXT ( ( #81, #24, #368 ) ) REPRESENTATION_CONTEXT ( 'NONE', 'WORKASPACE' ) );
#273 = CARTESIAN_POINT ( 'NONE',  ( -1.530808498934191509E-17, 0.000000000000000000, 0.000000000000000000 ) ) ;
#274 = DIRECTION ( 'NONE',  ( -1.224646799147353207E-16, 1.000000000000000000, 0.000000000000000000 ) ) ;
#275 = SURFACE_STYLE_FILL_AREA ( #267 ) ;
#276 = DIRECTION ( 'NONE',  ( -0.000000000000000000, -1.000000000000000000, -0.000000000000000000 ) ) ;
#277 = ORIENTED_EDGE ( 'NONE', *, *, #155, .T. ) ;
#278 = CIRCLE ( 'NONE', #119, 0.2499999999999996669 ) ;
#279 = MANIFOLD_SOLID_BREP ( 'Revolve - Tool Body (Straight Shanked)', #9 ) ;
#280 = ORIENTED_EDGE ( 'NONE', *, *, #228, .F. ) ;
#281 = FILL_AREA_STYLE_COLOUR ( '', #197 ) ;
#282 = EDGE_CURVE ( 'NONE', #151, #61, #219, .T. ) ;
#283 = ORIENTED_EDGE ( 'NONE', *, *, #75, .T. ) ;
#284 = ORIENTED_EDGE ( 'NONE', *, *, #124, .T. ) ;
#285 = PRESENTATION_LAYER_ASSIGNMENT (  '', '', ( #292 ) ) ;
#286 = ORIENTED_EDGE ( 'NONE', *, *, #75, .F. ) ;
#287 = PRESENTATION_LAYER_ASSIGNMENT (  '', '', ( #3 ) ) ;
#288 = DIRECTION ( 'NONE',  ( -0.000000000000000000, -1.000000000000000000, -0.000000000000000000 ) ) ;
#289 = APPLICATION_PROTOCOL_DEFINITION ( 'draft international standard', 'automotive_design', 1998, #37 ) ;
#290 =( NAMED_UNIT ( * ) PLANE_ANGLE_UNIT ( ) SI_UNIT ( $, .RADIAN. ) );
#291 = DIMENSIONAL_EXPONENTS ( 1.000000000000000000, 0.000000000000000000, 0.000000000000000000, 0.000000000000000000, 0.000000000000000000, 0.000000000000000000, 0.000000000000000000 ) ;
#292 = STYLED_ITEM ( 'NONE', ( #229 ), #108 ) ;
#293 = AXIS2_PLACEMENT_3D ( 'NONE', #318, #127, #71 ) ;
#294 = CARTESIAN_POINT ( 'NONE',  ( 1.683889348827610752E-16, 1.625000000000000000, 0.000000000000000000 ) ) ;
#295 = SURFACE_STYLE_FILL_AREA ( #366 ) ;
#296 = SURFACE_STYLE_FILL_AREA ( #84 ) ;
#297 =( NAMED_UNIT ( * ) SI_UNIT ( $, .STERADIAN. ) SOLID_ANGLE_UNIT ( ) );
#298 = AXIS2_PLACEMENT_3D ( 'NONE', #328, #338, #240 ) ;
#299 = COLOUR_RGB ( '',0.7921568627450980005, 0.8196078431372548767, 0.9333333333333333481 ) ;
#300 = EDGE_CURVE ( 'NONE', #14, #120, #88, .T. ) ;
#301 =( CONVERSION_BASED_UNIT ( 'INCH', #159 ) LENGTH_UNIT ( ) NAMED_UNIT ( #307 ) );
#302 = CARTESIAN_POINT ( 'NONE',  ( 0.000000000000000000, 0.2500000000000000000, -0.2500000000000000000 ) ) ;
#303 = FACE_OUTER_BOUND ( 'NONE', #96, .T. ) ;
#304 = EDGE_LOOP ( 'NONE', ( #144, #170, #117, #92 ) ) ;
#305 = AXIS2_PLACEMENT_3D ( 'NONE', #145, #33, #235 ) ;
#306 = AXIS2_PLACEMENT_3D ( 'NONE', #294, #274, #114 ) ;
#307 = DIMENSIONAL_EXPONENTS ( 1.000000000000000000, 0.000000000000000000, 0.000000000000000000, 0.000000000000000000, 0.000000000000000000, 0.000000000000000000, 0.000000000000000000 ) ;
#308 = EDGE_CURVE ( 'NONE', #165, #10, #214, .T. ) ;
#309 = ORIENTED_EDGE ( 'NONE', *, *, #282, .F. ) ;
#310 = CARTESIAN_POINT ( 'NONE',  ( 0.000000000000000000, 0.000000000000000000, 0.000000000000000000 ) ) ;
#311 =( LENGTH_UNIT ( ) NAMED_UNIT ( * ) SI_UNIT ( $, .METRE. ) );
#312 = APPLICATION_PROTOCOL_DEFINITION ( 'draft international standard', 'automotive_design', 1998, #180 ) ;
#313 = CARTESIAN_POINT ( 'NONE',  ( 0.2499999999999998335, 1.625000000000000000, 3.061616997868381785E-17 ) ) ;
#314 = VERTEX_POINT ( 'NONE', #313 ) ;
#315 = EDGE_CURVE ( 'NONE', #337, #186, #63, .T. ) ;
#316 = STYLED_ITEM ( 'NONE', ( #332 ), #279 ) ;
#317 = DIMENSIONAL_EXPONENTS ( 1.000000000000000000, 0.000000000000000000, 0.000000000000000000, 0.000000000000000000, 0.000000000000000000, 0.000000000000000000, 0.000000000000000000 ) ;
#318 = CARTESIAN_POINT ( 'NONE',  ( 0.000000000000000000, 0.000000000000000000, 0.000000000000000000 ) ) ;
#319 = SURFACE_STYLE_USAGE ( .BOTH. , #100 ) ;
#320 = AXIS2_PLACEMENT_3D ( 'NONE', #179, #50, #118 ) ;
#321 = CARTESIAN_POINT ( 'NONE',  ( 0.000000000000000000, 1.625000000000000000, 0.000000000000000000 ) ) ;
#322 = SURFACE_STYLE_FILL_AREA ( #199 ) ;
#323 = DIRECTION ( 'NONE',  ( -1.000000000000000000, 0.000000000000000000, 0.000000000000000000 ) ) ;
#324 = LENGTH_MEASURE_WITH_UNIT ( LENGTH_MEASURE( 0.02539999999999999897 ), #26 );
#325 = LENGTH_MEASURE_WITH_UNIT ( LENGTH_MEASURE( 0.02539999999999999897 ), #184 );
#326 = AXIS2_PLACEMENT_3D ( 'NONE', #85, #29, #372 ) ;
#327 = LINE ( 'NONE', #53, #130 ) ;
#328 = CARTESIAN_POINT ( 'NONE',  ( -3.061616997868383018E-17, 0.2500000000000000000, 0.000000000000000000 ) ) ;
#329 = COLOUR_RGB ( '',1.000000000000000000, 0.000000000000000000, 0.000000000000000000 ) ;
#330 = FACE_OUTER_BOUND ( 'NONE', #168, .T. ) ;
#331 =( GEOMETRIC_REPRESENTATION_CONTEXT ( 3 ) GLOBAL_UNCERTAINTY_ASSIGNED_CONTEXT ( ( #18 ) ) GLOBAL_UNIT_ASSIGNED_CONTEXT ( ( #207, #336, #49 ) ) REPRESENTATION_CONTEXT ( 'NONE', 'WORKASPACE' ) );
#332 = PRESENTATION_STYLE_ASSIGNMENT (( #212 ) ) ;
#333 = DIRECTION ( 'NONE',  ( -0.000000000000000000, -1.000000000000000000, -0.000000000000000000 ) ) ;
#334 =( NAMED_UNIT ( * ) PLANE_ANGLE_UNIT ( ) SI_UNIT ( $, .RADIAN. ) );
#335 = CARTESIAN_POINT ( 'NONE',  ( -0.2500000000000000000, 0.2500000000000000000, 3.061616997868382402E-17 ) ) ;
#336 =( NAMED_UNIT ( * ) PLANE_ANGLE_UNIT ( ) SI_UNIT ( $, .RADIAN. ) );
#337 = VERTEX_POINT ( 'NONE', #231 ) ;
#338 = DIRECTION ( 'NONE',  ( 0.000000000000000000, 0.000000000000000000, 1.000000000000000000 ) ) ;
#339 = FILL_AREA_STYLE_COLOUR ( '', #271 ) ;
#340 = PRODUCT ( '83298', '83298', '', ( #98 ) ) ;
#341 = ADVANCED_FACE ( 'NONE', ( #74 ), #126, .T. ) ;
#342 = DIRECTION ( 'NONE',  ( 0.000000000000000000, 0.000000000000000000, 1.000000000000000000 ) ) ;
#343 = EDGE_LOOP ( 'NONE', ( #146, #286 ) ) ;
#344 =( GEOMETRIC_REPRESENTATION_CONTEXT ( 3 ) GLOBAL_UNCERTAINTY_ASSIGNED_CONTEXT ( ( #369 ) ) GLOBAL_UNIT_ASSIGNED_CONTEXT ( ( #371, #51, #297 ) ) REPRESENTATION_CONTEXT ( 'NONE', 'WORKASPACE' ) );
#345 = VECTOR ( 'NONE', #134, 39.37007874015748143 ) ;
#346 = CARTESIAN_POINT ( 'NONE',  ( 0.000000000000000000, 0.2500000000000000000, 0.000000000000000000 ) ) ;
#347 = CARTESIAN_POINT ( 'NONE',  ( 3.061616997868382402E-17, 0.000000000000000000, 0.2499999999999999167 ) ) ;
#348 = DIRECTION ( 'NONE',  ( -1.000000000000000000, 0.000000000000000000, 0.000000000000000000 ) ) ;
#349 = ORIENTED_EDGE ( 'NONE', *, *, #97, .F. ) ;
#350 = SURFACE_STYLE_FILL_AREA ( #11 ) ;
#351 = DIRECTION ( 'NONE',  ( 0.000000000000000000, 0.000000000000000000, 1.000000000000000000 ) ) ;
#352 = EDGE_LOOP ( 'NONE', ( #216, #250 ) ) ;
#353 = PRESENTATION_LAYER_ASSIGNMENT (  '', '', ( #213 ) ) ;
#354 = DIRECTION ( 'NONE',  ( 0.000000000000000000, 1.000000000000000000, 0.000000000000000000 ) ) ;
#355 = PRESENTATION_STYLE_ASSIGNMENT (( #319 ) ) ;
#356 = DIRECTION ( 'NONE',  ( -0.000000000000000000, -1.000000000000000000, -0.000000000000000000 ) ) ;
#357 =( LENGTH_UNIT ( ) NAMED_UNIT ( * ) SI_UNIT ( $, .METRE. ) );
#358 = ADVANCED_FACE ( 'NONE', ( #131 ), #363, .T. ) ;
#359 =( LENGTH_UNIT ( ) NAMED_UNIT ( * ) SI_UNIT ( $, .METRE. ) );
#360 = DIRECTION ( 'NONE',  ( -0.000000000000000000, -1.000000000000000000, -0.000000000000000000 ) ) ;
#361 = AXIS2_PLACEMENT_3D ( 'NONE', #364, #206, #80 ) ;
#362 = CARTESIAN_POINT ( 'NONE',  ( -1.224646799147352714E-16, 4.000000000000000000, 0.000000000000000000 ) ) ;
#363 = CYLINDRICAL_SURFACE ( 'NONE', #232, 0.2499999999999998057 ) ;
#364 = CARTESIAN_POINT ( 'NONE',  ( -1.224646799147352714E-16, 4.000000000000000000, 0.000000000000000000 ) ) ;
#365 = PRESENTATION_STYLE_ASSIGNMENT (( #236 ) ) ;
#366 = FILL_AREA_STYLE ('',( #158 ) ) ;
#367 =( NAMED_UNIT ( * ) SI_UNIT ( $, .STERADIAN. ) SOLID_ANGLE_UNIT ( ) );
#368 =( NAMED_UNIT ( * ) SI_UNIT ( $, .STERADIAN. ) SOLID_ANGLE_UNIT ( ) );
#369 = UNCERTAINTY_MEASURE_WITH_UNIT (LENGTH_MEASURE( 1.000000000000000082E-05 ), #371, 'distance_accuracy_value', 'NONE');
#370 = CYLINDRICAL_SURFACE ( 'NONE', #262, 0.2499999999999999167 ) ;
#371 =( CONVERSION_BASED_UNIT ( 'INCH', #324 ) LENGTH_UNIT ( ) NAMED_UNIT ( #15 ) );
#372 = DIRECTION ( 'NONE',  ( 0.000000000000000000, 0.000000000000000000, -1.000000000000000000 ) ) ;
#373 = FACE_OUTER_BOUND ( 'NONE', #252, .T. ) ;
ENDSEC;
END-ISO-10303-21;
