ISO-10303-21;
HEADER;
FILE_DESCRIPTION (( 'STEP AP214' ),
    '1' );
FILE_NAME ('59483.STEP',
    '2023-07-24T15:07:27',
    ( '' ),
    ( '' ),
    'SwSTEP 2.0',
    'SolidWorks 2023',
    '' );
FILE_SCHEMA (( 'AUTOMOTIVE_DESIGN' ));
ENDSEC;

DATA;
#1 =( NAMED_UNIT ( * ) SI_UNIT ( $, .STERADIAN. ) SOLID_ANGLE_UNIT ( ) );
#2 = CYLINDRICAL_SURFACE ( 'NONE', #106, 5.000000000000000000 ) ;
#3 = EDGE_CURVE ( 'NONE', #65, #119, #84, .T. ) ;
#4 =( NAMED_UNIT ( * ) PLANE_ANGLE_UNIT ( ) SI_UNIT ( $, .RADIAN. ) );
#5 = COLOUR_RGB ( '',1.000000000000000000, 0.000000000000000000, 0.000000000000000000 ) ;
#6 = DIRECTION ( 'NONE',  ( 1.000000000000000000, 4.697880814296055710E-17, 0.000000000000000000 ) ) ;
#7 = VERTEX_POINT ( 'NONE', #49 ) ;
#8 = ORIENTED_EDGE ( 'NONE', *, *, #329, .F. ) ;
#9 = STYLED_ITEM ( 'NONE', ( #47 ), #174 ) ;
#10 = EDGE_CURVE ( 'NONE', #301, #85, #92, .T. ) ;
#11 = CARTESIAN_POINT ( 'NONE',  ( 0.000000000000000000, 0.5000000000000000000, 0.000000000000000000 ) ) ;
#12 = STYLED_ITEM ( 'NONE', ( #363 ), #126 ) ;
#13 =( GEOMETRIC_REPRESENTATION_CONTEXT ( 3 ) GLOBAL_UNCERTAINTY_ASSIGNED_CONTEXT ( ( #150 ) ) GLOBAL_UNIT_ASSIGNED_CONTEXT ( ( #369, #56, #87 ) ) REPRESENTATION_CONTEXT ( 'NONE', 'WORKASPACE' ) );
#14 = SURFACE_SIDE_STYLE ('',( #70 ) ) ;
#15 = FACE_OUTER_BOUND ( 'NONE', #116, .T. ) ;
#16 = STYLED_ITEM ( 'NONE', ( #290 ), #342 ) ;
#17 = UNCERTAINTY_MEASURE_WITH_UNIT (LENGTH_MEASURE( 1.000000000000000082E-05 ), #28, 'distance_accuracy_value', 'NONE');
#18 = UNCERTAINTY_MEASURE_WITH_UNIT (LENGTH_MEASURE( 1.000000000000000082E-05 ), #261, 'distance_accuracy_value', 'NONE');
#19 =( LENGTH_UNIT ( ) NAMED_UNIT ( * ) SI_UNIT ( .MILLI., .METRE. ) );
#20 = DIRECTION ( 'NONE',  ( -0.000000000000000000, -1.000000000000000000, -0.000000000000000000 ) ) ;
#21 = EDGE_LOOP ( 'NONE', ( #207, #202 ) ) ;
#22 = AXIS2_PLACEMENT_3D ( 'NONE', #123, #325, #213 ) ;
#23 = DIRECTION ( 'NONE',  ( -1.000000000000000000, 0.000000000000000000, 0.000000000000000000 ) ) ;
#24 = MECHANICAL_DESIGN_GEOMETRIC_PRESENTATION_REPRESENTATION (  '', ( #12 ), #228 ) ;
#25 = FILL_AREA_STYLE_COLOUR ( '', #231 ) ;
#26 = EDGE_CURVE ( 'NONE', #293, #41, #237, .T. ) ;
#27 = ORIENTED_EDGE ( 'NONE', *, *, #10, .F. ) ;
#28 =( LENGTH_UNIT ( ) NAMED_UNIT ( * ) SI_UNIT ( .MILLI., .METRE. ) );
#29 = ORIENTED_EDGE ( 'NONE', *, *, #3, .T. ) ;
#30 = FILL_AREA_STYLE ('',( #60 ) ) ;
#31 = DIRECTION ( 'NONE',  ( 0.000000000000000000, 0.000000000000000000, -1.000000000000000000 ) ) ;
#32 = DIRECTION ( 'NONE',  ( -4.697880814296055710E-17, 1.000000000000000000, 0.000000000000000000 ) ) ;
#33 = STYLED_ITEM ( 'NONE', ( #246 ), #307 ) ;
#34 = AXIS2_PLACEMENT_3D ( 'NONE', #361, #107, #154 ) ;
#35 = CARTESIAN_POINT ( 'NONE',  ( -4.999999999999992006, 63.00000000000000000, 0.000000000000000000 ) ) ;
#36 =( NAMED_UNIT ( * ) SI_UNIT ( $, .STERADIAN. ) SOLID_ANGLE_UNIT ( ) );
#37 = EDGE_CURVE ( 'NONE', #164, #119, #142, .T. ) ;
#38 = SURFACE_STYLE_USAGE ( .BOTH. , #320 ) ;
#39 = AXIS2_PLACEMENT_3D ( 'NONE', #54, #330, #234 ) ;
#40 = AXIS2_PLACEMENT_3D ( 'NONE', #249, #348, #144 ) ;
#41 = VERTEX_POINT ( 'NONE', #134 ) ;
#42 =( GEOMETRIC_REPRESENTATION_CONTEXT ( 3 ) GLOBAL_UNCERTAINTY_ASSIGNED_CONTEXT ( ( #78 ) ) GLOBAL_UNIT_ASSIGNED_CONTEXT ( ( #170, #314, #258 ) ) REPRESENTATION_CONTEXT ( 'NONE', 'WORKASPACE' ) );
#43 =( LENGTH_UNIT ( ) NAMED_UNIT ( * ) SI_UNIT ( .MILLI., .METRE. ) );
#44 = PRESENTATION_STYLE_ASSIGNMENT (( #76 ) ) ;
#45 = AXIS2_PLACEMENT_3D ( 'NONE', #250, #367, #303 ) ;
#46 = SURFACE_SIDE_STYLE ('',( #133 ) ) ;
#47 = PRESENTATION_STYLE_ASSIGNMENT (( #101 ) ) ;
#48 = CARTESIAN_POINT ( 'NONE',  ( 0.000000000000000000, 0.000000000000000000, 0.000000000000000000 ) ) ;
#49 = CARTESIAN_POINT ( 'NONE',  ( -4.999999999999992895, 63.00000000000000000, 0.000000000000000000 ) ) ;
#50 = PRESENTATION_LAYER_ASSIGNMENT (  '', '', ( #172 ) ) ;
#51 = CARTESIAN_POINT ( 'NONE',  ( 0.000000000000000000, 0.000000000000000000, 0.000000000000000000 ) ) ;
#52 = CARTESIAN_POINT ( 'NONE',  ( -4.999999999999989342, 20.00000000000000355, 0.000000000000000000 ) ) ;
#53 = COLOUR_RGB ( '',1.000000000000000000, 0.000000000000000000, 0.000000000000000000 ) ;
#54 = CARTESIAN_POINT ( 'NONE',  ( 0.000000000000000000, 20.00000000000000000, 0.000000000000000000 ) ) ;
#55 = DIRECTION ( 'NONE',  ( 0.000000000000000000, -1.000000000000000000, -0.000000000000000000 ) ) ;
#56 =( NAMED_UNIT ( * ) PLANE_ANGLE_UNIT ( ) SI_UNIT ( $, .RADIAN. ) );
#57 = DIRECTION ( 'NONE',  ( -4.697880814296055710E-17, 1.000000000000000000, -0.000000000000000000 ) ) ;
#58 = ADVANCED_FACE ( 'NONE', ( #341 ), #90, .F. ) ;
#59 = EDGE_LOOP ( 'NONE', ( #201, #29, #345, #72 ) ) ;
#60 = FILL_AREA_STYLE_COLOUR ( '', #105 ) ;
#61 = CARTESIAN_POINT ( 'NONE',  ( 6.123233995736766282E-16, 20.00000000000000000, 5.000000000000000000 ) ) ;
#62 = EDGE_LOOP ( 'NONE', ( #64, #312, #256, #77 ) ) ;
#63 = AXIS2_PLACEMENT_3D ( 'NONE', #187, #156, #273 ) ;
#64 = ORIENTED_EDGE ( 'NONE', *, *, #153, .T. ) ;
#65 = VERTEX_POINT ( 'NONE', #287 ) ;
#66 = AXIS2_PLACEMENT_3D ( 'NONE', #194, #32, #204 ) ;
#67 = STYLED_ITEM ( 'NONE', ( #146 ), #98 ) ;
#68 = DIRECTION ( 'NONE',  ( -4.697880814296055710E-17, 1.000000000000000000, -0.000000000000000000 ) ) ;
#69 = EDGE_CURVE ( 'NONE', #301, #7, #148, .T. ) ;
#70 = SURFACE_STYLE_FILL_AREA ( #232 ) ;
#71 = FILL_AREA_STYLE ('',( #270 ) ) ;
#72 = ORIENTED_EDGE ( 'NONE', *, *, #26, .F. ) ;
#73 = SURFACE_STYLE_FILL_AREA ( #81 ) ;
#74 = DIRECTION ( 'NONE',  ( -0.000000000000000000, -1.000000000000000000, -0.000000000000000000 ) ) ;
#75 = PRODUCT_DEFINITION_CONTEXT ( 'detailed design', #131, 'design' ) ;
#76 = SURFACE_STYLE_USAGE ( .BOTH. , #297 ) ;
#77 = ORIENTED_EDGE ( 'NONE', *, *, #37, .F. ) ;
#78 = UNCERTAINTY_MEASURE_WITH_UNIT (LENGTH_MEASURE( 1.000000000000000082E-05 ), #170, 'distance_accuracy_value', 'NONE');
#79 = DIRECTION ( 'NONE',  ( -1.224646799147353454E-16, 0.000000000000000000, -1.000000000000000000 ) ) ;
#80 = DIRECTION ( 'NONE',  ( -1.000000000000000000, 0.000000000000000000, 0.000000000000000000 ) ) ;
#81 = FILL_AREA_STYLE ('',( #218 ) ) ;
#82 = DIRECTION ( 'NONE',  ( -0.000000000000000000, -1.000000000000000000, -0.000000000000000000 ) ) ;
#83 = DIRECTION ( 'NONE',  ( 0.000000000000000000, 0.000000000000000000, -1.000000000000000000 ) ) ;
#84 = CIRCLE ( 'NONE', #209, 5.000000000000000000 ) ;
#85 = VERTEX_POINT ( 'NONE', #120 ) ;
#86 = PRODUCT_RELATED_PRODUCT_CATEGORY ( 'part', '', ( #317 ) ) ;
#87 =( NAMED_UNIT ( * ) SI_UNIT ( $, .STERADIAN. ) SOLID_ANGLE_UNIT ( ) );
#88 = PRODUCT_DEFINITION_SHAPE ( 'NONE', 'NONE',  #178 ) ;
#89 = APPLICATION_CONTEXT ( 'automotive_design' ) ;
#90 = PLANE ( 'NONE',  #275 ) ;
#91 = EDGE_LOOP ( 'NONE', ( #333, #315, #112, #185 ) ) ;
#92 = CIRCLE ( 'NONE', #223, 4.999999999999994671 ) ;
#93 = PLANE ( 'NONE',  #66 ) ;
#94 = AXIS2_PLACEMENT_3D ( 'NONE', #48, #186, #103 ) ;
#95 = EDGE_LOOP ( 'NONE', ( #175, #227, #366, #96 ) ) ;
#96 = ORIENTED_EDGE ( 'NONE', *, *, #311, .F. ) ;
#97 = ADVANCED_FACE ( 'NONE', ( #230 ), #310, .T. ) ;
#98 = MANIFOLD_SOLID_BREP ( 'Revolve - Tool Body (Straight Shanked)', #336 ) ;
#99 = FILL_AREA_STYLE_COLOUR ( '', #104 ) ;
#100 = VECTOR ( 'NONE', #188, 1000.000000000000000 ) ;
#101 = SURFACE_STYLE_USAGE ( .BOTH. , #184 ) ;
#102 = MECHANICAL_DESIGN_GEOMETRIC_PRESENTATION_REPRESENTATION (  '', ( #33 ), #13 ) ;
#103 = DIRECTION ( 'NONE',  ( 1.000000000000000000, 0.000000000000000000, 0.000000000000000000 ) ) ;
#104 = COLOUR_RGB ( '',0.7921568627450980005, 0.8196078431372548767, 0.9333333333333333481 ) ;
#105 = COLOUR_RGB ( '',1.000000000000000000, 0.000000000000000000, 0.000000000000000000 ) ;
#106 = AXIS2_PLACEMENT_3D ( 'NONE', #115, #308, #198 ) ;
#107 = DIRECTION ( 'NONE',  ( -4.697880814296055710E-17, 1.000000000000000000, -0.000000000000000000 ) ) ;
#108 = CARTESIAN_POINT ( 'NONE',  ( 0.000000000000000000, 0.000000000000000000, 0.000000000000000000 ) ) ;
#109 = CARTESIAN_POINT ( 'NONE',  ( 0.000000000000000000, 0.5000000000000000000, 0.000000000000000000 ) ) ;
#110 = AXIS2_PLACEMENT_3D ( 'NONE', #108, #55, #248 ) ;
#111 = ORIENTED_EDGE ( 'NONE', *, *, #216, .T. ) ;
#112 = ORIENTED_EDGE ( 'NONE', *, *, #243, .F. ) ;
#113 = AXIS2_PLACEMENT_3D ( 'NONE', #286, #137, #229 ) ;
#114 = MECHANICAL_DESIGN_GEOMETRIC_PRESENTATION_REPRESENTATION (  '', ( #67 ), #189 ) ;
#115 = CARTESIAN_POINT ( 'NONE',  ( 0.000000000000000000, 0.000000000000000000, 0.000000000000000000 ) ) ;
#116 = EDGE_LOOP ( 'NONE', ( #190, #193, #224, #260 ) ) ;
#117 = AXIS2_PLACEMENT_3D ( 'NONE', #362, #132, #79 ) ;
#118 = ORIENTED_EDGE ( 'NONE', *, *, #69, .F. ) ;
#119 = VERTEX_POINT ( 'NONE', #145 ) ;
#120 = CARTESIAN_POINT ( 'NONE',  ( 5.000000000000000000, 20.00000000000000355, 6.123233995736762338E-16 ) ) ;
#121 = EDGE_CURVE ( 'NONE', #85, #301, #298, .T. ) ;
#122 = DIRECTION ( 'NONE',  ( 0.000000000000000000, 0.000000000000000000, -1.000000000000000000 ) ) ;
#123 = CARTESIAN_POINT ( 'NONE',  ( 0.000000000000000000, 0.5000000000000000000, 0.000000000000000000 ) ) ;
#124 = FILL_AREA_STYLE_COLOUR ( '', #5 ) ;
#125 = CIRCLE ( 'NONE', #340, 0.4999999999999995559 ) ;
#126 = ADVANCED_FACE ( 'NONE', ( #354 ), #157, .T. ) ;
#127 =( NAMED_UNIT ( * ) PLANE_ANGLE_UNIT ( ) SI_UNIT ( $, .RADIAN. ) );
#128 = CARTESIAN_POINT ( 'NONE',  ( 0.000000000000000000, 0.5000000000000000000, -4.500000000000000888 ) ) ;
#129 = MECHANICAL_DESIGN_GEOMETRIC_PRESENTATION_REPRESENTATION (  '', ( #16 ), #276 ) ;
#130 = AXIS2_PLACEMENT_3D ( 'NONE', #51, #82, #31 ) ;
#131 = APPLICATION_CONTEXT ( 'automotive_design' ) ;
#132 = DIRECTION ( 'NONE',  ( 1.000000000000000000, 0.000000000000000000, -1.224646799147353207E-16 ) ) ;
#133 = SURFACE_STYLE_FILL_AREA ( #360 ) ;
#134 = CARTESIAN_POINT ( 'NONE',  ( 0.000000000000000000, 0.000000000000000000, -4.500000000000000888 ) ) ;
#135 = PRESENTATION_LAYER_ASSIGNMENT (  '', '', ( #9 ) ) ;
#136 = EDGE_LOOP ( 'NONE', ( #27, #171 ) ) ;
#137 = DIRECTION ( 'NONE',  ( -0.000000000000000000, -1.000000000000000000, -0.000000000000000000 ) ) ;
#138 = MECHANICAL_DESIGN_GEOMETRIC_PRESENTATION_REPRESENTATION (  '', ( #283 ), #238 ) ;
#139 = DIRECTION ( 'NONE',  ( -0.000000000000000000, -1.000000000000000000, -0.000000000000000000 ) ) ;
#140 = AXIS2_PLACEMENT_3D ( 'NONE', #278, #332, #368 ) ;
#141 = SURFACE_STYLE_FILL_AREA ( #30 ) ;
#142 = LINE ( 'NONE', #338, #326 ) ;
#143 = SURFACE_STYLE_FILL_AREA ( #211 ) ;
#144 = DIRECTION ( 'NONE',  ( -1.000000000000000000, 0.000000000000000000, 0.000000000000000000 ) ) ;
#145 = CARTESIAN_POINT ( 'NONE',  ( 0.000000000000000000, 0.5000000000000000000, -5.000000000000000000 ) ) ;
#146 = PRESENTATION_STYLE_ASSIGNMENT (( #267 ) ) ;
#147 = ADVANCED_FACE ( 'NONE', ( #305 ), #220, .T. ) ;
#148 = LINE ( 'NONE', #35, #322 ) ;
#149 = PLANE ( 'NONE',  #110 ) ;
#150 = UNCERTAINTY_MEASURE_WITH_UNIT (LENGTH_MEASURE( 1.000000000000000082E-05 ), #369, 'distance_accuracy_value', 'NONE');
#151 =( LENGTH_UNIT ( ) NAMED_UNIT ( * ) SI_UNIT ( .MILLI., .METRE. ) );
#152 = PRESENTATION_LAYER_ASSIGNMENT (  '', '', ( #67 ) ) ;
#153 = EDGE_CURVE ( 'NONE', #164, #357, #181, .T. ) ;
#154 = DIRECTION ( 'NONE',  ( -1.000000000000000000, 0.000000000000000000, 0.000000000000000000 ) ) ;
#155 = DIRECTION ( 'NONE',  ( -4.697880814296055710E-17, 1.000000000000000000, -0.000000000000000000 ) ) ;
#156 = DIRECTION ( 'NONE',  ( -0.000000000000000000, -1.000000000000000000, -0.000000000000000000 ) ) ;
#157 = PLANE ( 'NONE',  #45 ) ;
#158 =( GEOMETRIC_REPRESENTATION_CONTEXT ( 3 ) GLOBAL_UNCERTAINTY_ASSIGNED_CONTEXT ( ( #18 ) ) GLOBAL_UNIT_ASSIGNED_CONTEXT ( ( #261, #179, #180 ) ) REPRESENTATION_CONTEXT ( 'NONE', 'WORKASPACE' ) );
#159 = PRESENTATION_LAYER_ASSIGNMENT (  '', '', ( #33 ) ) ;
#160 =( GEOMETRIC_REPRESENTATION_CONTEXT ( 3 ) GLOBAL_UNCERTAINTY_ASSIGNED_CONTEXT ( ( #328 ) ) GLOBAL_UNIT_ASSIGNED_CONTEXT ( ( #292, #268, #235 ) ) REPRESENTATION_CONTEXT ( 'NONE', 'WORKASPACE' ) );
#161 =( NAMED_UNIT ( * ) SI_UNIT ( $, .STERADIAN. ) SOLID_ANGLE_UNIT ( ) );
#162 = CYLINDRICAL_SURFACE ( 'NONE', #140, 4.999999999999995559 ) ;
#163 = CARTESIAN_POINT ( 'NONE',  ( 5.204170427930421283E-15, 20.00000000000000355, 0.000000000000000000 ) ) ;
#164 = VERTEX_POINT ( 'NONE', #183 ) ;
#165 = DIRECTION ( 'NONE',  ( -4.697880814296055710E-17, 1.000000000000000000, -0.000000000000000000 ) ) ;
#166 = ORIENTED_EDGE ( 'NONE', *, *, #329, .T. ) ;
#167 = FILL_AREA_STYLE ('',( #284 ) ) ;
#168 = AXIS2_PLACEMENT_3D ( 'NONE', #11, #349, #122 ) ;
#169 = EDGE_CURVE ( 'NONE', #119, #65, #199, .T. ) ;
#170 =( LENGTH_UNIT ( ) NAMED_UNIT ( * ) SI_UNIT ( .MILLI., .METRE. ) );
#171 = ORIENTED_EDGE ( 'NONE', *, *, #121, .F. ) ;
#172 = STYLED_ITEM ( 'NONE', ( #44 ), #195 ) ;
#173 = DIRECTION ( 'NONE',  ( -1.000000000000000000, 0.000000000000000000, 0.000000000000000000 ) ) ;
#174 = ADVANCED_FACE ( 'NONE', ( #15 ), #212, .T. ) ;
#175 = ORIENTED_EDGE ( 'NONE', *, *, #216, .F. ) ;
#176 = CIRCLE ( 'NONE', #294, 4.999999999999996447 ) ;
#177 = SURFACE_SIDE_STYLE ('',( #141 ) ) ;
#178 = PRODUCT_DEFINITION ( 'UNKNOWN', '', #295, #75 ) ;
#179 =( NAMED_UNIT ( * ) PLANE_ANGLE_UNIT ( ) SI_UNIT ( $, .RADIAN. ) );
#180 =( NAMED_UNIT ( * ) SI_UNIT ( $, .STERADIAN. ) SOLID_ANGLE_UNIT ( ) );
#181 = CIRCLE ( 'NONE', #39, 5.000000000000000000 ) ;
#182 = DIRECTION ( 'NONE',  ( 0.000000000000000000, 0.000000000000000000, -1.000000000000000000 ) ) ;
#183 = CARTESIAN_POINT ( 'NONE',  ( 0.000000000000000000, 20.00000000000000000, -5.000000000000000000 ) ) ;
#184 = SURFACE_SIDE_STYLE ('',( #352 ) ) ;
#185 = ORIENTED_EDGE ( 'NONE', *, *, #285, .F. ) ;
#186 = DIRECTION ( 'NONE',  ( 0.000000000000000000, 0.000000000000000000, 1.000000000000000000 ) ) ;
#187 = CARTESIAN_POINT ( 'NONE',  ( 0.000000000000000000, 0.000000000000000000, 0.000000000000000000 ) ) ;
#188 = DIRECTION ( 'NONE',  ( -0.000000000000000000, -1.000000000000000000, -0.000000000000000000 ) ) ;
#189 =( GEOMETRIC_REPRESENTATION_CONTEXT ( 3 ) GLOBAL_UNCERTAINTY_ASSIGNED_CONTEXT ( ( #347 ) ) GLOBAL_UNIT_ASSIGNED_CONTEXT ( ( #266, #233, #247 ) ) REPRESENTATION_CONTEXT ( 'NONE', 'WORKASPACE' ) );
#190 = ORIENTED_EDGE ( 'NONE', *, *, #236, .F. ) ;
#191 = SURFACE_STYLE_USAGE ( .BOTH. , #46 ) ;
#192 = CARTESIAN_POINT ( 'NONE',  ( 3.184081677783117402E-15, 63.00000000000000000, 0.000000000000000000 ) ) ;
#193 = ORIENTED_EDGE ( 'NONE', *, *, #245, .T. ) ;
#194 = CARTESIAN_POINT ( 'NONE',  ( 5.204170427930421283E-15, 20.00000000000000000, 0.000000000000000000 ) ) ;
#195 = ADVANCED_FACE ( 'NONE', ( #242 ), #149, .T. ) ;
#196 = CARTESIAN_POINT ( 'NONE',  ( 5.000000000000000000, 63.00000000000000000, 0.000000000000000000 ) ) ;
#197 = CARTESIAN_POINT ( 'NONE',  ( 3.184081677783117402E-15, 63.00000000000000000, 0.000000000000000000 ) ) ;
#198 = DIRECTION ( 'NONE',  ( 0.000000000000000000, 0.000000000000000000, -1.000000000000000000 ) ) ;
#199 = CIRCLE ( 'NONE', #22, 5.000000000000000000 ) ;
#200 = CIRCLE ( 'NONE', #40, 4.999999999999996447 ) ;
#201 = ORIENTED_EDGE ( 'NONE', *, *, #300, .F. ) ;
#202 = ORIENTED_EDGE ( 'NONE', *, *, #245, .F. ) ;
#203 = CIRCLE ( 'NONE', #117, 0.4999999999999995559 ) ;
#204 = DIRECTION ( 'NONE',  ( -1.000000000000000000, -4.697880814296055710E-17, 0.000000000000000000 ) ) ;
#205 = COLOUR_RGB ( '',1.000000000000000000, 0.000000000000000000, 0.000000000000000000 ) ;
#206 = MECHANICAL_DESIGN_GEOMETRIC_PRESENTATION_REPRESENTATION (  '', ( #172 ), #323 ) ;
#207 = ORIENTED_EDGE ( 'NONE', *, *, #153, .F. ) ;
#208 = PRESENTATION_STYLE_ASSIGNMENT (( #38 ) ) ;
#209 = AXIS2_PLACEMENT_3D ( 'NONE', #109, #334, #83 ) ;
#210 = SHAPE_DEFINITION_REPRESENTATION ( #88, #265 ) ;
#211 = FILL_AREA_STYLE ('',( #263 ) ) ;
#212 = CYLINDRICAL_SURFACE ( 'NONE', #350, 5.000000000000000000 ) ;
#213 = DIRECTION ( 'NONE',  ( 0.000000000000000000, 0.000000000000000000, -1.000000000000000000 ) ) ;
#214 = UNCERTAINTY_MEASURE_WITH_UNIT (LENGTH_MEASURE( 1.000000000000000082E-05 ), #19, 'distance_accuracy_value', 'NONE');
#215 = PRODUCT_CONTEXT ( 'NONE', #89, 'mechanical' ) ;
#216 = EDGE_CURVE ( 'NONE', #85, #225, #251, .T. ) ;
#217 = APPLICATION_PROTOCOL_DEFINITION ( 'draft international standard', 'automotive_design', 1998, #89 ) ;
#218 = FILL_AREA_STYLE_COLOUR ( '', #205 ) ;
#219 = CARTESIAN_POINT ( 'NONE',  ( 6.123233995736766282E-16, 0.000000000000000000, 5.000000000000000000 ) ) ;
#220 = CYLINDRICAL_SURFACE ( 'NONE', #358, 4.999999999999995559 ) ;
#221 = PRESENTATION_LAYER_ASSIGNMENT (  '', '', ( #16 ) ) ;
#222 = CARTESIAN_POINT ( 'NONE',  ( 5.000000000000000000, 63.00000000000000000, 6.123233995736762338E-16 ) ) ;
#223 = AXIS2_PLACEMENT_3D ( 'NONE', #163, #155, #80 ) ;
#224 = ORIENTED_EDGE ( 'NONE', *, *, #37, .T. ) ;
#225 = VERTEX_POINT ( 'NONE', #222 ) ;
#226 = COLOUR_RGB ( '',0.7921568627450980005, 0.8196078431372548767, 0.9333333333333333481 ) ;
#227 = ORIENTED_EDGE ( 'NONE', *, *, #121, .T. ) ;
#228 =( GEOMETRIC_REPRESENTATION_CONTEXT ( 3 ) GLOBAL_UNCERTAINTY_ASSIGNED_CONTEXT ( ( #296 ) ) GLOBAL_UNIT_ASSIGNED_CONTEXT ( ( #43, #127, #161 ) ) REPRESENTATION_CONTEXT ( 'NONE', 'WORKASPACE' ) );
#229 = DIRECTION ( 'NONE',  ( 0.000000000000000000, 0.000000000000000000, -1.000000000000000000 ) ) ;
#230 = FACE_OUTER_BOUND ( 'NONE', #59, .T. ) ;
#231 = COLOUR_RGB ( '',1.000000000000000000, 0.000000000000000000, 0.000000000000000000 ) ;
#232 = FILL_AREA_STYLE ('',( #99 ) ) ;
#233 =( NAMED_UNIT ( * ) PLANE_ANGLE_UNIT ( ) SI_UNIT ( $, .RADIAN. ) );
#234 = DIRECTION ( 'NONE',  ( 0.000000000000000000, 0.000000000000000000, -1.000000000000000000 ) ) ;
#235 =( NAMED_UNIT ( * ) SI_UNIT ( $, .STERADIAN. ) SOLID_ANGLE_UNIT ( ) );
#236 = EDGE_CURVE ( 'NONE', #357, #65, #365, .T. ) ;
#237 = CIRCLE ( 'NONE', #130, 4.500000000000000888 ) ;
#238 =( GEOMETRIC_REPRESENTATION_CONTEXT ( 3 ) GLOBAL_UNCERTAINTY_ASSIGNED_CONTEXT ( ( #241 ) ) GLOBAL_UNIT_ASSIGNED_CONTEXT ( ( #151, #321, #36 ) ) REPRESENTATION_CONTEXT ( 'NONE', 'WORKASPACE' ) );
#239 = FILL_AREA_STYLE ('',( #124 ) ) ;
#240 = ADVANCED_FACE ( 'NONE', ( #356 ), #162, .T. ) ;
#241 = UNCERTAINTY_MEASURE_WITH_UNIT (LENGTH_MEASURE( 1.000000000000000082E-05 ), #151, 'distance_accuracy_value', 'NONE');
#242 = FACE_OUTER_BOUND ( 'NONE', #306, .T. ) ;
#243 = EDGE_CURVE ( 'NONE', #41, #293, #291, .T. ) ;
#244 = CARTESIAN_POINT ( 'NONE',  ( 4.999999999999999112, 63.00000000000000000, 6.123233995736761352E-16 ) ) ;
#245 = EDGE_CURVE ( 'NONE', #357, #164, #316, .T. ) ;
#246 = PRESENTATION_STYLE_ASSIGNMENT (( #191 ) ) ;
#247 =( NAMED_UNIT ( * ) SI_UNIT ( $, .STERADIAN. ) SOLID_ANGLE_UNIT ( ) );
#248 = DIRECTION ( 'NONE',  ( 0.000000000000000000, 0.000000000000000000, -1.000000000000000000 ) ) ;
#249 = CARTESIAN_POINT ( 'NONE',  ( 3.184081677783117402E-15, 63.00000000000000000, 0.000000000000000000 ) ) ;
#250 = CARTESIAN_POINT ( 'NONE',  ( 0.000000000000000000, 20.00000000000000000, 0.000000000000000000 ) ) ;
#251 = LINE ( 'NONE', #244, #279 ) ;
#252 = COLOUR_RGB ( '',1.000000000000000000, 0.000000000000000000, 0.000000000000000000 ) ;
#253 = FACE_OUTER_BOUND ( 'NONE', #136, .T. ) ;
#254 = SURFACE_STYLE_USAGE ( .BOTH. , #177 ) ;
#255 = DIRECTION ( 'NONE',  ( 4.697880814296055710E-17, -1.000000000000000000, 0.000000000000000000 ) ) ;
#256 = ORIENTED_EDGE ( 'NONE', *, *, #169, .F. ) ;
#257 = SURFACE_STYLE_USAGE ( .BOTH. , #289 ) ;
#258 =( NAMED_UNIT ( * ) SI_UNIT ( $, .STERADIAN. ) SOLID_ANGLE_UNIT ( ) );
#259 = MECHANICAL_DESIGN_GEOMETRIC_PRESENTATION_REPRESENTATION (  '', ( #9 ), #160 ) ;
#260 = ORIENTED_EDGE ( 'NONE', *, *, #3, .F. ) ;
#261 =( LENGTH_UNIT ( ) NAMED_UNIT ( * ) SI_UNIT ( .MILLI., .METRE. ) );
#262 = ORIENTED_EDGE ( 'NONE', *, *, #26, .T. ) ;
#263 = FILL_AREA_STYLE_COLOUR ( '', #53 ) ;
#264 = PRESENTATION_LAYER_ASSIGNMENT (  '', '', ( #12 ) ) ;
#265 = ADVANCED_BREP_SHAPE_REPRESENTATION ( '59483', ( #342, #98, #94 ), #42 ) ;
#266 =( LENGTH_UNIT ( ) NAMED_UNIT ( * ) SI_UNIT ( .MILLI., .METRE. ) );
#267 = SURFACE_STYLE_USAGE ( .BOTH. , #14 ) ;
#268 =( NAMED_UNIT ( * ) PLANE_ANGLE_UNIT ( ) SI_UNIT ( $, .RADIAN. ) );
#269 = STYLED_ITEM ( 'NONE', ( #208 ), #97 ) ;
#270 = FILL_AREA_STYLE_COLOUR ( '', #252 ) ;
#271 = SURFACE_SIDE_STYLE ('',( #73 ) ) ;
#272 = FACE_OUTER_BOUND ( 'NONE', #91, .T. ) ;
#273 = DIRECTION ( 'NONE',  ( 0.000000000000000000, 0.000000000000000000, -1.000000000000000000 ) ) ;
#274 = CARTESIAN_POINT ( 'NONE',  ( 5.817072295949928412E-16, 0.000000000000000000, 4.500000000000000888 ) ) ;
#275 = AXIS2_PLACEMENT_3D ( 'NONE', #196, #255, #6 ) ;
#276 =( GEOMETRIC_REPRESENTATION_CONTEXT ( 3 ) GLOBAL_UNCERTAINTY_ASSIGNED_CONTEXT ( ( #17 ) ) GLOBAL_UNIT_ASSIGNED_CONTEXT ( ( #28, #4, #346 ) ) REPRESENTATION_CONTEXT ( 'NONE', 'WORKASPACE' ) );
#277 = SURFACE_STYLE_USAGE ( .BOTH. , #271 ) ;
#278 = CARTESIAN_POINT ( 'NONE',  ( 3.184081677783117402E-15, 63.00000000000000000, 0.000000000000000000 ) ) ;
#279 = VECTOR ( 'NONE', #165, 1000.000000000000000 ) ;
#280 = DIRECTION ( 'NONE',  ( 0.000000000000000000, 0.000000000000000000, -1.000000000000000000 ) ) ;
#281 = DIRECTION ( 'NONE',  ( -4.697880814296055710E-17, 1.000000000000000000, -0.000000000000000000 ) ) ;
#282 = CLOSED_SHELL ( 'NONE', ( #351, #307, #195, #97, #174, #126 ) ) ;
#283 = STYLED_ITEM ( 'NONE', ( #309 ), #351 ) ;
#284 = FILL_AREA_STYLE_COLOUR ( '', #226 ) ;
#285 = EDGE_CURVE ( 'NONE', #119, #41, #125, .T. ) ;
#286 = CARTESIAN_POINT ( 'NONE',  ( 0.000000000000000000, 0.5000000000000000000, 0.000000000000000000 ) ) ;
#287 = CARTESIAN_POINT ( 'NONE',  ( 6.123233995736766282E-16, 0.5000000000000000000, 5.000000000000000000 ) ) ;
#288 = EDGE_LOOP ( 'NONE', ( #339, #111, #8, #118 ) ) ;
#289 = SURFACE_SIDE_STYLE ('',( #319 ) ) ;
#290 = PRESENTATION_STYLE_ASSIGNMENT (( #257 ) ) ;
#291 = CIRCLE ( 'NONE', #63, 4.500000000000000888 ) ;
#292 =( LENGTH_UNIT ( ) NAMED_UNIT ( * ) SI_UNIT ( .MILLI., .METRE. ) );
#293 = VERTEX_POINT ( 'NONE', #274 ) ;
#294 = AXIS2_PLACEMENT_3D ( 'NONE', #197, #281, #173 ) ;
#295 = PRODUCT_DEFINITION_FORMATION_WITH_SPECIFIED_SOURCE ( 'ANY', '', #317, .NOT_KNOWN. ) ;
#296 = UNCERTAINTY_MEASURE_WITH_UNIT (LENGTH_MEASURE( 1.000000000000000082E-05 ), #43, 'distance_accuracy_value', 'NONE');
#297 = SURFACE_SIDE_STYLE ('',( #353 ) ) ;
#298 = CIRCLE ( 'NONE', #34, 4.999999999999994671 ) ;
#299 = PRESENTATION_LAYER_ASSIGNMENT (  '', '', ( #283 ) ) ;
#300 = EDGE_CURVE ( 'NONE', #65, #293, #203, .T. ) ;
#301 = VERTEX_POINT ( 'NONE', #52 ) ;
#302 = APPLICATION_PROTOCOL_DEFINITION ( 'draft international standard', 'automotive_design', 1998, #131 ) ;
#303 = DIRECTION ( 'NONE',  ( 0.000000000000000000, -0.000000000000000000, 1.000000000000000000 ) ) ;
#304 = DIRECTION ( 'NONE',  ( 0.000000000000000000, 0.000000000000000000, 1.000000000000000000 ) ) ;
#305 = FACE_OUTER_BOUND ( 'NONE', #95, .T. ) ;
#306 = EDGE_LOOP ( 'NONE', ( #343, #262 ) ) ;
#307 = ADVANCED_FACE ( 'NONE', ( #272 ), #359, .T. ) ;
#308 = DIRECTION ( 'NONE',  ( -0.000000000000000000, -1.000000000000000000, -0.000000000000000000 ) ) ;
#309 = PRESENTATION_STYLE_ASSIGNMENT (( #254 ) ) ;
#310 = TOROIDAL_SURFACE ( 'NONE', #168, 4.500000000000000888, 0.4999999999999997780 ) ;
#311 = EDGE_CURVE ( 'NONE', #225, #7, #200, .T. ) ;
#312 = ORIENTED_EDGE ( 'NONE', *, *, #236, .T. ) ;
#313 = FACE_OUTER_BOUND ( 'NONE', #62, .T. ) ;
#314 =( NAMED_UNIT ( * ) PLANE_ANGLE_UNIT ( ) SI_UNIT ( $, .RADIAN. ) );
#315 = ORIENTED_EDGE ( 'NONE', *, *, #300, .T. ) ;
#316 = CIRCLE ( 'NONE', #364, 5.000000000000000000 ) ;
#317 = PRODUCT ( '59483', '59483', '', ( #215 ) ) ;
#318 = EDGE_LOOP ( 'NONE', ( #166, #324 ) ) ;
#319 = SURFACE_STYLE_FILL_AREA ( #167 ) ;
#320 = SURFACE_SIDE_STYLE ('',( #143 ) ) ;
#321 =( NAMED_UNIT ( * ) PLANE_ANGLE_UNIT ( ) SI_UNIT ( $, .RADIAN. ) );
#322 = VECTOR ( 'NONE', #68, 1000.000000000000000 ) ;
#323 =( GEOMETRIC_REPRESENTATION_CONTEXT ( 3 ) GLOBAL_UNCERTAINTY_ASSIGNED_CONTEXT ( ( #214 ) ) GLOBAL_UNIT_ASSIGNED_CONTEXT ( ( #19, #355, #1 ) ) REPRESENTATION_CONTEXT ( 'NONE', 'WORKASPACE' ) );
#324 = ORIENTED_EDGE ( 'NONE', *, *, #311, .T. ) ;
#325 = DIRECTION ( 'NONE',  ( -0.000000000000000000, -1.000000000000000000, -0.000000000000000000 ) ) ;
#326 = VECTOR ( 'NONE', #139, 1000.000000000000000 ) ;
#327 = CARTESIAN_POINT ( 'NONE',  ( 0.000000000000000000, 0.000000000000000000, 0.000000000000000000 ) ) ;
#328 = UNCERTAINTY_MEASURE_WITH_UNIT (LENGTH_MEASURE( 1.000000000000000082E-05 ), #292, 'distance_accuracy_value', 'NONE');
#329 = EDGE_CURVE ( 'NONE', #7, #225, #176, .T. ) ;
#330 = DIRECTION ( 'NONE',  ( -0.000000000000000000, -1.000000000000000000, -0.000000000000000000 ) ) ;
#331 = MECHANICAL_DESIGN_GEOMETRIC_PRESENTATION_REPRESENTATION (  '', ( #269 ), #158 ) ;
#332 = DIRECTION ( 'NONE',  ( -4.697880814296055710E-17, 1.000000000000000000, -0.000000000000000000 ) ) ;
#333 = ORIENTED_EDGE ( 'NONE', *, *, #169, .T. ) ;
#334 = DIRECTION ( 'NONE',  ( -0.000000000000000000, -1.000000000000000000, -0.000000000000000000 ) ) ;
#335 = DIRECTION ( 'NONE',  ( -1.000000000000000000, 0.000000000000000000, 0.000000000000000000 ) ) ;
#336 = CLOSED_SHELL ( 'NONE', ( #240, #344, #147, #58 ) ) ;
#337 = CARTESIAN_POINT ( 'NONE',  ( 0.000000000000000000, 20.00000000000000000, 0.000000000000000000 ) ) ;
#338 = CARTESIAN_POINT ( 'NONE',  ( 0.000000000000000000, 0.000000000000000000, -5.000000000000000000 ) ) ;
#339 = ORIENTED_EDGE ( 'NONE', *, *, #10, .T. ) ;
#340 = AXIS2_PLACEMENT_3D ( 'NONE', #128, #23, #304 ) ;
#341 = FACE_OUTER_BOUND ( 'NONE', #318, .T. ) ;
#342 = MANIFOLD_SOLID_BREP ( 'Revolve - Cutting Edge', #282 ) ;
#343 = ORIENTED_EDGE ( 'NONE', *, *, #243, .T. ) ;
#344 = ADVANCED_FACE ( 'NONE', ( #253 ), #93, .F. ) ;
#345 = ORIENTED_EDGE ( 'NONE', *, *, #285, .T. ) ;
#346 =( NAMED_UNIT ( * ) SI_UNIT ( $, .STERADIAN. ) SOLID_ANGLE_UNIT ( ) );
#347 = UNCERTAINTY_MEASURE_WITH_UNIT (LENGTH_MEASURE( 1.000000000000000082E-05 ), #266, 'distance_accuracy_value', 'NONE');
#348 = DIRECTION ( 'NONE',  ( -4.697880814296055710E-17, 1.000000000000000000, -0.000000000000000000 ) ) ;
#349 = DIRECTION ( 'NONE',  ( -0.000000000000000000, -1.000000000000000000, -0.000000000000000000 ) ) ;
#350 = AXIS2_PLACEMENT_3D ( 'NONE', #327, #74, #182 ) ;
#351 = ADVANCED_FACE ( 'NONE', ( #313 ), #2, .T. ) ;
#352 = SURFACE_STYLE_FILL_AREA ( #71 ) ;
#353 = SURFACE_STYLE_FILL_AREA ( #239 ) ;
#354 = FACE_OUTER_BOUND ( 'NONE', #21, .T. ) ;
#355 =( NAMED_UNIT ( * ) PLANE_ANGLE_UNIT ( ) SI_UNIT ( $, .RADIAN. ) );
#356 = FACE_OUTER_BOUND ( 'NONE', #288, .T. ) ;
#357 = VERTEX_POINT ( 'NONE', #61 ) ;
#358 = AXIS2_PLACEMENT_3D ( 'NONE', #192, #57, #335 ) ;
#359 = TOROIDAL_SURFACE ( 'NONE', #113, 4.500000000000000888, 0.4999999999999997780 ) ;
#360 = FILL_AREA_STYLE ('',( #25 ) ) ;
#361 = CARTESIAN_POINT ( 'NONE',  ( 5.204170427930421283E-15, 20.00000000000000355, 0.000000000000000000 ) ) ;
#362 = CARTESIAN_POINT ( 'NONE',  ( 5.510910596163089556E-16, 0.5000000000000000000, 4.500000000000000888 ) ) ;
#363 = PRESENTATION_STYLE_ASSIGNMENT (( #277 ) ) ;
#364 = AXIS2_PLACEMENT_3D ( 'NONE', #337, #20, #280 ) ;
#365 = LINE ( 'NONE', #219, #100 ) ;
#366 = ORIENTED_EDGE ( 'NONE', *, *, #69, .T. ) ;
#367 = DIRECTION ( 'NONE',  ( 0.000000000000000000, 1.000000000000000000, 0.000000000000000000 ) ) ;
#368 = DIRECTION ( 'NONE',  ( -1.000000000000000000, 0.000000000000000000, 0.000000000000000000 ) ) ;
#369 =( LENGTH_UNIT ( ) NAMED_UNIT ( * ) SI_UNIT ( .MILLI., .METRE. ) );
#370 = PRESENTATION_LAYER_ASSIGNMENT (  '', '', ( #269 ) ) ;
ENDSEC;
END-ISO-10303-21;
