ISO-10303-21;
HEADER;
FILE_DESCRIPTION (( 'STEP AP214' ),
    '1' );
FILE_NAME ('Micro_SPD-375-120.STEP',
    '2021-09-03T21:21:10',
    ( '' ),
    ( '' ),
    'SwSTEP 2.0',
    'SolidWorks 2020',
    '' );
FILE_SCHEMA (( 'AUTOMOTIVE_DESIGN' ));
ENDSEC;

DATA;
#1 = DIRECTION ( 'NONE',  ( 0.0000000000000000000, 0.0000000000000000000, 1.000000000000000000 ) ) ;
#2 = DIMENSIONAL_EXPONENTS ( 1.000000000000000000, 0.0000000000000000000, 0.0000000000000000000, 0.0000000000000000000, 0.0000000000000000000, 0.0000000000000000000, 0.0000000000000000000 ) ;
#3 = CYLINDRICAL_SURFACE ( 'NONE', #192, 0.1874500000000000610 ) ;
#4 = DIRECTION ( 'NONE',  ( -1.000000000000000000, 0.0000000000000000000, 0.0000000000000000000 ) ) ;
#5 = DIRECTION ( 'NONE',  ( -0.0000000000000000000, -0.0000000000000000000, -1.000000000000000000 ) ) ;
#6 = MECHANICAL_DESIGN_GEOMETRIC_PRESENTATION_REPRESENTATION (  '', ( #129 ), #198 ) ;
#7 = CIRCLE ( 'NONE', #307, 0.02800000000000000405 ) ;
#8 = ORIENTED_EDGE ( 'NONE', *, *, #99, .T. ) ;
#9 = CIRCLE ( 'NONE', #183, 0.1724999999999995981 ) ;
#10 = DIRECTION ( 'NONE',  ( -1.000000000000000000, 0.0000000000000000000, 0.0000000000000000000 ) ) ;
#11 = LINE ( 'NONE', #160, #166 ) ;
#12 = FILL_AREA_STYLE_COLOUR ( '', #326 ) ;
#13 = SURFACE_SIDE_STYLE ('',( #68 ) ) ;
#14 =( CONVERSION_BASED_UNIT ( 'INCH', #273 ) LENGTH_UNIT ( ) NAMED_UNIT ( #2 ) );
#15 = CARTESIAN_POINT ( 'NONE',  ( 0.1875000000000000278, 2.296212748401287726E-17, 2.500000000000000000 ) ) ;
#16 =( CONVERSION_BASED_UNIT ( 'INCH', #150 ) LENGTH_UNIT ( ) NAMED_UNIT ( #321 ) );
#17 = CIRCLE ( 'NONE', #271, 0.02800000000000000405 ) ;
#18 = AXIS2_PLACEMENT_3D ( 'NONE', #50, #1, #21 ) ;
#19 = VERTEX_POINT ( 'NONE', #247 ) ;
#20 = EDGE_CURVE ( 'NONE', #42, #19, #196, .T. ) ;
#21 = DIRECTION ( 'NONE',  ( 1.000000000000000000, 0.0000000000000000000, 0.0000000000000000000 ) ) ;
#22 = DIRECTION ( 'NONE',  ( 0.8660254037844400399, 0.0000000000000000000, 0.4999999999999976685 ) ) ;
#23 = CARTESIAN_POINT ( 'NONE',  ( 0.1875000000000000278, 2.296212748401287726E-17, 2.484999999999999432 ) ) ;
#24 = FACE_OUTER_BOUND ( 'NONE', #175, .T. ) ;
#25 = LINE ( 'NONE', #268, #61 ) ;
#26 = DIRECTION ( 'NONE',  ( -0.0000000000000000000, -0.0000000000000000000, -1.000000000000000000 ) ) ;
#27 = MANIFOLD_SOLID_BREP ( 'Cut-Revolve2', #331 ) ;
#28 = CARTESIAN_POINT ( 'NONE',  ( 0.0000000000000000000, 0.0000000000000000000, 1.000000000000000000 ) ) ;
#29 = PRODUCT_RELATED_PRODUCT_CATEGORY ( 'part', '', ( #218 ) ) ;
#30 = PRODUCT_DEFINITION ( 'UNKNOWN', '', #130, #124 ) ;
#31 = DIRECTION ( 'NONE',  ( 0.0000000000000000000, 0.0000000000000000000, 1.000000000000000000 ) ) ;
#32 = ORIENTED_EDGE ( 'NONE', *, *, #97, .F. ) ;
#33 = DIRECTION ( 'NONE',  ( -0.0000000000000000000, -0.0000000000000000000, -1.000000000000000000 ) ) ;
#34 = CONICAL_SURFACE ( 'NONE', #254, 0.1724999999999995981, 0.7853981633974357335 ) ;
#35 = AXIS2_PLACEMENT_3D ( 'NONE', #231, #349, #289 ) ;
#36 = CIRCLE ( 'NONE', #245, 0.1875000000000000278 ) ;
#37 = DIRECTION ( 'NONE',  ( -0.0000000000000000000, -0.0000000000000000000, -1.000000000000000000 ) ) ;
#38 = ORIENTED_EDGE ( 'NONE', *, *, #20, .F. ) ;
#39 = ORIENTED_EDGE ( 'NONE', *, *, #303, .F. ) ;
#40 = APPLICATION_PROTOCOL_DEFINITION ( 'draft international standard', 'automotive_design', 1998, #226 ) ;
#41 = UNCERTAINTY_MEASURE_WITH_UNIT (LENGTH_MEASURE( 1.000000000000000082E-05 ), #16, 'distance_accuracy_value', 'NONE');
#42 = VERTEX_POINT ( 'NONE', #336 ) ;
#43 = SURFACE_STYLE_USAGE ( .BOTH. , #13 ) ;
#44 = SURFACE_STYLE_USAGE ( .BOTH. , #217 ) ;
#45 = SURFACE_STYLE_FILL_AREA ( #334 ) ;
#46 = ORIENTED_EDGE ( 'NONE', *, *, #257, .T. ) ;
#47 = ADVANCED_FACE ( 'NONE', ( #322 ), #34, .T. ) ;
#48 = CARTESIAN_POINT ( 'NONE',  ( 0.0000000000000000000, 0.0000000000000000000, 1.000049999999999883 ) ) ;
#49 = DIRECTION ( 'NONE',  ( 1.000000000000000000, 0.0000000000000000000, 0.0000000000000000000 ) ) ;
#50 = CARTESIAN_POINT ( 'NONE',  ( 0.0000000000000000000, 0.0000000000000000000, 1.000000000000000000 ) ) ;
#51 = EDGE_CURVE ( 'NONE', #300, #58, #9, .T. ) ;
#52 = CARTESIAN_POINT ( 'NONE',  ( 0.0000000000000000000, 0.0000000000000000000, 0.0000000000000000000 ) ) ;
#53 = DIRECTION ( 'NONE',  ( -0.0000000000000000000, -0.0000000000000000000, -1.000000000000000000 ) ) ;
#54 = DIRECTION ( 'NONE',  ( 1.000000000000000000, 0.0000000000000000000, -0.0000000000000000000 ) ) ;
#55 = PRESENTATION_LAYER_ASSIGNMENT (  '', '', ( #223 ) ) ;
#56 = FACE_OUTER_BOUND ( 'NONE', #298, .T. ) ;
#57 = CIRCLE ( 'NONE', #345, 0.1875000000000000278 ) ;
#58 = VERTEX_POINT ( 'NONE', #153 ) ;
#59 = CIRCLE ( 'NONE', #135, 0.1874500000000001165 ) ;
#60 = EDGE_LOOP ( 'NONE', ( #282, #253, #194, #8 ) ) ;
#61 = VECTOR ( 'NONE', #85, 39.37007874015748143 ) ;
#62 = DIRECTION ( 'NONE',  ( -0.7071067811865481278, 8.659560562354940254E-17, 0.7071067811865469066 ) ) ;
#63 = ADVANCED_FACE ( 'NONE', ( #82 ), #225, .T. ) ;
#64 = ADVANCED_FACE ( 'NONE', ( #204 ), #310, .T. ) ;
#65 = PLANE ( 'NONE',  #66 ) ;
#66 = AXIS2_PLACEMENT_3D ( 'NONE', #88, #167, #54 ) ;
#67 = VERTEX_POINT ( 'NONE', #23 ) ;
#68 = SURFACE_STYLE_FILL_AREA ( #73 ) ;
#69 = ADVANCED_FACE ( 'NONE', ( #256 ), #269, .T. ) ;
#70 = ORIENTED_EDGE ( 'NONE', *, *, #99, .F. ) ;
#71 = PRESENTATION_LAYER_ASSIGNMENT (  '', '', ( #129 ) ) ;
#72 = CARTESIAN_POINT ( 'NONE',  ( -0.1874500000000000610, 0.0000000000000000000, 0.0000000000000000000 ) ) ;
#73 = FILL_AREA_STYLE ('',( #242 ) ) ;
#74 = ORIENTED_EDGE ( 'NONE', *, *, #333, .T. ) ;
#75 = ORIENTED_EDGE ( 'NONE', *, *, #123, .T. ) ;
#76 = CIRCLE ( 'NONE', #301, 0.1875000000000000278 ) ;
#77 = DIRECTION ( 'NONE',  ( 1.000000000000000000, 0.0000000000000000000, 0.0000000000000000000 ) ) ;
#78 =( NAMED_UNIT ( * ) SI_UNIT ( $, .STERADIAN. ) SOLID_ANGLE_UNIT ( ) );
#79 = DIRECTION ( 'NONE',  ( -0.0000000000000000000, -0.0000000000000000000, -1.000000000000000000 ) ) ;
#80 = AXIS2_PLACEMENT_3D ( 'NONE', #327, #33, #162 ) ;
#81 = DIRECTION ( 'NONE',  ( 0.0000000000000000000, 0.0000000000000000000, -1.000000000000000000 ) ) ;
#82 = FACE_OUTER_BOUND ( 'NONE', #250, .T. ) ;
#83 = ADVANCED_FACE ( 'NONE', ( #24 ), #260, .T. ) ;
#84 = ADVANCED_FACE ( 'NONE', ( #181 ), #343, .T. ) ;
#85 = DIRECTION ( 'NONE',  ( -0.0000000000000000000, -0.0000000000000000000, -1.000000000000000000 ) ) ;
#86 = ORIENTED_EDGE ( 'NONE', *, *, #97, .T. ) ;
#87 = CARTESIAN_POINT ( 'NONE',  ( 0.0000000000000000000, 0.0000000000000000000, 0.09205850042228524988 ) ) ;
#88 = CARTESIAN_POINT ( 'NONE',  ( 0.0000000000000000000, 0.0000000000000000000, 0.0000000000000000000 ) ) ;
#89 = ORIENTED_EDGE ( 'NONE', *, *, #101, .F. ) ;
#90 = CARTESIAN_POINT ( 'NONE',  ( -0.1875000000000000278, 0.0000000000000000000, 2.484999999999999432 ) ) ;
#91 = ORIENTED_EDGE ( 'NONE', *, *, #121, .F. ) ;
#92 = DIRECTION ( 'NONE',  ( -1.000000000000000000, 0.0000000000000000000, 0.0000000000000000000 ) ) ;
#93 = VERTEX_POINT ( 'NONE', #131 ) ;
#94 = AXIS2_PLACEMENT_3D ( 'NONE', #258, #105, #285 ) ;
#95 = UNCERTAINTY_MEASURE_WITH_UNIT (LENGTH_MEASURE( 1.000000000000000082E-05 ), #14, 'distance_accuracy_value', 'NONE');
#96 = ORIENTED_EDGE ( 'NONE', *, *, #118, .F. ) ;
#97 = EDGE_CURVE ( 'NONE', #164, #42, #59, .T. ) ;
#98 =( LENGTH_UNIT ( ) NAMED_UNIT ( * ) SI_UNIT ( $, .METRE. ) );
#99 = EDGE_CURVE ( 'NONE', #19, #344, #36, .T. ) ;
#100 =( NAMED_UNIT ( * ) PLANE_ANGLE_UNIT ( ) SI_UNIT ( $, .RADIAN. ) );
#101 = EDGE_CURVE ( 'NONE', #93, #102, #228, .T. ) ;
#102 = VERTEX_POINT ( 'NONE', #182 ) ;
#103 = LINE ( 'NONE', #184, #284 ) ;
#104 = CARTESIAN_POINT ( 'NONE',  ( 0.1724999999999995981, 2.112515728529179297E-17, 2.500000000000000000 ) ) ;
#105 = DIRECTION ( 'NONE',  ( 0.0000000000000000000, 0.0000000000000000000, 1.000000000000000000 ) ) ;
#106 = VECTOR ( 'NONE', #337, 39.37007874015748143 ) ;
#107 = DIRECTION ( 'NONE',  ( -1.000000000000000000, 0.0000000000000000000, 0.0000000000000000000 ) ) ;
#108 = EDGE_CURVE ( 'NONE', #300, #202, #103, .T. ) ;
#109 = DIRECTION ( 'NONE',  ( 0.0000000000000000000, 0.0000000000000000000, 1.000000000000000000 ) ) ;
#110 = FACE_OUTER_BOUND ( 'NONE', #126, .T. ) ;
#111 = DIRECTION ( 'NONE',  ( -0.0000000000000000000, -0.0000000000000000000, -1.000000000000000000 ) ) ;
#112 = ORIENTED_EDGE ( 'NONE', *, *, #179, .T. ) ;
#113 = CARTESIAN_POINT ( 'NONE',  ( -0.1874500000000001165, 2.295906586701500980E-17, 1.000000000000000000 ) ) ;
#114 = ORIENTED_EDGE ( 'NONE', *, *, #286, .F. ) ;
#115 = CARTESIAN_POINT ( 'NONE',  ( -0.02800000000000000405, 1.319250764381486341E-17, 0.0000000000000000000 ) ) ;
#116 =( NAMED_UNIT ( * ) SI_UNIT ( $, .STERADIAN. ) SOLID_ANGLE_UNIT ( ) );
#117 = ORIENTED_EDGE ( 'NONE', *, *, #142, .T. ) ;
#118 = EDGE_CURVE ( 'NONE', #67, #202, #145, .T. ) ;
#119 = EDGE_CURVE ( 'NONE', #58, #67, #230, .T. ) ;
#120 =( LENGTH_UNIT ( ) NAMED_UNIT ( * ) SI_UNIT ( $, .METRE. ) );
#121 = EDGE_CURVE ( 'NONE', #93, #281, #17, .T. ) ;
#122 = DIRECTION ( 'NONE',  ( -0.0000000000000000000, -0.0000000000000000000, -1.000000000000000000 ) ) ;
#123 = EDGE_CURVE ( 'NONE', #42, #102, #25, .T. ) ;
#124 = PRODUCT_DEFINITION_CONTEXT ( 'detailed design', #278, 'design' ) ;
#125 = DIRECTION ( 'NONE',  ( 1.000000000000000000, 0.0000000000000000000, 0.0000000000000000000 ) ) ;
#126 = EDGE_LOOP ( 'NONE', ( #190, #311, #270, #70 ) ) ;
#127 = DIRECTION ( 'NONE',  ( 0.0000000000000000000, 0.0000000000000000000, 1.000000000000000000 ) ) ;
#128 = DIRECTION ( 'NONE',  ( -0.7071067811865385799, 0.0000000000000000000, -0.7071067811865563435 ) ) ;
#129 = STYLED_ITEM ( 'NONE', ( #306 ), #27 ) ;
#130 = PRODUCT_DEFINITION_FORMATION_WITH_SPECIFIED_SOURCE ( 'ANY', '', #218, .NOT_KNOWN. ) ;
#131 = CARTESIAN_POINT ( 'NONE',  ( 0.02800000000000000405, 0.0000000000000000000, 0.0000000000000000000 ) ) ;
#132 = DIRECTION ( 'NONE',  ( -0.0000000000000000000, -0.0000000000000000000, -1.000000000000000000 ) ) ;
#133 = AXIS2_PLACEMENT_3D ( 'NONE', #87, #26, #92 ) ;
#134 = CARTESIAN_POINT ( 'NONE',  ( 0.0000000000000000000, 0.0000000000000000000, 2.500000000000000000 ) ) ;
#135 = AXIS2_PLACEMENT_3D ( 'NONE', #203, #132, #205 ) ;
#136 = CARTESIAN_POINT ( 'NONE',  ( 0.0000000000000000000, 0.0000000000000000000, 0.0000000000000000000 ) ) ;
#137 = LINE ( 'NONE', #215, #320 ) ;
#138 = CIRCLE ( 'NONE', #252, 0.1724999999999995981 ) ;
#139 = LINE ( 'NONE', #234, #248 ) ;
#140 = DIRECTION ( 'NONE',  ( -0.0000000000000000000, -0.0000000000000000000, -1.000000000000000000 ) ) ;
#141 = ORIENTED_EDGE ( 'NONE', *, *, #274, .F. ) ;
#142 = EDGE_CURVE ( 'NONE', #164, #344, #139, .T. ) ;
#143 = CARTESIAN_POINT ( 'NONE',  ( 0.1874500000000001165, 0.0000000000000000000, 1.000000000000000000 ) ) ;
#144 = PRODUCT_CONTEXT ( 'NONE', #226, 'mechanical' ) ;
#145 = CIRCLE ( 'NONE', #35, 0.1875000000000000278 ) ;
#146 = EDGE_LOOP ( 'NONE', ( #170, #222, #313, #89 ) ) ;
#147 = DIRECTION ( 'NONE',  ( 0.0000000000000000000, 0.0000000000000000000, 1.000000000000000000 ) ) ;
#148 = ORIENTED_EDGE ( 'NONE', *, *, #51, .F. ) ;
#149 = PRESENTATION_STYLE_ASSIGNMENT (( #44 ) ) ;
#150 = LENGTH_MEASURE_WITH_UNIT ( LENGTH_MEASURE( 0.02539999999999999897 ), #120 );
#151 = VERTEX_POINT ( 'NONE', #265 ) ;
#152 =( GEOMETRIC_REPRESENTATION_CONTEXT ( 3 ) GLOBAL_UNCERTAINTY_ASSIGNED_CONTEXT ( ( #95 ) ) GLOBAL_UNIT_ASSIGNED_CONTEXT ( ( #14, #195, #272 ) ) REPRESENTATION_CONTEXT ( 'NONE', 'WORKASPACE' ) );
#153 = CARTESIAN_POINT ( 'NONE',  ( 0.1724999999999995981, 2.204364238465233357E-17, 2.500000000000000000 ) ) ;
#154 = DIRECTION ( 'NONE',  ( -1.000000000000000000, 0.0000000000000000000, 0.0000000000000000000 ) ) ;
#155 = DIRECTION ( 'NONE',  ( 1.000000000000000000, 0.0000000000000000000, 0.0000000000000000000 ) ) ;
#156 = DIMENSIONAL_EXPONENTS ( 1.000000000000000000, 0.0000000000000000000, 0.0000000000000000000, 0.0000000000000000000, 0.0000000000000000000, 0.0000000000000000000, 0.0000000000000000000 ) ;
#157 = CIRCLE ( 'NONE', #332, 0.1874500000000000333 ) ;
#158 = AXIS2_PLACEMENT_3D ( 'NONE', #318, #81, #154 ) ;
#159 = DIRECTION ( 'NONE',  ( -1.000000000000000000, 0.0000000000000000000, 0.0000000000000000000 ) ) ;
#160 = CARTESIAN_POINT ( 'NONE',  ( -0.1875000000000000278, 0.0000000000000000000, 2.500000000000000000 ) ) ;
#161 = ADVANCED_BREP_SHAPE_REPRESENTATION ( 'Micro_SPD-375-120', ( #27, #210 ), #152 ) ;
#162 = DIRECTION ( 'NONE',  ( -1.000000000000000000, 0.0000000000000000000, 0.0000000000000000000 ) ) ;
#163 = DIRECTION ( 'NONE',  ( 1.000000000000000000, 0.0000000000000000000, 0.0000000000000000000 ) ) ;
#164 = VERTEX_POINT ( 'NONE', #113 ) ;
#165 = DIRECTION ( 'NONE',  ( -0.8660254037844400399, 1.060575238724908640E-16, 0.4999999999999976685 ) ) ;
#166 = VECTOR ( 'NONE', #238, 39.37007874015748143 ) ;
#167 = DIRECTION ( 'NONE',  ( 0.0000000000000000000, 0.0000000000000000000, 1.000000000000000000 ) ) ;
#168 = VECTOR ( 'NONE', #291, 39.37007874015748854 ) ;
#169 = LINE ( 'NONE', #15, #277 ) ;
#170 = ORIENTED_EDGE ( 'NONE', *, *, #261, .F. ) ;
#171 = ORIENTED_EDGE ( 'NONE', *, *, #108, .F. ) ;
#172 =( GEOMETRIC_REPRESENTATION_CONTEXT ( 3 ) GLOBAL_UNCERTAINTY_ASSIGNED_CONTEXT ( ( #324 ) ) GLOBAL_UNIT_ASSIGNED_CONTEXT ( ( #193, #249, #116 ) ) REPRESENTATION_CONTEXT ( 'NONE', 'WORKASPACE' ) );
#173 = ORIENTED_EDGE ( 'NONE', *, *, #347, .T. ) ;
#174 = CARTESIAN_POINT ( 'NONE',  ( -0.1875000000000000278, 0.0000000000000000000, 1.000049999999999883 ) ) ;
#175 = EDGE_LOOP ( 'NONE', ( #188, #46, #173, #39 ) ) ;
#176 = VECTOR ( 'NONE', #305, 39.37007874015748143 ) ;
#177 = ORIENTED_EDGE ( 'NONE', *, *, #251, .F. ) ;
#178 = ADVANCED_FACE ( 'NONE', ( #211 ), #206, .T. ) ;
#179 = EDGE_CURVE ( 'NONE', #202, #67, #57, .T. ) ;
#180 = CARTESIAN_POINT ( 'NONE',  ( 0.0000000000000000000, 0.0000000000000000000, 0.0000000000000000000 ) ) ;
#181 = FACE_OUTER_BOUND ( 'NONE', #302, .T. ) ;
#182 = CARTESIAN_POINT ( 'NONE',  ( 0.1874500000000000333, 2.295600425001713927E-17, 0.09205850042228524988 ) ) ;
#183 = AXIS2_PLACEMENT_3D ( 'NONE', #185, #233, #77 ) ;
#184 = CARTESIAN_POINT ( 'NONE',  ( -0.1724999999999995981, 0.0000000000000000000, 2.500000000000000000 ) ) ;
#185 = CARTESIAN_POINT ( 'NONE',  ( 0.0000000000000000000, 0.0000000000000000000, 2.500000000000000000 ) ) ;
#186 = FACE_OUTER_BOUND ( 'NONE', #267, .T. ) ;
#187 = CARTESIAN_POINT ( 'NONE',  ( 0.0000000000000000000, 0.0000000000000000000, 2.500000000000000000 ) ) ;
#188 = ORIENTED_EDGE ( 'NONE', *, *, #123, .F. ) ;
#189 = DIRECTION ( 'NONE',  ( -1.000000000000000000, 0.0000000000000000000, 0.0000000000000000000 ) ) ;
#190 = ORIENTED_EDGE ( 'NONE', *, *, #304, .F. ) ;
#191 = ORIENTED_EDGE ( 'NONE', *, *, #119, .T. ) ;
#192 = AXIS2_PLACEMENT_3D ( 'NONE', #136, #5, #4 ) ;
#193 =( CONVERSION_BASED_UNIT ( 'INCH', #309 ) LENGTH_UNIT ( ) NAMED_UNIT ( #156 ) );
#194 = ORIENTED_EDGE ( 'NONE', *, *, #20, .T. ) ;
#195 =( NAMED_UNIT ( * ) PLANE_ANGLE_UNIT ( ) SI_UNIT ( $, .RADIAN. ) );
#196 = LINE ( 'NONE', #143, #176 ) ;
#197 = ORIENTED_EDGE ( 'NONE', *, *, #101, .T. ) ;
#198 =( GEOMETRIC_REPRESENTATION_CONTEXT ( 3 ) GLOBAL_UNCERTAINTY_ASSIGNED_CONTEXT ( ( #41 ) ) GLOBAL_UNIT_ASSIGNED_CONTEXT ( ( #16, #100, #78 ) ) REPRESENTATION_CONTEXT ( 'NONE', 'WORKASPACE' ) );
#199 = AXIS2_PLACEMENT_3D ( 'NONE', #28, #37, #10 ) ;
#200 = DIRECTION ( 'NONE',  ( -1.000000000000000000, 0.0000000000000000000, 0.0000000000000000000 ) ) ;
#201 = ORIENTED_EDGE ( 'NONE', *, *, #119, .F. ) ;
#202 = VERTEX_POINT ( 'NONE', #90 ) ;
#203 = CARTESIAN_POINT ( 'NONE',  ( 0.0000000000000000000, 0.0000000000000000000, 1.000000000000000000 ) ) ;
#204 = FACE_OUTER_BOUND ( 'NONE', #239, .T. ) ;
#205 = DIRECTION ( 'NONE',  ( -1.000000000000000000, 0.0000000000000000000, 0.0000000000000000000 ) ) ;
#206 = CYLINDRICAL_SURFACE ( 'NONE', #340, 0.1875000000000000278 ) ;
#207 = ADVANCED_FACE ( 'NONE', ( #186 ), #293, .T. ) ;
#208 = EDGE_CURVE ( 'NONE', #281, #151, #137, .T. ) ;
#209 = CARTESIAN_POINT ( 'NONE',  ( 0.0000000000000000000, 0.0000000000000000000, 0.09205850042228524988 ) ) ;
#210 = AXIS2_PLACEMENT_3D ( 'NONE', #279, #147, #246 ) ;
#211 = FACE_OUTER_BOUND ( 'NONE', #236, .T. ) ;
#212 = ORIENTED_EDGE ( 'NONE', *, *, #208, .F. ) ;
#213 = DIRECTION ( 'NONE',  ( 1.000000000000000000, 0.0000000000000000000, 0.0000000000000000000 ) ) ;
#214 = ADVANCED_FACE ( 'NONE', ( #295 ), #263, .T. ) ;
#215 = CARTESIAN_POINT ( 'NONE',  ( -0.02800000000000000405, 3.429011037612589091E-18, 0.0000000000000000000 ) ) ;
#216 = AXIS2_PLACEMENT_3D ( 'NONE', #266, #109, #299 ) ;
#217 = SURFACE_SIDE_STYLE ('',( #45 ) ) ;
#218 = PRODUCT ( 'Micro_SPD-375-120', 'Micro_SPD-375-120', '', ( #144 ) ) ;
#219 = LINE ( 'NONE', #72, #106 ) ;
#220 = ORIENTED_EDGE ( 'NONE', *, *, #121, .T. ) ;
#221 = APPLICATION_PROTOCOL_DEFINITION ( 'draft international standard', 'automotive_design', 1998, #278 ) ;
#222 = ORIENTED_EDGE ( 'NONE', *, *, #208, .T. ) ;
#223 = STYLED_ITEM ( 'NONE', ( #149 ), #161 ) ;
#224 = DIRECTION ( 'NONE',  ( -0.0000000000000000000, -0.0000000000000000000, -1.000000000000000000 ) ) ;
#225 = CONICAL_SURFACE ( 'NONE', #18, 0.1874500000000001165, 0.7853981633974491672 ) ;
#226 = APPLICATION_CONTEXT ( 'automotive_design' ) ;
#227 = ORIENTED_EDGE ( 'NONE', *, *, #261, .T. ) ;
#228 = LINE ( 'NONE', #346, #316 ) ;
#229 = COLOUR_RGB ( '',0.7921568627450980005, 0.8196078431372548767, 0.9333333333333333481 ) ;
#230 = LINE ( 'NONE', #104, #168 ) ;
#231 = CARTESIAN_POINT ( 'NONE',  ( 0.0000000000000000000, 0.0000000000000000000, 2.484999999999999432 ) ) ;
#232 = SHAPE_DEFINITION_REPRESENTATION ( #255, #161 ) ;
#233 = DIRECTION ( 'NONE',  ( 0.0000000000000000000, 0.0000000000000000000, 1.000000000000000000 ) ) ;
#234 = CARTESIAN_POINT ( 'NONE',  ( -0.1874500000000001165, 2.295600425001714852E-17, 1.000000000000000000 ) ) ;
#235 = ADVANCED_FACE ( 'NONE', ( #56 ), #65, .F. ) ;
#236 = EDGE_LOOP ( 'NONE', ( #112, #296, #338, #141 ) ) ;
#237 = DIRECTION ( 'NONE',  ( -0.0000000000000000000, -0.0000000000000000000, -1.000000000000000000 ) ) ;
#238 = DIRECTION ( 'NONE',  ( -0.0000000000000000000, -0.0000000000000000000, -1.000000000000000000 ) ) ;
#239 = EDGE_LOOP ( 'NONE', ( #201, #148, #335, #96 ) ) ;
#240 = CARTESIAN_POINT ( 'NONE',  ( 0.0000000000000000000, 0.0000000000000000000, 2.500000000000000000 ) ) ;
#241 = DIRECTION ( 'NONE',  ( -1.000000000000000000, 0.0000000000000000000, 0.0000000000000000000 ) ) ;
#242 = FILL_AREA_STYLE_COLOUR ( '', #229 ) ;
#243 = ADVANCED_FACE ( 'NONE', ( #110 ), #329, .T. ) ;
#244 = EDGE_LOOP ( 'NONE', ( #86, #75, #114, #275 ) ) ;
#245 = AXIS2_PLACEMENT_3D ( 'NONE', #48, #79, #49 ) ;
#246 = DIRECTION ( 'NONE',  ( 1.000000000000000000, 0.0000000000000000000, 0.0000000000000000000 ) ) ;
#247 = CARTESIAN_POINT ( 'NONE',  ( 0.1875000000000000278, 2.296212748401287726E-17, 1.000049999999999883 ) ) ;
#248 = VECTOR ( 'NONE', #62, 39.37007874015748143 ) ;
#249 =( NAMED_UNIT ( * ) PLANE_ANGLE_UNIT ( ) SI_UNIT ( $, .RADIAN. ) );
#250 = EDGE_LOOP ( 'NONE', ( #32, #117, #74, #38 ) ) ;
#251 = EDGE_CURVE ( 'NONE', #58, #300, #138, .T. ) ;
#252 = AXIS2_PLACEMENT_3D ( 'NONE', #240, #264, #163 ) ;
#253 = ORIENTED_EDGE ( 'NONE', *, *, #257, .F. ) ;
#254 = AXIS2_PLACEMENT_3D ( 'NONE', #315, #287, #348 ) ;
#255 = PRODUCT_DEFINITION_SHAPE ( 'NONE', 'NONE',  #30 ) ;
#256 = FACE_OUTER_BOUND ( 'NONE', #146, .T. ) ;
#257 = EDGE_CURVE ( 'NONE', #42, #164, #339, .T. ) ;
#258 = CARTESIAN_POINT ( 'NONE',  ( 0.0000000000000000000, 0.0000000000000000000, 0.0000000000000000000 ) ) ;
#259 = AXIS2_PLACEMENT_3D ( 'NONE', #319, #127, #155 ) ;
#260 = CYLINDRICAL_SURFACE ( 'NONE', #290, 0.1874500000000000610 ) ;
#261 = EDGE_CURVE ( 'NONE', #281, #93, #7, .T. ) ;
#262 = CARTESIAN_POINT ( 'NONE',  ( -0.1724999999999995981, 0.0000000000000000000, 2.500000000000000000 ) ) ;
#263 = CONICAL_SURFACE ( 'NONE', #216, 0.1874500000000001165, 0.7853981633974491672 ) ;
#264 = DIRECTION ( 'NONE',  ( 0.0000000000000000000, 0.0000000000000000000, 1.000000000000000000 ) ) ;
#265 = CARTESIAN_POINT ( 'NONE',  ( -0.1874500000000000333, 0.0000000000000000000, 0.09205850042228524988 ) ) ;
#266 = CARTESIAN_POINT ( 'NONE',  ( 0.0000000000000000000, 0.0000000000000000000, 1.000000000000000000 ) ) ;
#267 = EDGE_LOOP ( 'NONE', ( #294, #283 ) ) ;
#268 = CARTESIAN_POINT ( 'NONE',  ( 0.1874500000000000610, 2.295600425001714235E-17, 0.0000000000000000000 ) ) ;
#269 = CONICAL_SURFACE ( 'NONE', #259, 0.02800000000000000405, 1.047197551196600518 ) ;
#270 = ORIENTED_EDGE ( 'NONE', *, *, #274, .T. ) ;
#271 = AXIS2_PLACEMENT_3D ( 'NONE', #52, #53, #159 ) ;
#272 =( NAMED_UNIT ( * ) SI_UNIT ( $, .STERADIAN. ) SOLID_ANGLE_UNIT ( ) );
#273 = LENGTH_MEASURE_WITH_UNIT ( LENGTH_MEASURE( 0.02539999999999999897 ), #341 );
#274 = EDGE_CURVE ( 'NONE', #202, #344, #11, .T. ) ;
#275 = ORIENTED_EDGE ( 'NONE', *, *, #347, .F. ) ;
#276 = ADVANCED_FACE ( 'NONE', ( #330 ), #3, .T. ) ;
#277 = VECTOR ( 'NONE', #122, 39.37007874015748143 ) ;
#278 = APPLICATION_CONTEXT ( 'automotive_design' ) ;
#279 = CARTESIAN_POINT ( 'NONE',  ( 0.0000000000000000000, 0.0000000000000000000, 0.0000000000000000000 ) ) ;
#280 = ORIENTED_EDGE ( 'NONE', *, *, #303, .T. ) ;
#281 = VERTEX_POINT ( 'NONE', #115 ) ;
#282 = ORIENTED_EDGE ( 'NONE', *, *, #142, .F. ) ;
#283 = ORIENTED_EDGE ( 'NONE', *, *, #251, .T. ) ;
#284 = VECTOR ( 'NONE', #128, 39.37007874015748854 ) ;
#285 = DIRECTION ( 'NONE',  ( 1.000000000000000000, 0.0000000000000000000, 0.0000000000000000000 ) ) ;
#286 = EDGE_CURVE ( 'NONE', #151, #102, #314, .T. ) ;
#287 = DIRECTION ( 'NONE',  ( 0.0000000000000000000, 0.0000000000000000000, -1.000000000000000000 ) ) ;
#288 = MECHANICAL_DESIGN_GEOMETRIC_PRESENTATION_REPRESENTATION (  '', ( #223 ), #172 ) ;
#289 = DIRECTION ( 'NONE',  ( 1.000000000000000000, 0.0000000000000000000, 0.0000000000000000000 ) ) ;
#290 = AXIS2_PLACEMENT_3D ( 'NONE', #180, #317, #107 ) ;
#291 = DIRECTION ( 'NONE',  ( 0.7071067811865385799, 8.659560562354823157E-17, -0.7071067811865563435 ) ) ;
#292 = DIRECTION ( 'NONE',  ( 1.000000000000000000, 0.0000000000000000000, -0.0000000000000000000 ) ) ;
#293 = PLANE ( 'NONE',  #308 ) ;
#294 = ORIENTED_EDGE ( 'NONE', *, *, #51, .T. ) ;
#295 = FACE_OUTER_BOUND ( 'NONE', #60, .T. ) ;
#296 = ORIENTED_EDGE ( 'NONE', *, *, #304, .T. ) ;
#297 = DIRECTION ( 'NONE',  ( 0.0000000000000000000, 0.0000000000000000000, -1.000000000000000000 ) ) ;
#298 = EDGE_LOOP ( 'NONE', ( #220, #227 ) ) ;
#299 = DIRECTION ( 'NONE',  ( 1.000000000000000000, 0.0000000000000000000, 0.0000000000000000000 ) ) ;
#300 = VERTEX_POINT ( 'NONE', #262 ) ;
#301 = AXIS2_PLACEMENT_3D ( 'NONE', #312, #224, #125 ) ;
#302 = EDGE_LOOP ( 'NONE', ( #212, #91, #197, #280 ) ) ;
#303 = EDGE_CURVE ( 'NONE', #102, #151, #157, .T. ) ;
#304 = EDGE_CURVE ( 'NONE', #67, #19, #169, .T. ) ;
#305 = DIRECTION ( 'NONE',  ( 0.7071067811865481278, 0.0000000000000000000, 0.7071067811865469066 ) ) ;
#306 = PRESENTATION_STYLE_ASSIGNMENT (( #43 ) ) ;
#307 = AXIS2_PLACEMENT_3D ( 'NONE', #325, #140, #241 ) ;
#308 = AXIS2_PLACEMENT_3D ( 'NONE', #134, #31, #292 ) ;
#309 = LENGTH_MEASURE_WITH_UNIT ( LENGTH_MEASURE( 0.02539999999999999897 ), #98 );
#310 = CONICAL_SURFACE ( 'NONE', #158, 0.1724999999999995981, 0.7853981633974357335 ) ;
#311 = ORIENTED_EDGE ( 'NONE', *, *, #118, .T. ) ;
#312 = CARTESIAN_POINT ( 'NONE',  ( 0.0000000000000000000, 0.0000000000000000000, 1.000049999999999883 ) ) ;
#313 = ORIENTED_EDGE ( 'NONE', *, *, #286, .T. ) ;
#314 = CIRCLE ( 'NONE', #133, 0.1874500000000000333 ) ;
#315 = CARTESIAN_POINT ( 'NONE',  ( 0.0000000000000000000, 0.0000000000000000000, 2.500000000000000000 ) ) ;
#316 = VECTOR ( 'NONE', #22, 39.37007874015748143 ) ;
#317 = DIRECTION ( 'NONE',  ( -0.0000000000000000000, -0.0000000000000000000, -1.000000000000000000 ) ) ;
#318 = CARTESIAN_POINT ( 'NONE',  ( 0.0000000000000000000, 0.0000000000000000000, 2.500000000000000000 ) ) ;
#319 = CARTESIAN_POINT ( 'NONE',  ( 0.0000000000000000000, 0.0000000000000000000, 0.0000000000000000000 ) ) ;
#320 = VECTOR ( 'NONE', #165, 39.37007874015748143 ) ;
#321 = DIMENSIONAL_EXPONENTS ( 1.000000000000000000, 0.0000000000000000000, 0.0000000000000000000, 0.0000000000000000000, 0.0000000000000000000, 0.0000000000000000000, 0.0000000000000000000 ) ;
#322 = FACE_OUTER_BOUND ( 'NONE', #328, .T. ) ;
#323 = CARTESIAN_POINT ( 'NONE',  ( 0.0000000000000000000, 0.0000000000000000000, 2.484999999999999432 ) ) ;
#324 = UNCERTAINTY_MEASURE_WITH_UNIT (LENGTH_MEASURE( 1.000000000000000082E-05 ), #193, 'distance_accuracy_value', 'NONE');
#325 = CARTESIAN_POINT ( 'NONE',  ( 0.0000000000000000000, 0.0000000000000000000, 0.0000000000000000000 ) ) ;
#326 = COLOUR_RGB ( '',0.7921568627450980005, 0.8196078431372548767, 0.9333333333333333481 ) ;
#327 = CARTESIAN_POINT ( 'NONE',  ( 0.0000000000000000000, 0.0000000000000000000, 2.500000000000000000 ) ) ;
#328 = EDGE_LOOP ( 'NONE', ( #177, #191, #342, #171 ) ) ;
#329 = CYLINDRICAL_SURFACE ( 'NONE', #80, 0.1875000000000000278 ) ;
#330 = FACE_OUTER_BOUND ( 'NONE', #244, .T. ) ;
#331 = CLOSED_SHELL ( 'NONE', ( #69, #276, #63, #47, #178, #243, #207, #64, #214, #83, #84, #235 ) ) ;
#332 = AXIS2_PLACEMENT_3D ( 'NONE', #209, #111, #200 ) ;
#333 = EDGE_CURVE ( 'NONE', #344, #19, #76, .T. ) ;
#334 = FILL_AREA_STYLE ('',( #12 ) ) ;
#335 = ORIENTED_EDGE ( 'NONE', *, *, #108, .T. ) ;
#336 = CARTESIAN_POINT ( 'NONE',  ( 0.1874500000000001165, 0.0000000000000000000, 1.000000000000000000 ) ) ;
#337 = DIRECTION ( 'NONE',  ( -0.0000000000000000000, -0.0000000000000000000, -1.000000000000000000 ) ) ;
#338 = ORIENTED_EDGE ( 'NONE', *, *, #333, .F. ) ;
#339 = CIRCLE ( 'NONE', #199, 0.1874500000000001165 ) ;
#340 = AXIS2_PLACEMENT_3D ( 'NONE', #187, #237, #189 ) ;
#341 =( LENGTH_UNIT ( ) NAMED_UNIT ( * ) SI_UNIT ( $, .METRE. ) );
#342 = ORIENTED_EDGE ( 'NONE', *, *, #179, .F. ) ;
#343 = CONICAL_SURFACE ( 'NONE', #94, 0.02800000000000000405, 1.047197551196600518 ) ;
#344 = VERTEX_POINT ( 'NONE', #174 ) ;
#345 = AXIS2_PLACEMENT_3D ( 'NONE', #323, #297, #213 ) ;
#346 = CARTESIAN_POINT ( 'NONE',  ( 0.02800000000000000405, 0.0000000000000000000, 0.0000000000000000000 ) ) ;
#347 = EDGE_CURVE ( 'NONE', #164, #151, #219, .T. ) ;
#348 = DIRECTION ( 'NONE',  ( -1.000000000000000000, 0.0000000000000000000, 0.0000000000000000000 ) ) ;
#349 = DIRECTION ( 'NONE',  ( 0.0000000000000000000, 0.0000000000000000000, -1.000000000000000000 ) ) ;
ENDSEC;
END-ISO-10303-21;
