ISO-10303-21;
HEADER;
FILE_DESCRIPTION (( 'STEP AP214' ),
    '1' );
FILE_NAME ('Micro_AEMM-050-3X.STEP',
    '2022-03-15T14:26:24',
    ( '' ),
    ( '' ),
    'SwSTEP 2.0',
    'SolidWorks 2022',
    '' );
FILE_SCHEMA (( 'AUTOMOTIVE_DESIGN' ));
ENDSEC;

DATA;
#1 = AXIS2_PLACEMENT_3D ( 'NONE', #58, #239, #5 ) ;
#2 = EDGE_CURVE ( 'NONE', #233, #103, #137, .T. ) ;
#3 = CARTESIAN_POINT ( 'NONE',  ( 0.000000000000000000, 0.000000000000000000, 2.244094000000000033 ) ) ;
#4 = FILL_AREA_STYLE_COLOUR ( '', #8 ) ;
#5 = DIRECTION ( 'NONE',  ( 1.000000000000000000, 0.000000000000000000, 0.000000000000000000 ) ) ;
#6 = ORIENTED_EDGE ( 'NONE', *, *, #197, .T. ) ;
#7 = CIRCLE ( 'NONE', #183, 0.09832657499999998552 ) ;
#8 = COLOUR_RGB ( '',0.7921568627450980005, 0.8196078431372548767, 0.9333333333333333481 ) ;
#9 = CARTESIAN_POINT ( 'NONE',  ( 0.000000000000000000, 0.000000000000000000, 2.244094000000000033 ) ) ;
#10 = CARTESIAN_POINT ( 'NONE',  ( -0.09832657499999990225, 1.325291793960830375E-17, 0.6299209999999999532 ) ) ;
#11 = PRODUCT_DEFINITION ( 'UNKNOWN', '', #59, #79 ) ;
#12 = CARTESIAN_POINT ( 'NONE',  ( -0.1031100000000002570, 0.000000000000000000, 2.244094000000000033 ) ) ;
#13 = CARTESIAN_POINT ( 'NONE',  ( -0.1181100000000000066, 0.000000000000000000, 2.244094000000000033 ) ) ;
#14 = ORIENTED_EDGE ( 'NONE', *, *, #25, .T. ) ;
#15 = CIRCLE ( 'NONE', #139, 0.1181100000000000066 ) ;
#16 = ORIENTED_EDGE ( 'NONE', *, *, #115, .F. ) ;
#17 = PRODUCT ( 'Micro_AEMM-050-3X', 'Micro_AEMM-050-3X', '', ( #167 ) ) ;
#18 = VERTEX_POINT ( 'NONE', #10 ) ;
#19 = PRESENTATION_STYLE_ASSIGNMENT (( #246 ) ) ;
#20 = FACE_OUTER_BOUND ( 'NONE', #286, .T. ) ;
#21 = VECTOR ( 'NONE', #146, 39.37007874015748143 ) ;
#22 = AXIS2_PLACEMENT_3D ( 'NONE', #77, #238, #51 ) ;
#23 = ADVANCED_FACE ( 'NONE', ( #33 ), #214, .T. ) ;
#24 = PRODUCT_DEFINITION_SHAPE ( 'NONE', 'NONE',  #11 ) ;
#25 = EDGE_CURVE ( 'NONE', #18, #66, #7, .T. ) ;
#26 = EDGE_CURVE ( 'NONE', #18, #129, #174, .T. ) ;
#27 = VECTOR ( 'NONE', #30, 39.37007874015748854 ) ;
#28 = DIRECTION ( 'NONE',  ( -1.224646799147353207E-16, -0.000000000000000000, -1.000000000000000000 ) ) ;
#29 = CARTESIAN_POINT ( 'NONE',  ( 0.000000000000000000, 0.000000000000000000, 0.000000000000000000 ) ) ;
#30 = DIRECTION ( 'NONE',  ( -0.7071067811865358044, 0.000000000000000000, -0.7071067811865590080 ) ) ;
#31 = CARTESIAN_POINT ( 'NONE',  ( 0.09832657500000008266, 0.000000000000000000, 0.6299209999999999532 ) ) ;
#32 = LINE ( 'NONE', #140, #27 ) ;
#33 = FACE_OUTER_BOUND ( 'NONE', #280, .T. ) ;
#34 = ORIENTED_EDGE ( 'NONE', *, *, #2, .T. ) ;
#35 = AXIS2_PLACEMENT_3D ( 'NONE', #178, #262, #232 ) ;
#36 = CIRCLE ( 'NONE', #22, 0.09832657499999998552 ) ;
#37 = CARTESIAN_POINT ( 'NONE',  ( 0.09832657499999998552, 1.204153253448721512E-17, -1.204153253448721512E-17 ) ) ;
#38 = ADVANCED_FACE ( 'NONE', ( #285 ), #126, .F. ) ;
#39 = ORIENTED_EDGE ( 'NONE', *, *, #255, .F. ) ;
#40 = LINE ( 'NONE', #13, #293 ) ;
#41 = ORIENTED_EDGE ( 'NONE', *, *, #63, .F. ) ;
#42 = DIRECTION ( 'NONE',  ( -1.000000000000000000, 0.000000000000000000, 1.224646799147353207E-16 ) ) ;
#43 = ORIENTED_EDGE ( 'NONE', *, *, #204, .T. ) ;
#44 = DIRECTION ( 'NONE',  ( 1.000000000000000000, 0.000000000000000000, 0.000000000000000000 ) ) ;
#45 = AXIS2_PLACEMENT_3D ( 'NONE', #110, #114, #242 ) ;
#46 = ADVANCED_FACE ( 'NONE', ( #218 ), #264, .T. ) ;
#47 = APPLICATION_CONTEXT ( 'automotive_design' ) ;
#48 =( NAMED_UNIT ( * ) PLANE_ANGLE_UNIT ( ) SI_UNIT ( $, .RADIAN. ) );
#49 = AXIS2_PLACEMENT_3D ( 'NONE', #9, #215, #78 ) ;
#50 = CIRCLE ( 'NONE', #165, 0.1181100000000000066 ) ;
#51 = DIRECTION ( 'NONE',  ( -1.000000000000000000, 0.000000000000000000, 0.000000000000000000 ) ) ;
#52 = CONICAL_SURFACE ( 'NONE', #189, 0.09832657499999998552, 0.1745329251994338637 ) ;
#53 = CARTESIAN_POINT ( 'NONE',  ( 0.000000000000000000, 0.000000000000000000, 2.229093999999999465 ) ) ;
#54 = SURFACE_SIDE_STYLE ('',( #256 ) ) ;
#55 = DIRECTION ( 'NONE',  ( -1.000000000000000000, 0.000000000000000000, 0.000000000000000000 ) ) ;
#56 = ORIENTED_EDGE ( 'NONE', *, *, #145, .T. ) ;
#57 = LENGTH_MEASURE_WITH_UNIT ( LENGTH_MEASURE( 0.02539999999999999897 ), #148 );
#58 = CARTESIAN_POINT ( 'NONE',  ( 7.714307363656999460E-17, 0.000000000000000000, 0.6299209999999999532 ) ) ;
#59 = PRODUCT_DEFINITION_FORMATION_WITH_SPECIFIED_SOURCE ( 'ANY', '', #17, .NOT_KNOWN. ) ;
#60 = CYLINDRICAL_SURFACE ( 'NONE', #278, 0.09832657499999998552 ) ;
#61 = ORIENTED_EDGE ( 'NONE', *, *, #249, .T. ) ;
#62 = FACE_OUTER_BOUND ( 'NONE', #111, .T. ) ;
#63 = EDGE_CURVE ( 'NONE', #66, #89, #198, .T. ) ;
#64 = VERTEX_POINT ( 'NONE', #82 ) ;
#65 = FILL_AREA_STYLE_COLOUR ( '', #161 ) ;
#66 = VERTEX_POINT ( 'NONE', #31 ) ;
#67 = DIRECTION ( 'NONE',  ( 0.000000000000000000, 0.000000000000000000, 1.000000000000000000 ) ) ;
#68 = AXIS2_PLACEMENT_3D ( 'NONE', #283, #151, #104 ) ;
#69 = AXIS2_PLACEMENT_3D ( 'NONE', #272, #209, #291 ) ;
#70 = APPLICATION_PROTOCOL_DEFINITION ( 'draft international standard', 'automotive_design', 1998, #47 ) ;
#71 =( NAMED_UNIT ( * ) SI_UNIT ( $, .STERADIAN. ) SOLID_ANGLE_UNIT ( ) );
#72 =( CONVERSION_BASED_UNIT ( 'INCH', #93 ) LENGTH_UNIT ( ) NAMED_UNIT ( #247 ) );
#73 = CIRCLE ( 'NONE', #185, 0.09832657499999998552 ) ;
#74 = CARTESIAN_POINT ( 'NONE',  ( 9.088328968579682115E-17, 0.000000000000000000, 0.7421183785322699178 ) ) ;
#75 = DIRECTION ( 'NONE',  ( 1.224646799147353207E-16, 0.000000000000000000, 1.000000000000000000 ) ) ;
#76 = PRESENTATION_LAYER_ASSIGNMENT (  '', '', ( #274 ) ) ;
#77 = CARTESIAN_POINT ( 'NONE',  ( 7.714307363656999460E-17, 0.000000000000000000, 0.6299209999999999532 ) ) ;
#78 = DIRECTION ( 'NONE',  ( -1.000000000000000000, 0.000000000000000000, 0.000000000000000000 ) ) ;
#79 = PRODUCT_DEFINITION_CONTEXT ( 'detailed design', #47, 'design' ) ;
#80 = PLANE ( 'NONE',  #227 ) ;
#81 = VERTEX_POINT ( 'NONE', #85 ) ;
#82 = CARTESIAN_POINT ( 'NONE',  ( -0.1181100000000000066, 0.000000000000000000, 2.229093999999999465 ) ) ;
#83 = ORIENTED_EDGE ( 'NONE', *, *, #115, .T. ) ;
#84 = ADVANCED_FACE ( 'NONE', ( #257 ), #80, .T. ) ;
#85 = CARTESIAN_POINT ( 'NONE',  ( 0.1181100000000000899, 1.446430334472940009E-17, 0.7421183785322699178 ) ) ;
#86 = ORIENTED_EDGE ( 'NONE', *, *, #212, .T. ) ;
#87 = CARTESIAN_POINT ( 'NONE',  ( 0.09832657500000008266, 0.000000000000000000, 0.6299209999999999532 ) ) ;
#88 = ORIENTED_EDGE ( 'NONE', *, *, #26, .T. ) ;
#89 = VERTEX_POINT ( 'NONE', #128 ) ;
#90 = CARTESIAN_POINT ( 'NONE',  ( 9.088328968579682115E-17, 0.000000000000000000, 0.7421183785322699178 ) ) ;
#91 = VECTOR ( 'NONE', #266, 39.37007874015748143 ) ;
#92 = UNCERTAINTY_MEASURE_WITH_UNIT (LENGTH_MEASURE( 1.000000000000000082E-05 ), #72, 'distance_accuracy_value', 'NONE');
#93 = LENGTH_MEASURE_WITH_UNIT ( LENGTH_MEASURE( 0.02539999999999999897 ), #273 );
#94 = ADVANCED_FACE ( 'NONE', ( #62 ), #60, .T. ) ;
#95 = CIRCLE ( 'NONE', #253, 0.1181100000000000066 ) ;
#96 = SHAPE_DEFINITION_REPRESENTATION ( #24, #135 ) ;
#97 = CARTESIAN_POINT ( 'NONE',  ( -0.1181099999999999234, 0.000000000000000000, 0.7421183785322699178 ) ) ;
#98 = FILL_AREA_STYLE ('',( #4 ) ) ;
#99 = CARTESIAN_POINT ( 'NONE',  ( -0.09832657499999990225, 1.204153253448721512E-17, 0.6299209999999999532 ) ) ;
#100 = ORIENTED_EDGE ( 'NONE', *, *, #252, .F. ) ;
#101 = CIRCLE ( 'NONE', #45, 0.09832657499999998552 ) ;
#102 = CARTESIAN_POINT ( 'NONE',  ( 0.000000000000000000, 0.000000000000000000, 2.244094000000000033 ) ) ;
#103 = VERTEX_POINT ( 'NONE', #254 ) ;
#104 = DIRECTION ( 'NONE',  ( -1.000000000000000000, 0.000000000000000000, 1.224646799147353207E-16 ) ) ;
#105 = ADVANCED_FACE ( 'NONE', ( #195 ), #109, .T. ) ;
#106 = LINE ( 'NONE', #119, #191 ) ;
#107 = FACE_OUTER_BOUND ( 'NONE', #267, .T. ) ;
#108 = EDGE_LOOP ( 'NONE', ( #34, #152 ) ) ;
#109 = CONICAL_SURFACE ( 'NONE', #1, 0.09832657499999998552, 0.1745329251994338637 ) ;
#110 = CARTESIAN_POINT ( 'NONE',  ( 1.474662427518848307E-33, 0.000000000000000000, 1.204153253448721512E-17 ) ) ;
#111 = EDGE_LOOP ( 'NONE', ( #41, #150, #6, #237 ) ) ;
#112 = DIRECTION ( 'NONE',  ( 1.000000000000000000, 0.000000000000000000, 0.000000000000000000 ) ) ;
#113 = ORIENTED_EDGE ( 'NONE', *, *, #164, .F. ) ;
#114 = DIRECTION ( 'NONE',  ( -1.224646799147353207E-16, -0.000000000000000000, -1.000000000000000000 ) ) ;
#115 = EDGE_CURVE ( 'NONE', #64, #129, #40, .T. ) ;
#116 = DIRECTION ( 'NONE',  ( -0.000000000000000000, -0.000000000000000000, -1.000000000000000000 ) ) ;
#117 = AXIS2_PLACEMENT_3D ( 'NONE', #289, #268, #251 ) ;
#118 = ADVANCED_FACE ( 'NONE', ( #107 ), #201, .T. ) ;
#119 = CARTESIAN_POINT ( 'NONE',  ( 0.1031100000000002570, 1.262733314600838667E-17, 2.244094000000000033 ) ) ;
#120 =( NAMED_UNIT ( * ) SI_UNIT ( $, .STERADIAN. ) SOLID_ANGLE_UNIT ( ) );
#121 = DIRECTION ( 'NONE',  ( 1.000000000000000000, 0.000000000000000000, 0.000000000000000000 ) ) ;
#122 = DIRECTION ( 'NONE',  ( 0.000000000000000000, 0.000000000000000000, 1.000000000000000000 ) ) ;
#123 = AXIS2_PLACEMENT_3D ( 'NONE', #29, #298, #228 ) ;
#124 = MECHANICAL_DESIGN_GEOMETRIC_PRESENTATION_REPRESENTATION (  '', ( #147 ), #250 ) ;
#125 =( NAMED_UNIT ( * ) PLANE_ANGLE_UNIT ( ) SI_UNIT ( $, .RADIAN. ) );
#126 = PLANE ( 'NONE',  #35 ) ;
#127 = EDGE_LOOP ( 'NONE', ( #258, #39, #43, #243 ) ) ;
#128 = CARTESIAN_POINT ( 'NONE',  ( 0.09832657499999998552, 1.204153253448721512E-17, 0.000000000000000000 ) ) ;
#129 = VERTEX_POINT ( 'NONE', #97 ) ;
#130 = ADVANCED_FACE ( 'NONE', ( #193 ), #52, .T. ) ;
#131 = LINE ( 'NONE', #158, #236 ) ;
#132 = AXIS2_PLACEMENT_3D ( 'NONE', #182, #67, #44 ) ;
#133 = SURFACE_SIDE_STYLE ('',( #221 ) ) ;
#134 = ORIENTED_EDGE ( 'NONE', *, *, #261, .T. ) ;
#135 = ADVANCED_BREP_SHAPE_REPRESENTATION ( 'Micro_AEMM-050-3X', ( #155, #123 ), #297 ) ;
#136 = FILL_AREA_STYLE ('',( #65 ) ) ;
#137 = CIRCLE ( 'NONE', #184, 0.1031100000000002570 ) ;
#138 = CONICAL_SURFACE ( 'NONE', #117, 0.1031100000000002570, 0.7853981633974318477 ) ;
#139 = AXIS2_PLACEMENT_3D ( 'NONE', #90, #271, #187 ) ;
#140 = CARTESIAN_POINT ( 'NONE',  ( -0.1031100000000002570, 0.000000000000000000, 2.244094000000000033 ) ) ;
#141 = DIRECTION ( 'NONE',  ( 0.000000000000000000, 0.000000000000000000, -1.000000000000000000 ) ) ;
#142 = SURFACE_STYLE_USAGE ( .BOTH. , #54 ) ;
#143 = DIRECTION ( 'NONE',  ( 1.000000000000000000, 0.000000000000000000, 0.000000000000000000 ) ) ;
#144 = ORIENTED_EDGE ( 'NONE', *, *, #192, .F. ) ;
#145 = EDGE_CURVE ( 'NONE', #64, #175, #95, .T. ) ;
#146 = DIRECTION ( 'NONE',  ( -1.224646799147353207E-16, -0.000000000000000000, -1.000000000000000000 ) ) ;
#147 = STYLED_ITEM ( 'NONE', ( #231 ), #135 ) ;
#148 =( LENGTH_UNIT ( ) NAMED_UNIT ( * ) SI_UNIT ( $, .METRE. ) );
#149 = DIRECTION ( 'NONE',  ( -1.224646799147353207E-16, -0.000000000000000000, -1.000000000000000000 ) ) ;
#150 = ORIENTED_EDGE ( 'NONE', *, *, #255, .T. ) ;
#151 = DIRECTION ( 'NONE',  ( -1.224646799147353207E-16, -0.000000000000000000, -1.000000000000000000 ) ) ;
#152 = ORIENTED_EDGE ( 'NONE', *, *, #164, .T. ) ;
#153 =( NAMED_UNIT ( * ) PLANE_ANGLE_UNIT ( ) SI_UNIT ( $, .RADIAN. ) );
#154 = EDGE_LOOP ( 'NONE', ( #14, #196, #181, #282 ) ) ;
#155 = MANIFOLD_SOLID_BREP ( 'Cut-Revolve1', #269 ) ;
#156 = CONICAL_SURFACE ( 'NONE', #69, 0.1031100000000002570, 0.7853981633974318477 ) ;
#157 = LENGTH_MEASURE_WITH_UNIT ( LENGTH_MEASURE( 0.02539999999999999897 ), #295 );
#158 = CARTESIAN_POINT ( 'NONE',  ( -0.09832657499999998552, 0.000000000000000000, 1.204153253448721512E-17 ) ) ;
#159 = EDGE_CURVE ( 'NONE', #89, #284, #101, .T. ) ;
#160 = CARTESIAN_POINT ( 'NONE',  ( 0.1181100000000000066, 1.446430334472939084E-17, 2.229093999999999465 ) ) ;
#161 = COLOUR_RGB ( '',0.7921568627450980005, 0.8196078431372548767, 0.9333333333333333481 ) ;
#162 =( NAMED_UNIT ( * ) SI_UNIT ( $, .STERADIAN. ) SOLID_ANGLE_UNIT ( ) );
#163 = DIMENSIONAL_EXPONENTS ( 1.000000000000000000, 0.000000000000000000, 0.000000000000000000, 0.000000000000000000, 0.000000000000000000, 0.000000000000000000, 0.000000000000000000 ) ;
#164 = EDGE_CURVE ( 'NONE', #103, #233, #244, .T. ) ;
#165 = AXIS2_PLACEMENT_3D ( 'NONE', #74, #229, #259 ) ;
#166 = APPLICATION_PROTOCOL_DEFINITION ( 'draft international standard', 'automotive_design', 1998, #200 ) ;
#167 = PRODUCT_CONTEXT ( 'NONE', #200, 'mechanical' ) ;
#168 = ADVANCED_FACE ( 'NONE', ( #20 ), #156, .T. ) ;
#169 = DIRECTION ( 'NONE',  ( 1.000000000000000000, 0.000000000000000000, 0.000000000000000000 ) ) ;
#170 =( CONVERSION_BASED_UNIT ( 'INCH', #57 ) LENGTH_UNIT ( ) NAMED_UNIT ( #163 ) );
#171 = DIRECTION ( 'NONE',  ( -1.000000000000000000, 0.000000000000000000, 0.000000000000000000 ) ) ;
#172 = EDGE_LOOP ( 'NONE', ( #61, #202 ) ) ;
#173 = DIRECTION ( 'NONE',  ( -1.000000000000000000, 0.000000000000000000, 1.224646799147353207E-16 ) ) ;
#174 = LINE ( 'NONE', #99, #292 ) ;
#175 = VERTEX_POINT ( 'NONE', #160 ) ;
#176 = CARTESIAN_POINT ( 'NONE',  ( 1.474662427518848307E-33, 0.000000000000000000, 1.204153253448721512E-17 ) ) ;
#177 = DIRECTION ( 'NONE',  ( 1.000000000000000000, 0.000000000000000000, -0.000000000000000000 ) ) ;
#178 = CARTESIAN_POINT ( 'NONE',  ( 0.000000000000000000, 0.000000000000000000, 0.000000000000000000 ) ) ;
#179 = EDGE_LOOP ( 'NONE', ( #113, #290, #199, #224 ) ) ;
#180 = CARTESIAN_POINT ( 'NONE',  ( 0.1181100000000000066, 1.446430334472939084E-17, 2.244094000000000033 ) ) ;
#181 = ORIENTED_EDGE ( 'NONE', *, *, #249, .F. ) ;
#182 = CARTESIAN_POINT ( 'NONE',  ( 0.000000000000000000, 0.000000000000000000, 2.244094000000000033 ) ) ;
#183 = AXIS2_PLACEMENT_3D ( 'NONE', #213, #230, #171 ) ;
#184 = AXIS2_PLACEMENT_3D ( 'NONE', #240, #122, #121 ) ;
#185 = AXIS2_PLACEMENT_3D ( 'NONE', #176, #28, #173 ) ;
#186 = PRESENTATION_LAYER_ASSIGNMENT (  '', '', ( #147 ) ) ;
#187 = DIRECTION ( 'NONE',  ( 1.000000000000000000, 0.000000000000000000, 0.000000000000000000 ) ) ;
#188 = DIMENSIONAL_EXPONENTS ( 1.000000000000000000, 0.000000000000000000, 0.000000000000000000, 0.000000000000000000, 0.000000000000000000, 0.000000000000000000, 0.000000000000000000 ) ;
#189 = AXIS2_PLACEMENT_3D ( 'NONE', #276, #75, #169 ) ;
#190 = EDGE_CURVE ( 'NONE', #129, #81, #15, .T. ) ;
#191 = VECTOR ( 'NONE', #277, 39.37007874015748854 ) ;
#192 = EDGE_CURVE ( 'NONE', #175, #81, #248, .T. ) ;
#193 = FACE_OUTER_BOUND ( 'NONE', #206, .T. ) ;
#194 = DIRECTION ( 'NONE',  ( -0.000000000000000000, -0.000000000000000000, -1.000000000000000000 ) ) ;
#195 = FACE_OUTER_BOUND ( 'NONE', #127, .T. ) ;
#196 = ORIENTED_EDGE ( 'NONE', *, *, #63, .T. ) ;
#197 = EDGE_CURVE ( 'NONE', #18, #284, #131, .T. ) ;
#198 = LINE ( 'NONE', #37, #21 ) ;
#199 = ORIENTED_EDGE ( 'NONE', *, *, #145, .F. ) ;
#200 = APPLICATION_CONTEXT ( 'automotive_design' ) ;
#201 = CYLINDRICAL_SURFACE ( 'NONE', #225, 0.1181100000000000066 ) ;
#202 = ORIENTED_EDGE ( 'NONE', *, *, #159, .T. ) ;
#203 = MECHANICAL_DESIGN_GEOMETRIC_PRESENTATION_REPRESENTATION (  '', ( #274 ), #216 ) ;
#204 = EDGE_CURVE ( 'NONE', #66, #81, #287, .T. ) ;
#205 = DIRECTION ( 'NONE',  ( -1.224646799147353207E-16, -0.000000000000000000, -1.000000000000000000 ) ) ;
#206 = EDGE_LOOP ( 'NONE', ( #265, #88, #219, #217 ) ) ;
#207 = FACE_OUTER_BOUND ( 'NONE', #179, .T. ) ;
#208 = ORIENTED_EDGE ( 'NONE', *, *, #190, .F. ) ;
#209 = DIRECTION ( 'NONE',  ( 0.000000000000000000, 0.000000000000000000, -1.000000000000000000 ) ) ;
#210 = AXIS2_PLACEMENT_3D ( 'NONE', #245, #223, #112 ) ;
#211 = UNCERTAINTY_MEASURE_WITH_UNIT (LENGTH_MEASURE( 1.000000000000000082E-05 ), #170, 'distance_accuracy_value', 'NONE');
#212 = EDGE_CURVE ( 'NONE', #175, #64, #270, .T. ) ;
#213 = CARTESIAN_POINT ( 'NONE',  ( 7.714307363656999460E-17, 0.000000000000000000, 0.6299209999999999532 ) ) ;
#214 = CYLINDRICAL_SURFACE ( 'NONE', #49, 0.1181100000000000066 ) ;
#215 = DIRECTION ( 'NONE',  ( -0.000000000000000000, -0.000000000000000000, -1.000000000000000000 ) ) ;
#216 =( GEOMETRIC_REPRESENTATION_CONTEXT ( 3 ) GLOBAL_UNCERTAINTY_ASSIGNED_CONTEXT ( ( #299 ) ) GLOBAL_UNIT_ASSIGNED_CONTEXT ( ( #226, #153, #162 ) ) REPRESENTATION_CONTEXT ( 'NONE', 'WORKASPACE' ) );
#217 = ORIENTED_EDGE ( 'NONE', *, *, #204, .F. ) ;
#218 = FACE_OUTER_BOUND ( 'NONE', #154, .T. ) ;
#219 = ORIENTED_EDGE ( 'NONE', *, *, #190, .T. ) ;
#220 = ADVANCED_FACE ( 'NONE', ( #207 ), #138, .T. ) ;
#221 = SURFACE_STYLE_FILL_AREA ( #136 ) ;
#222 = ORIENTED_EDGE ( 'NONE', *, *, #212, .F. ) ;
#223 = DIRECTION ( 'NONE',  ( 0.000000000000000000, 0.000000000000000000, -1.000000000000000000 ) ) ;
#224 = ORIENTED_EDGE ( 'NONE', *, *, #261, .F. ) ;
#225 = AXIS2_PLACEMENT_3D ( 'NONE', #3, #194, #55 ) ;
#226 =( CONVERSION_BASED_UNIT ( 'INCH', #157 ) LENGTH_UNIT ( ) NAMED_UNIT ( #188 ) );
#227 = AXIS2_PLACEMENT_3D ( 'NONE', #102, #260, #177 ) ;
#228 = DIRECTION ( 'NONE',  ( 1.000000000000000000, 0.000000000000000000, 0.000000000000000000 ) ) ;
#229 = DIRECTION ( 'NONE',  ( -1.224646799147353207E-16, -0.000000000000000000, -1.000000000000000000 ) ) ;
#230 = DIRECTION ( 'NONE',  ( -1.224646799147353207E-16, -0.000000000000000000, -1.000000000000000000 ) ) ;
#231 = PRESENTATION_STYLE_ASSIGNMENT (( #142 ) ) ;
#232 = DIRECTION ( 'NONE',  ( 1.000000000000000000, 0.000000000000000000, -0.000000000000000000 ) ) ;
#233 = VERTEX_POINT ( 'NONE', #12 ) ;
#234 = CARTESIAN_POINT ( 'NONE',  ( -0.09832657499999998552, 0.000000000000000000, 2.408306506897443024E-17 ) ) ;
#235 = DIRECTION ( 'NONE',  ( -0.000000000000000000, -0.000000000000000000, -1.000000000000000000 ) ) ;
#236 = VECTOR ( 'NONE', #205, 39.37007874015748143 ) ;
#237 = ORIENTED_EDGE ( 'NONE', *, *, #159, .F. ) ;
#238 = DIRECTION ( 'NONE',  ( -1.224646799147353207E-16, -0.000000000000000000, -1.000000000000000000 ) ) ;
#239 = DIRECTION ( 'NONE',  ( 1.224646799147353207E-16, 0.000000000000000000, 1.000000000000000000 ) ) ;
#240 = CARTESIAN_POINT ( 'NONE',  ( 0.000000000000000000, 0.000000000000000000, 2.244094000000000033 ) ) ;
#241 = ORIENTED_EDGE ( 'NONE', *, *, #2, .F. ) ;
#242 = DIRECTION ( 'NONE',  ( -1.000000000000000000, 0.000000000000000000, 1.224646799147353207E-16 ) ) ;
#243 = ORIENTED_EDGE ( 'NONE', *, *, #252, .T. ) ;
#244 = CIRCLE ( 'NONE', #132, 0.1031100000000002570 ) ;
#245 = CARTESIAN_POINT ( 'NONE',  ( 0.000000000000000000, 0.000000000000000000, 2.229093999999999465 ) ) ;
#246 = SURFACE_STYLE_USAGE ( .BOTH. , #133 ) ;
#247 = DIMENSIONAL_EXPONENTS ( 1.000000000000000000, 0.000000000000000000, 0.000000000000000000, 0.000000000000000000, 0.000000000000000000, 0.000000000000000000, 0.000000000000000000 ) ;
#248 = LINE ( 'NONE', #180, #296 ) ;
#249 = EDGE_CURVE ( 'NONE', #284, #89, #73, .T. ) ;
#250 =( GEOMETRIC_REPRESENTATION_CONTEXT ( 3 ) GLOBAL_UNCERTAINTY_ASSIGNED_CONTEXT ( ( #92 ) ) GLOBAL_UNIT_ASSIGNED_CONTEXT ( ( #72, #48, #71 ) ) REPRESENTATION_CONTEXT ( 'NONE', 'WORKASPACE' ) );
#251 = DIRECTION ( 'NONE',  ( -1.000000000000000000, 0.000000000000000000, 0.000000000000000000 ) ) ;
#252 = EDGE_CURVE ( 'NONE', #81, #129, #50, .T. ) ;
#253 = AXIS2_PLACEMENT_3D ( 'NONE', #53, #141, #143 ) ;
#254 = CARTESIAN_POINT ( 'NONE',  ( 0.1031100000000002570, 1.354581824536888722E-17, 2.244094000000000033 ) ) ;
#255 = EDGE_CURVE ( 'NONE', #66, #18, #36, .T. ) ;
#256 = SURFACE_STYLE_FILL_AREA ( #98 ) ;
#257 = FACE_OUTER_BOUND ( 'NONE', #108, .T. ) ;
#258 = ORIENTED_EDGE ( 'NONE', *, *, #26, .F. ) ;
#259 = DIRECTION ( 'NONE',  ( 1.000000000000000000, 0.000000000000000000, 0.000000000000000000 ) ) ;
#260 = DIRECTION ( 'NONE',  ( 0.000000000000000000, 0.000000000000000000, 1.000000000000000000 ) ) ;
#261 = EDGE_CURVE ( 'NONE', #233, #64, #32, .T. ) ;
#262 = DIRECTION ( 'NONE',  ( 0.000000000000000000, 0.000000000000000000, 1.000000000000000000 ) ) ;
#263 = ORIENTED_EDGE ( 'NONE', *, *, #192, .T. ) ;
#264 = CYLINDRICAL_SURFACE ( 'NONE', #68, 0.09832657499999998552 ) ;
#265 = ORIENTED_EDGE ( 'NONE', *, *, #25, .F. ) ;
#266 = DIRECTION ( 'NONE',  ( 0.1736481776669313581, 0.000000000000000000, 0.9848077530122077983 ) ) ;
#267 = EDGE_LOOP ( 'NONE', ( #144, #86, #83, #100 ) ) ;
#268 = DIRECTION ( 'NONE',  ( 0.000000000000000000, 0.000000000000000000, -1.000000000000000000 ) ) ;
#269 = CLOSED_SHELL ( 'NONE', ( #46, #130, #220, #23, #118, #84, #168, #105, #94, #38 ) ) ;
#270 = CIRCLE ( 'NONE', #210, 0.1181100000000000066 ) ;
#271 = DIRECTION ( 'NONE',  ( -1.224646799147353207E-16, -0.000000000000000000, -1.000000000000000000 ) ) ;
#272 = CARTESIAN_POINT ( 'NONE',  ( 0.000000000000000000, 0.000000000000000000, 2.244094000000000033 ) ) ;
#273 =( LENGTH_UNIT ( ) NAMED_UNIT ( * ) SI_UNIT ( $, .METRE. ) );
#274 = STYLED_ITEM ( 'NONE', ( #19 ), #155 ) ;
#275 = PRODUCT_RELATED_PRODUCT_CATEGORY ( 'part', '', ( #17 ) ) ;
#276 = CARTESIAN_POINT ( 'NONE',  ( 7.714307363656999460E-17, 0.000000000000000000, 0.6299209999999999532 ) ) ;
#277 = DIRECTION ( 'NONE',  ( 0.7071067811865358044, 8.659560562354788645E-17, -0.7071067811865590080 ) ) ;
#278 = AXIS2_PLACEMENT_3D ( 'NONE', #281, #149, #42 ) ;
#279 = DIRECTION ( 'NONE',  ( -0.1736481776669311639, 2.126576849575783008E-17, 0.9848077530122080203 ) ) ;
#280 = EDGE_LOOP ( 'NONE', ( #56, #263, #208, #16 ) ) ;
#281 = CARTESIAN_POINT ( 'NONE',  ( 0.000000000000000000, 0.000000000000000000, 0.000000000000000000 ) ) ;
#282 = ORIENTED_EDGE ( 'NONE', *, *, #197, .F. ) ;
#283 = CARTESIAN_POINT ( 'NONE',  ( 0.000000000000000000, 0.000000000000000000, 0.000000000000000000 ) ) ;
#284 = VERTEX_POINT ( 'NONE', #234 ) ;
#285 = FACE_OUTER_BOUND ( 'NONE', #172, .T. ) ;
#286 = EDGE_LOOP ( 'NONE', ( #288, #241, #134, #222 ) ) ;
#287 = LINE ( 'NONE', #87, #91 ) ;
#288 = ORIENTED_EDGE ( 'NONE', *, *, #294, .F. ) ;
#289 = CARTESIAN_POINT ( 'NONE',  ( 0.000000000000000000, 0.000000000000000000, 2.244094000000000033 ) ) ;
#290 = ORIENTED_EDGE ( 'NONE', *, *, #294, .T. ) ;
#291 = DIRECTION ( 'NONE',  ( -1.000000000000000000, 0.000000000000000000, 0.000000000000000000 ) ) ;
#292 = VECTOR ( 'NONE', #279, 39.37007874015747433 ) ;
#293 = VECTOR ( 'NONE', #235, 39.37007874015748143 ) ;
#294 = EDGE_CURVE ( 'NONE', #103, #175, #106, .T. ) ;
#295 =( LENGTH_UNIT ( ) NAMED_UNIT ( * ) SI_UNIT ( $, .METRE. ) );
#296 = VECTOR ( 'NONE', #116, 39.37007874015748143 ) ;
#297 =( GEOMETRIC_REPRESENTATION_CONTEXT ( 3 ) GLOBAL_UNCERTAINTY_ASSIGNED_CONTEXT ( ( #211 ) ) GLOBAL_UNIT_ASSIGNED_CONTEXT ( ( #170, #125, #120 ) ) REPRESENTATION_CONTEXT ( 'NONE', 'WORKASPACE' ) );
#298 = DIRECTION ( 'NONE',  ( 0.000000000000000000, 0.000000000000000000, 1.000000000000000000 ) ) ;
#299 = UNCERTAINTY_MEASURE_WITH_UNIT (LENGTH_MEASURE( 1.000000000000000082E-05 ), #226, 'distance_accuracy_value', 'NONE');
ENDSEC;
END-ISO-10303-21;
